ISO-10303-21;
HEADER;
FILE_DESCRIPTION(('CATIA V5 STEP Exchange','CAx-IF Rec.Pracs.--- Model Styling and Organization---1.4--- 2014-01-23'),'2;1');

FILE_NAME ('D1448135_0', '2020-01-31T07:11:32+00:00', ('none'), ('Weidmueller'), 'CATIA Version 5-6 Release 2016 SP3 HF44', 'CATIA V5 STEP AP214', 'none');

FILE_SCHEMA(('AUTOMOTIVE_DESIGN { 1 0 10303 214 1 1 1 1 }'));

ENDSEC;
DATA;
#5=PRODUCT('1068400000_WTW_WTL6-1_DB','','',(#2)) ;
#2=PRODUCT_CONTEXT(' ',#1,'mechanical') ;
#1=APPLICATION_CONTEXT('automotive design') ;
#10=PRODUCT_DEFINITION('',' ',#6,#3) ;
#3=PRODUCT_DEFINITION_CONTEXT('part definition',#1,' ') ;
#11=PRODUCT_DEFINITION_SHAPE(' ',' ',#10) ;
#517=MECHANICAL_DESIGN_GEOMETRIC_PRESENTATION_REPRESENTATION(' ',(#29),#16) ;
#19=SHAPE_REPRESENTATION(' ',(#18),#16) ;
#18=AXIS2_PLACEMENT_3D(' ',#17,$,$) ;
#35=AXIS2_PLACEMENT_3D('Plane Axis2P3D',#32,#33,#34) ;
#75=AXIS2_PLACEMENT_3D('Cylinder Axis2P3D',#72,#73,#74) ;
#88=AXIS2_PLACEMENT_3D('Circle Axis2P3D',#86,#87,$) ;
#93=AXIS2_PLACEMENT_3D('Circle Axis2P3D',#91,#92,$) ;
#106=AXIS2_PLACEMENT_3D('Cylinder Axis2P3D',#103,#104,#105) ;
#110=AXIS2_PLACEMENT_3D('Circle Axis2P3D',#108,#109,$) ;
#124=AXIS2_PLACEMENT_3D('Circle Axis2P3D',#122,#123,$) ;
#137=AXIS2_PLACEMENT_3D('Plane Axis2P3D',#134,#135,#136) ;
#148=AXIS2_PLACEMENT_3D('Circle Axis2P3D',#146,#147,$) ;
#162=AXIS2_PLACEMENT_3D('Circle Axis2P3D',#160,#161,$) ;
#202=AXIS2_PLACEMENT_3D('Plane Axis2P3D',#199,#200,#201) ;
#226=AXIS2_PLACEMENT_3D('Plane Axis2P3D',#223,#224,#225) ;
#250=AXIS2_PLACEMENT_3D('Cylinder Axis2P3D',#247,#248,#249) ;
#254=AXIS2_PLACEMENT_3D('Circle Axis2P3D',#252,#253,$) ;
#274=AXIS2_PLACEMENT_3D('Plane Axis2P3D',#271,#272,#273) ;
#298=AXIS2_PLACEMENT_3D('Cylinder Axis2P3D',#295,#296,#297) ;
#302=AXIS2_PLACEMENT_3D('Circle Axis2P3D',#300,#301,$) ;
#322=AXIS2_PLACEMENT_3D('Plane Axis2P3D',#319,#320,#321) ;
#346=AXIS2_PLACEMENT_3D('Plane Axis2P3D',#343,#344,#345) ;
#363=AXIS2_PLACEMENT_3D('Cylinder Axis2P3D',#360,#361,#362) ;
#376=AXIS2_PLACEMENT_3D('Circle Axis2P3D',#374,#375,$) ;
#390=AXIS2_PLACEMENT_3D('Circle Axis2P3D',#388,#389,$) ;
#402=AXIS2_PLACEMENT_3D('Circle Axis2P3D',#400,#401,$) ;
#407=AXIS2_PLACEMENT_3D('Circle Axis2P3D',#405,#406,$) ;
#420=AXIS2_PLACEMENT_3D('Cylinder Axis2P3D',#417,#418,#419) ;
#433=AXIS2_PLACEMENT_3D('Circle Axis2P3D',#431,#432,$) ;
#447=AXIS2_PLACEMENT_3D('Circle Axis2P3D',#445,#446,$) ;
#459=AXIS2_PLACEMENT_3D('Circle Axis2P3D',#457,#458,$) ;
#464=AXIS2_PLACEMENT_3D('Circle Axis2P3D',#462,#463,$) ;
#477=AXIS2_PLACEMENT_3D('Plane Axis2P3D',#474,#475,#476) ;
#492=AXIS2_PLACEMENT_3D('Plane Axis2P3D',#489,#490,#491) ;
#17=CARTESIAN_POINT(' ',(0.,0.,0.)) ;
#32=CARTESIAN_POINT('Axis2P3D Location',(2.625,68.5,0.749999841992)) ;
#37=CARTESIAN_POINT('Line Origine',(3.375,68.5,0.749999841992)) ;
#41=CARTESIAN_POINT('Vertex',(2.625,68.5,0.749999841992)) ;
#43=CARTESIAN_POINT('Vertex',(4.125,68.5,0.749999841992)) ;
#46=CARTESIAN_POINT('Line Origine',(2.625,68.5,21.624999842)) ;
#50=CARTESIAN_POINT('Vertex',(2.625,68.5,42.499999842)) ;
#53=CARTESIAN_POINT('Line Origine',(3.375,68.5,42.499999842)) ;
#57=CARTESIAN_POINT('Vertex',(4.125,68.5,42.499999842)) ;
#60=CARTESIAN_POINT('Line Origine',(4.125,68.5,21.624999842)) ;
#72=CARTESIAN_POINT('Axis2P3D Location',(3.375,67.75,0.75)) ;
#77=CARTESIAN_POINT('Line Origine',(3.375,68.2803331376,0.219672965878)) ;
#81=CARTESIAN_POINT('Vertex',(2.625,68.2803323284,0.219672156663)) ;
#83=CARTESIAN_POINT('Vertex',(4.125,68.2803323284,0.219672156663)) ;
#86=CARTESIAN_POINT('Axis2P3D Location',(2.625,67.75,0.75)) ;
#91=CARTESIAN_POINT('Axis2P3D Location',(4.125,67.75,0.75)) ;
#103=CARTESIAN_POINT('Axis2P3D Location',(3.375,66.5,42.5)) ;
#108=CARTESIAN_POINT('Axis2P3D Location',(2.625,66.5,42.5)) ;
#112=CARTESIAN_POINT('Vertex',(2.625,66.5,44.5)) ;
#115=CARTESIAN_POINT('Line Origine',(3.375,66.5,44.5)) ;
#119=CARTESIAN_POINT('Vertex',(4.125,66.5,44.5)) ;
#122=CARTESIAN_POINT('Axis2P3D Location',(4.125,66.5,42.5)) ;
#134=CARTESIAN_POINT('Axis2P3D Location',(4.125,34.25,-3.5527136788E-015)) ;
#139=CARTESIAN_POINT('Line Origine',(4.125,34.25,44.5)) ;
#143=CARTESIAN_POINT('Vertex',(4.125,2.,44.5)) ;
#146=CARTESIAN_POINT('Axis2P3D Location',(4.125,2.,42.5)) ;
#150=CARTESIAN_POINT('Vertex',(4.125,2.60237444819E-015,42.5)) ;
#153=CARTESIAN_POINT('Line Origine',(4.125,1.3241493419E-015,21.624999842)) ;
#157=CARTESIAN_POINT('Vertex',(4.125,4.59242452928E-017,0.749999841992)) ;
#160=CARTESIAN_POINT('Axis2P3D Location',(4.125,0.75,0.75)) ;
#164=CARTESIAN_POINT('Vertex',(4.125,0.219672965874,0.219666862364)) ;
#167=CARTESIAN_POINT('Line Origine',(4.125,0.329507271707,0.109833858934)) ;
#171=CARTESIAN_POINT('Vertex',(4.125,0.439342117029,3.16020459873E-007)) ;
#174=CARTESIAN_POINT('Line Origine',(4.125,34.2500024931,-3.55271383146E-015)) ;
#178=CARTESIAN_POINT('Vertex',(4.125,68.0606625532,-5.62301966244E-015)) ;
#181=CARTESIAN_POINT('Line Origine',(4.125,68.1704972038,0.109835841317)) ;
#199=CARTESIAN_POINT('Axis2P3D Location',(2.625,68.0606620791,-4.74029761222E-007)) ;
#204=CARTESIAN_POINT('Line Origine',(3.375,68.0606620791,-4.74029761222E-007)) ;
#208=CARTESIAN_POINT('Vertex',(2.625,68.0606625532,-5.62301966244E-015)) ;
#211=CARTESIAN_POINT('Line Origine',(2.625,68.1704972038,0.109835841317)) ;
#223=CARTESIAN_POINT('Axis2P3D Location',(2.625,2.,44.5)) ;
#228=CARTESIAN_POINT('Line Origine',(2.625,34.25,44.5)) ;
#232=CARTESIAN_POINT('Vertex',(2.625,2.,44.5)) ;
#235=CARTESIAN_POINT('Line Origine',(3.375,2.,44.5)) ;
#247=CARTESIAN_POINT('Axis2P3D Location',(3.375,2.,42.5)) ;
#252=CARTESIAN_POINT('Axis2P3D Location',(2.625,2.,42.5)) ;
#256=CARTESIAN_POINT('Vertex',(2.625,2.60237444819E-015,42.5)) ;
#259=CARTESIAN_POINT('Line Origine',(3.375,1.7763568394E-015,42.5)) ;
#271=CARTESIAN_POINT('Axis2P3D Location',(2.625,2.16435768795E-015,0.749999841992)) ;
#276=CARTESIAN_POINT('Line Origine',(2.625,3.44258278456E-015,21.624999842)) ;
#280=CARTESIAN_POINT('Vertex',(2.625,4.59242452928E-017,0.749999841992)) ;
#283=CARTESIAN_POINT('Line Origine',(3.375,2.11843343298E-015,0.749999841992)) ;
#295=CARTESIAN_POINT('Axis2P3D Location',(3.375,0.75,0.75)) ;
#300=CARTESIAN_POINT('Axis2P3D Location',(2.625,0.75,0.75)) ;
#304=CARTESIAN_POINT('Vertex',(2.625,0.219672965874,0.219666862364)) ;
#307=CARTESIAN_POINT('Line Origine',(3.375,0.219672965874,0.219666862364)) ;
#319=CARTESIAN_POINT('Axis2P3D Location',(2.625,0.219672426385,0.219667401847)) ;
#324=CARTESIAN_POINT('Line Origine',(2.625,0.329507271707,0.109833858934)) ;
#328=CARTESIAN_POINT('Vertex',(2.625,0.439342117029,3.16020459873E-007)) ;
#331=CARTESIAN_POINT('Line Origine',(3.375,0.439342117029,3.16020464908E-007)) ;
#343=CARTESIAN_POINT('Axis2P3D Location',(2.625,0.439342433053,0.)) ;
#348=CARTESIAN_POINT('Line Origine',(2.625,34.2500024931,-2.07030583098E-015)) ;
#360=CARTESIAN_POINT('Axis2P3D Location',(0.70249999999,64.15,19.2)) ;
#365=CARTESIAN_POINT('Line Origine',(0.70249999999,62.95,19.2)) ;
#369=CARTESIAN_POINT('Vertex',(2.625,62.95,19.2)) ;
#371=CARTESIAN_POINT('Vertex',(3.47923487085E-015,62.95,19.2)) ;
#374=CARTESIAN_POINT('Axis2P3D Location',(2.625,64.15,19.2)) ;
#378=CARTESIAN_POINT('Vertex',(2.625,65.35,19.2)) ;
#381=CARTESIAN_POINT('Line Origine',(0.70249999999,65.35,19.2)) ;
#385=CARTESIAN_POINT('Vertex',(3.62619248675E-015,65.35,19.2)) ;
#388=CARTESIAN_POINT('Axis2P3D Location',(3.10862446895E-015,64.15,19.2)) ;
#400=CARTESIAN_POINT('Axis2P3D Location',(2.625,64.15,19.2)) ;
#405=CARTESIAN_POINT('Axis2P3D Location',(3.10862446895E-015,64.15,19.2)) ;
#417=CARTESIAN_POINT('Axis2P3D Location',(0.70249999999,4.35,19.2)) ;
#422=CARTESIAN_POINT('Line Origine',(0.70249999999,3.15,19.2)) ;
#426=CARTESIAN_POINT('Vertex',(2.625,3.15,19.2)) ;
#428=CARTESIAN_POINT('Vertex',(-1.82459058599E-016,3.15,19.2)) ;
#431=CARTESIAN_POINT('Axis2P3D Location',(2.625,4.35,19.2)) ;
#435=CARTESIAN_POINT('Vertex',(2.625,5.55,19.2)) ;
#438=CARTESIAN_POINT('Line Origine',(0.70249999999,5.55,19.2)) ;
#442=CARTESIAN_POINT('Vertex',(-3.55014427012E-017,5.55,19.2)) ;
#445=CARTESIAN_POINT('Axis2P3D Location',(-3.99680288865E-015,4.35,19.2)) ;
#457=CARTESIAN_POINT('Axis2P3D Location',(2.625,4.35,19.2)) ;
#462=CARTESIAN_POINT('Axis2P3D Location',(-3.99680288865E-015,4.35,19.2)) ;
#474=CARTESIAN_POINT('Axis2P3D Location',(3.5527136788E-015,64.15,18.3159564886)) ;
#489=CARTESIAN_POINT('Axis2P3D Location',(2.625,34.25,-3.5527136788E-015)) ;
#33=DIRECTION('Axis2P3D Direction',(6.12323399574E-017,1.,-6.12323399574E-017)) ;
#34=DIRECTION('Axis2P3D XDirection',(0.,6.12323399574E-017,1.)) ;
#38=DIRECTION('Vector Direction',(1.,0.,0.)) ;
#47=DIRECTION('Vector Direction',(0.,0.,1.)) ;
#54=DIRECTION('Vector Direction',(1.,0.,0.)) ;
#61=DIRECTION('Vector Direction',(0.,0.,1.)) ;
#73=DIRECTION('Axis2P3D Direction',(1.,-6.12323399574E-017,3.74939945665E-033)) ;
#74=DIRECTION('Axis2P3D XDirection',(4.32980519663E-017,0.707110850189,-0.707102712161)) ;
#78=DIRECTION('Vector Direction',(1.,0.,0.)) ;
#87=DIRECTION('Axis2P3D Direction',(1.,-6.12323399574E-017,3.74939945665E-033)) ;
#92=DIRECTION('Axis2P3D Direction',(1.,-6.12323399574E-017,3.74939945665E-033)) ;
#104=DIRECTION('Axis2P3D Direction',(1.,-6.12323399574E-017,3.74939945665E-033)) ;
#105=DIRECTION('Axis2P3D XDirection',(6.12323399574E-017,1.,-6.12323399574E-017)) ;
#109=DIRECTION('Axis2P3D Direction',(1.,-6.12323399574E-017,3.74939945665E-033)) ;
#116=DIRECTION('Vector Direction',(1.,0.,0.)) ;
#123=DIRECTION('Axis2P3D Direction',(1.,-6.12323399574E-017,3.74939945665E-033)) ;
#135=DIRECTION('Axis2P3D Direction',(1.,-6.12323399574E-017,3.74939945665E-033)) ;
#136=DIRECTION('Axis2P3D XDirection',(6.12323399574E-017,1.,-6.12323399574E-017)) ;
#140=DIRECTION('Vector Direction',(5.50808322295E-017,1.,-1.10161664459E-016)) ;
#147=DIRECTION('Axis2P3D Direction',(1.,-6.12323399574E-017,3.74939945665E-033)) ;
#154=DIRECTION('Vector Direction',(0.,6.12323399574E-017,1.)) ;
#161=DIRECTION('Axis2P3D Direction',(1.,-6.12323399574E-017,3.74939945665E-033)) ;
#168=DIRECTION('Vector Direction',(0.,0.707110973595,-0.707102588754)) ;
#175=DIRECTION('Vector Direction',(5.25383661912E-017,1.,-6.12323399574E-017)) ;
#182=DIRECTION('Vector Direction',(0.,0.7071029484,0.707110613953)) ;
#200=DIRECTION('Axis2P3D Direction',(4.3298037501E-017,0.707110613953,-0.7071029484)) ;
#201=DIRECTION('Axis2P3D XDirection',(4.32975681213E-017,0.7071029484,0.707110613953)) ;
#205=DIRECTION('Vector Direction',(1.,0.,0.)) ;
#212=DIRECTION('Vector Direction',(0.,0.7071029484,0.707110613953)) ;
#224=DIRECTION('Axis2P3D Direction',(-3.74939945665E-033,-6.12323399574E-017,-1.)) ;
#225=DIRECTION('Axis2P3D XDirection',(6.12323399574E-017,1.,-6.12323399574E-017)) ;
#229=DIRECTION('Vector Direction',(6.19659362581E-017,1.,-1.10161664459E-016)) ;
#236=DIRECTION('Vector Direction',(1.,0.,0.)) ;
#248=DIRECTION('Axis2P3D Direction',(1.,-6.12323399574E-017,3.74939945665E-033)) ;
#249=DIRECTION('Axis2P3D XDirection',(3.74939945665E-033,1.22464679915E-016,1.)) ;
#253=DIRECTION('Axis2P3D Direction',(1.,-6.12323399574E-017,3.74939945665E-033)) ;
#260=DIRECTION('Vector Direction',(1.,0.,0.)) ;
#272=DIRECTION('Axis2P3D Direction',(6.12323399574E-017,1.,-6.12323399574E-017)) ;
#273=DIRECTION('Axis2P3D XDirection',(0.,6.12323399574E-017,1.)) ;
#277=DIRECTION('Vector Direction',(0.,6.12323399574E-017,1.)) ;
#284=DIRECTION('Vector Direction',(1.,-6.12323399574E-017,0.)) ;
#296=DIRECTION('Axis2P3D Direction',(1.,-6.12323399574E-017,3.74939945665E-033)) ;
#297=DIRECTION('Axis2P3D XDirection',(-6.12323399574E-017,-1.,-4.25719507863E-015)) ;
#301=DIRECTION('Axis2P3D Direction',(1.,-6.12323399574E-017,3.74939945665E-033)) ;
#308=DIRECTION('Vector Direction',(1.,0.,0.)) ;
#320=DIRECTION('Axis2P3D Direction',(-4.32975460993E-017,-0.707102588754,-0.707110973595)) ;
#321=DIRECTION('Axis2P3D XDirection',(4.32980595227E-017,0.707110973595,-0.707102588754)) ;
#325=DIRECTION('Vector Direction',(0.,0.707110973595,-0.707102588754)) ;
#332=DIRECTION('Vector Direction',(1.,-7.40148683083E-017,0.)) ;
#344=DIRECTION('Axis2P3D Direction',(-3.74939945665E-033,-6.12323399574E-017,-1.)) ;
#345=DIRECTION('Axis2P3D XDirection',(6.12323399574E-017,1.,-6.12323399574E-017)) ;
#349=DIRECTION('Vector Direction',(5.91056619651E-017,1.,-6.12323399574E-017)) ;
#361=DIRECTION('Axis2P3D Direction',(-1.,6.12323399574E-017,-3.74939945665E-033)) ;
#362=DIRECTION('Axis2P3D XDirection',(6.12323399574E-017,1.,-6.12323399574E-017)) ;
#366=DIRECTION('Vector Direction',(-1.,0.,0.)) ;
#375=DIRECTION('Axis2P3D Direction',(-1.,6.12323399574E-017,-3.74939945665E-033)) ;
#382=DIRECTION('Vector Direction',(-1.,0.,0.)) ;
#389=DIRECTION('Axis2P3D Direction',(-1.,6.12323399574E-017,-3.74939945665E-033)) ;
#401=DIRECTION('Axis2P3D Direction',(-1.,6.12323399574E-017,-3.74939945665E-033)) ;
#406=DIRECTION('Axis2P3D Direction',(-1.,6.12323399574E-017,-3.74939945665E-033)) ;
#418=DIRECTION('Axis2P3D Direction',(-1.,6.12323399574E-017,-3.74939945665E-033)) ;
#419=DIRECTION('Axis2P3D XDirection',(6.12323399574E-017,1.,-6.12323399574E-017)) ;
#423=DIRECTION('Vector Direction',(-1.,0.,0.)) ;
#432=DIRECTION('Axis2P3D Direction',(-1.,6.12323399574E-017,-3.74939945665E-033)) ;
#439=DIRECTION('Vector Direction',(-1.,0.,0.)) ;
#446=DIRECTION('Axis2P3D Direction',(-1.,6.12323399574E-017,-3.74939945665E-033)) ;
#458=DIRECTION('Axis2P3D Direction',(-1.,6.12323399574E-017,-3.74939945665E-033)) ;
#463=DIRECTION('Axis2P3D Direction',(-1.,6.12323399574E-017,-3.74939945665E-033)) ;
#475=DIRECTION('Axis2P3D Direction',(1.,-6.12323399574E-017,3.74939945665E-033)) ;
#476=DIRECTION('Axis2P3D XDirection',(6.12323399574E-017,1.,-6.12323399574E-017)) ;
#490=DIRECTION('Axis2P3D Direction',(1.,-6.12323399574E-017,3.74939945665E-033)) ;
#491=DIRECTION('Axis2P3D XDirection',(6.12323399574E-017,1.,-6.12323399574E-017)) ;
#30=PRESENTATION_LAYER_ASSIGNMENT('1',' ',(#21)) ;
#8=PRODUCT_RELATED_PRODUCT_CATEGORY('part',$,(#5)) ;
#7=PRODUCT_CATEGORY('part','specification') ;
#29=STYLED_ITEM(' ',(#28),#21) ;
#28=PRESENTATION_STYLE_ASSIGNMENT((#27)) ;
#27=SURFACE_STYLE_USAGE(.BOTH.,#26) ;
#26=SURFACE_SIDE_STYLE(' ',(#25)) ;
#25=SURFACE_STYLE_FILL_AREA(#24) ;
#24=FILL_AREA_STYLE(' ',(#23)) ;
#23=FILL_AREA_STYLE_COLOUR(' ',#22) ;
#39=VECTOR('Line Direction',#38,1.) ;
#48=VECTOR('Line Direction',#47,1.) ;
#55=VECTOR('Line Direction',#54,1.) ;
#62=VECTOR('Line Direction',#61,1.) ;
#79=VECTOR('Line Direction',#78,1.) ;
#117=VECTOR('Line Direction',#116,1.) ;
#141=VECTOR('Line Direction',#140,1.) ;
#155=VECTOR('Line Direction',#154,1.) ;
#169=VECTOR('Line Direction',#168,1.) ;
#176=VECTOR('Line Direction',#175,1.) ;
#183=VECTOR('Line Direction',#182,1.) ;
#206=VECTOR('Line Direction',#205,1.) ;
#213=VECTOR('Line Direction',#212,1.) ;
#230=VECTOR('Line Direction',#229,1.) ;
#237=VECTOR('Line Direction',#236,1.) ;
#261=VECTOR('Line Direction',#260,1.) ;
#278=VECTOR('Line Direction',#277,1.) ;
#285=VECTOR('Line Direction',#284,1.) ;
#309=VECTOR('Line Direction',#308,1.) ;
#326=VECTOR('Line Direction',#325,1.) ;
#333=VECTOR('Line Direction',#332,1.) ;
#350=VECTOR('Line Direction',#349,1.) ;
#367=VECTOR('Line Direction',#366,1.) ;
#383=VECTOR('Line Direction',#382,1.) ;
#424=VECTOR('Line Direction',#423,1.) ;
#440=VECTOR('Line Direction',#439,1.) ;
#15=UNCERTAINTY_MEASURE_WITH_UNIT(LENGTH_MEASURE(0.005),#12,'distance_accuracy_value','CONFUSED CURVE UNCERTAINTY') ;
#516=SHAPE_REPRESENTATION_RELATIONSHIP(' ',' ',#19,#515) ;
#66=ORIENTED_EDGE('',*,*,#45,.F.) ;
#67=ORIENTED_EDGE('',*,*,#52,.T.) ;
#68=ORIENTED_EDGE('',*,*,#59,.T.) ;
#69=ORIENTED_EDGE('',*,*,#64,.F.) ;
#97=ORIENTED_EDGE('',*,*,#85,.F.) ;
#98=ORIENTED_EDGE('',*,*,#90,.T.) ;
#99=ORIENTED_EDGE('',*,*,#45,.T.) ;
#100=ORIENTED_EDGE('',*,*,#95,.F.) ;
#128=ORIENTED_EDGE('',*,*,#59,.F.) ;
#129=ORIENTED_EDGE('',*,*,#114,.T.) ;
#130=ORIENTED_EDGE('',*,*,#121,.T.) ;
#131=ORIENTED_EDGE('',*,*,#126,.F.) ;
#187=ORIENTED_EDGE('',*,*,#64,.T.) ;
#188=ORIENTED_EDGE('',*,*,#126,.T.) ;
#189=ORIENTED_EDGE('',*,*,#145,.T.) ;
#190=ORIENTED_EDGE('',*,*,#152,.T.) ;
#191=ORIENTED_EDGE('',*,*,#159,.T.) ;
#192=ORIENTED_EDGE('',*,*,#166,.T.) ;
#193=ORIENTED_EDGE('',*,*,#173,.T.) ;
#194=ORIENTED_EDGE('',*,*,#180,.T.) ;
#195=ORIENTED_EDGE('',*,*,#185,.T.) ;
#196=ORIENTED_EDGE('',*,*,#95,.T.) ;
#217=ORIENTED_EDGE('',*,*,#210,.F.) ;
#218=ORIENTED_EDGE('',*,*,#215,.T.) ;
#219=ORIENTED_EDGE('',*,*,#85,.T.) ;
#220=ORIENTED_EDGE('',*,*,#185,.F.) ;
#241=ORIENTED_EDGE('',*,*,#121,.F.) ;
#242=ORIENTED_EDGE('',*,*,#234,.T.) ;
#243=ORIENTED_EDGE('',*,*,#239,.T.) ;
#244=ORIENTED_EDGE('',*,*,#145,.F.) ;
#265=ORIENTED_EDGE('',*,*,#239,.F.) ;
#266=ORIENTED_EDGE('',*,*,#258,.T.) ;
#267=ORIENTED_EDGE('',*,*,#263,.T.) ;
#268=ORIENTED_EDGE('',*,*,#152,.F.) ;
#289=ORIENTED_EDGE('',*,*,#263,.F.) ;
#290=ORIENTED_EDGE('',*,*,#282,.T.) ;
#291=ORIENTED_EDGE('',*,*,#287,.T.) ;
#292=ORIENTED_EDGE('',*,*,#159,.F.) ;
#313=ORIENTED_EDGE('',*,*,#287,.F.) ;
#314=ORIENTED_EDGE('',*,*,#306,.T.) ;
#315=ORIENTED_EDGE('',*,*,#311,.T.) ;
#316=ORIENTED_EDGE('',*,*,#166,.F.) ;
#337=ORIENTED_EDGE('',*,*,#311,.F.) ;
#338=ORIENTED_EDGE('',*,*,#330,.T.) ;
#339=ORIENTED_EDGE('',*,*,#335,.T.) ;
#340=ORIENTED_EDGE('',*,*,#173,.F.) ;
#354=ORIENTED_EDGE('',*,*,#335,.F.) ;
#355=ORIENTED_EDGE('',*,*,#352,.T.) ;
#356=ORIENTED_EDGE('',*,*,#210,.T.) ;
#357=ORIENTED_EDGE('',*,*,#180,.F.) ;
#394=ORIENTED_EDGE('',*,*,#373,.F.) ;
#395=ORIENTED_EDGE('',*,*,#380,.T.) ;
#396=ORIENTED_EDGE('',*,*,#387,.T.) ;
#397=ORIENTED_EDGE('',*,*,#392,.T.) ;
#411=ORIENTED_EDGE('',*,*,#387,.F.) ;
#412=ORIENTED_EDGE('',*,*,#404,.T.) ;
#413=ORIENTED_EDGE('',*,*,#373,.T.) ;
#414=ORIENTED_EDGE('',*,*,#409,.T.) ;
#451=ORIENTED_EDGE('',*,*,#430,.F.) ;
#452=ORIENTED_EDGE('',*,*,#437,.T.) ;
#453=ORIENTED_EDGE('',*,*,#444,.T.) ;
#454=ORIENTED_EDGE('',*,*,#449,.T.) ;
#468=ORIENTED_EDGE('',*,*,#444,.F.) ;
#469=ORIENTED_EDGE('',*,*,#461,.T.) ;
#470=ORIENTED_EDGE('',*,*,#430,.T.) ;
#471=ORIENTED_EDGE('',*,*,#466,.T.) ;
#480=ORIENTED_EDGE('',*,*,#392,.F.) ;
#481=ORIENTED_EDGE('',*,*,#409,.F.) ;
#485=ORIENTED_EDGE('',*,*,#449,.F.) ;
#486=ORIENTED_EDGE('',*,*,#466,.F.) ;
#495=ORIENTED_EDGE('',*,*,#90,.F.) ;
#496=ORIENTED_EDGE('',*,*,#215,.F.) ;
#497=ORIENTED_EDGE('',*,*,#352,.F.) ;
#498=ORIENTED_EDGE('',*,*,#330,.F.) ;
#499=ORIENTED_EDGE('',*,*,#306,.F.) ;
#500=ORIENTED_EDGE('',*,*,#282,.F.) ;
#501=ORIENTED_EDGE('',*,*,#258,.F.) ;
#502=ORIENTED_EDGE('',*,*,#234,.F.) ;
#503=ORIENTED_EDGE('',*,*,#114,.F.) ;
#504=ORIENTED_EDGE('',*,*,#52,.F.) ;
#507=ORIENTED_EDGE('',*,*,#380,.F.) ;
#508=ORIENTED_EDGE('',*,*,#404,.F.) ;
#511=ORIENTED_EDGE('',*,*,#461,.F.) ;
#512=ORIENTED_EDGE('',*,*,#437,.F.) ;
#509=FACE_BOUND('',#506,.T.) ;
#513=FACE_BOUND('',#510,.T.) ;
#31=CLOSED_SHELL('Closed Shell',(#71,#102,#133,#198,#222,#246,#270,#294,#318,#342,#359,#399,#416,#456,#473,#483,#488,#514)) ;
#515=ADVANCED_BREP_SHAPE_REPRESENTATION('NONE',(#21),#16) ;
#71=ADVANCED_FACE('Hauptk\X2\00F6\X0\rper',(#70),#36,.T.) ;
#102=ADVANCED_FACE('Hauptk\X2\00F6\X0\rper',(#101),#76,.T.) ;
#133=ADVANCED_FACE('Hauptk\X2\00F6\X0\rper',(#132),#107,.T.) ;
#198=ADVANCED_FACE('Hauptk\X2\00F6\X0\rper',(#197),#138,.T.) ;
#222=ADVANCED_FACE('Hauptk\X2\00F6\X0\rper',(#221),#203,.T.) ;
#246=ADVANCED_FACE('Hauptk\X2\00F6\X0\rper',(#245),#227,.F.) ;
#270=ADVANCED_FACE('Hauptk\X2\00F6\X0\rper',(#269),#251,.T.) ;
#294=ADVANCED_FACE('Hauptk\X2\00F6\X0\rper',(#293),#275,.F.) ;
#318=ADVANCED_FACE('Hauptk\X2\00F6\X0\rper',(#317),#299,.T.) ;
#342=ADVANCED_FACE('Hauptk\X2\00F6\X0\rper',(#341),#323,.T.) ;
#359=ADVANCED_FACE('Hauptk\X2\00F6\X0\rper',(#358),#347,.T.) ;
#399=ADVANCED_FACE('Hauptk\X2\00F6\X0\rper',(#398),#364,.T.) ;
#416=ADVANCED_FACE('Hauptk\X2\00F6\X0\rper',(#415),#364,.T.) ;
#456=ADVANCED_FACE('Hauptk\X2\00F6\X0\rper',(#455),#421,.T.) ;
#473=ADVANCED_FACE('Hauptk\X2\00F6\X0\rper',(#472),#421,.T.) ;
#483=ADVANCED_FACE('Hauptk\X2\00F6\X0\rper',(#482),#478,.F.) ;
#488=ADVANCED_FACE('Hauptk\X2\00F6\X0\rper',(#487),#478,.F.) ;
#514=ADVANCED_FACE('Hauptk\X2\00F6\X0\rper',(#505,#509,#513),#493,.F.) ;
#4=APPLICATION_PROTOCOL_DEFINITION('international standard','automotive_design',2001,#1) ;
#21=MANIFOLD_SOLID_BREP('Hauptk\X2\00F6\X0\rper',#31) ;
#89=CIRCLE('generated circle',#88,0.750000000001) ;
#94=CIRCLE('generated circle',#93,0.750000000001) ;
#111=CIRCLE('generated circle',#110,2.) ;
#125=CIRCLE('generated circle',#124,2.) ;
#149=CIRCLE('generated circle',#148,2.) ;
#163=CIRCLE('generated circle',#162,0.75) ;
#255=CIRCLE('generated circle',#254,2.) ;
#303=CIRCLE('generated circle',#302,0.75) ;
#377=CIRCLE('generated circle',#376,1.2) ;
#391=CIRCLE('generated circle',#390,1.2) ;
#403=CIRCLE('generated circle',#402,1.2) ;
#408=CIRCLE('generated circle',#407,1.2) ;
#434=CIRCLE('generated circle',#433,1.2) ;
#448=CIRCLE('generated circle',#447,1.2) ;
#460=CIRCLE('generated circle',#459,1.2) ;
#465=CIRCLE('generated circle',#464,1.2) ;
#22=COLOUR_RGB('Colour',0.686274509804,0.549019607843,0.533333333333) ;
#76=CYLINDRICAL_SURFACE('generated cylinder',#75,0.750000000001) ;
#107=CYLINDRICAL_SURFACE('generated cylinder',#106,2.) ;
#251=CYLINDRICAL_SURFACE('generated cylinder',#250,2.) ;
#299=CYLINDRICAL_SURFACE('generated cylinder',#298,0.75) ;
#364=CYLINDRICAL_SURFACE('generated cylinder',#363,1.2) ;
#421=CYLINDRICAL_SURFACE('generated cylinder',#420,1.2) ;
#45=EDGE_CURVE('',#42,#44,#40,.T.) ;
#52=EDGE_CURVE('',#42,#51,#49,.T.) ;
#59=EDGE_CURVE('',#51,#58,#56,.T.) ;
#64=EDGE_CURVE('',#44,#58,#63,.T.) ;
#85=EDGE_CURVE('',#82,#84,#80,.T.) ;
#90=EDGE_CURVE('',#82,#42,#89,.T.) ;
#95=EDGE_CURVE('',#84,#44,#94,.T.) ;
#114=EDGE_CURVE('',#51,#113,#111,.T.) ;
#121=EDGE_CURVE('',#113,#120,#118,.T.) ;
#126=EDGE_CURVE('',#58,#120,#125,.T.) ;
#145=EDGE_CURVE('',#120,#144,#142,.F.) ;
#152=EDGE_CURVE('',#144,#151,#149,.T.) ;
#159=EDGE_CURVE('',#151,#158,#156,.F.) ;
#166=EDGE_CURVE('',#158,#165,#163,.T.) ;
#173=EDGE_CURVE('',#165,#172,#170,.T.) ;
#180=EDGE_CURVE('',#172,#179,#177,.T.) ;
#185=EDGE_CURVE('',#179,#84,#184,.T.) ;
#210=EDGE_CURVE('',#209,#179,#207,.T.) ;
#215=EDGE_CURVE('',#209,#82,#214,.T.) ;
#234=EDGE_CURVE('',#113,#233,#231,.F.) ;
#239=EDGE_CURVE('',#233,#144,#238,.T.) ;
#258=EDGE_CURVE('',#233,#257,#255,.T.) ;
#263=EDGE_CURVE('',#257,#151,#262,.T.) ;
#282=EDGE_CURVE('',#257,#281,#279,.F.) ;
#287=EDGE_CURVE('',#281,#158,#286,.T.) ;
#306=EDGE_CURVE('',#281,#305,#303,.T.) ;
#311=EDGE_CURVE('',#305,#165,#310,.T.) ;
#330=EDGE_CURVE('',#305,#329,#327,.T.) ;
#335=EDGE_CURVE('',#329,#172,#334,.T.) ;
#352=EDGE_CURVE('',#329,#209,#351,.T.) ;
#373=EDGE_CURVE('',#370,#372,#368,.T.) ;
#380=EDGE_CURVE('',#370,#379,#377,.T.) ;
#387=EDGE_CURVE('',#379,#386,#384,.T.) ;
#392=EDGE_CURVE('',#386,#372,#391,.F.) ;
#404=EDGE_CURVE('',#379,#370,#403,.T.) ;
#409=EDGE_CURVE('',#372,#386,#408,.F.) ;
#430=EDGE_CURVE('',#427,#429,#425,.T.) ;
#437=EDGE_CURVE('',#427,#436,#434,.T.) ;
#444=EDGE_CURVE('',#436,#443,#441,.T.) ;
#449=EDGE_CURVE('',#443,#429,#448,.F.) ;
#461=EDGE_CURVE('',#436,#427,#460,.T.) ;
#466=EDGE_CURVE('',#429,#443,#465,.F.) ;
#65=EDGE_LOOP('',(#66,#67,#68,#69)) ;
#96=EDGE_LOOP('',(#97,#98,#99,#100)) ;
#127=EDGE_LOOP('',(#128,#129,#130,#131)) ;
#186=EDGE_LOOP('',(#187,#188,#189,#190,#191,#192,#193,#194,#195,#196)) ;
#216=EDGE_LOOP('',(#217,#218,#219,#220)) ;
#240=EDGE_LOOP('',(#241,#242,#243,#244)) ;
#264=EDGE_LOOP('',(#265,#266,#267,#268)) ;
#288=EDGE_LOOP('',(#289,#290,#291,#292)) ;
#312=EDGE_LOOP('',(#313,#314,#315,#316)) ;
#336=EDGE_LOOP('',(#337,#338,#339,#340)) ;
#353=EDGE_LOOP('',(#354,#355,#356,#357)) ;
#393=EDGE_LOOP('',(#394,#395,#396,#397)) ;
#410=EDGE_LOOP('',(#411,#412,#413,#414)) ;
#450=EDGE_LOOP('',(#451,#452,#453,#454)) ;
#467=EDGE_LOOP('',(#468,#469,#470,#471)) ;
#479=EDGE_LOOP('',(#480,#481)) ;
#484=EDGE_LOOP('',(#485,#486)) ;
#494=EDGE_LOOP('',(#495,#496,#497,#498,#499,#500,#501,#502,#503,#504)) ;
#506=EDGE_LOOP('',(#507,#508)) ;
#510=EDGE_LOOP('',(#511,#512)) ;
#70=FACE_OUTER_BOUND('',#65,.T.) ;
#101=FACE_OUTER_BOUND('',#96,.T.) ;
#132=FACE_OUTER_BOUND('',#127,.T.) ;
#197=FACE_OUTER_BOUND('',#186,.T.) ;
#221=FACE_OUTER_BOUND('',#216,.T.) ;
#245=FACE_OUTER_BOUND('',#240,.T.) ;
#269=FACE_OUTER_BOUND('',#264,.T.) ;
#293=FACE_OUTER_BOUND('',#288,.T.) ;
#317=FACE_OUTER_BOUND('',#312,.T.) ;
#341=FACE_OUTER_BOUND('',#336,.T.) ;
#358=FACE_OUTER_BOUND('',#353,.T.) ;
#398=FACE_OUTER_BOUND('',#393,.T.) ;
#415=FACE_OUTER_BOUND('',#410,.T.) ;
#455=FACE_OUTER_BOUND('',#450,.T.) ;
#472=FACE_OUTER_BOUND('',#467,.T.) ;
#482=FACE_OUTER_BOUND('',#479,.T.) ;
#487=FACE_OUTER_BOUND('',#484,.T.) ;
#505=FACE_OUTER_BOUND('',#494,.T.) ;
#40=LINE('Line',#37,#39) ;
#49=LINE('Line',#46,#48) ;
#56=LINE('Line',#53,#55) ;
#63=LINE('Line',#60,#62) ;
#80=LINE('Line',#77,#79) ;
#118=LINE('Line',#115,#117) ;
#142=LINE('Line',#139,#141) ;
#156=LINE('Line',#153,#155) ;
#170=LINE('Line',#167,#169) ;
#177=LINE('Line',#174,#176) ;
#184=LINE('Line',#181,#183) ;
#207=LINE('Line',#204,#206) ;
#214=LINE('Line',#211,#213) ;
#231=LINE('Line',#228,#230) ;
#238=LINE('Line',#235,#237) ;
#262=LINE('Line',#259,#261) ;
#279=LINE('Line',#276,#278) ;
#286=LINE('Line',#283,#285) ;
#310=LINE('Line',#307,#309) ;
#327=LINE('Line',#324,#326) ;
#334=LINE('Line',#331,#333) ;
#351=LINE('Line',#348,#350) ;
#368=LINE('Line',#365,#367) ;
#384=LINE('Line',#381,#383) ;
#425=LINE('Line',#422,#424) ;
#441=LINE('Line',#438,#440) ;
#36=PLANE('',#35) ;
#138=PLANE('',#137) ;
#203=PLANE('',#202) ;
#227=PLANE('',#226) ;
#275=PLANE('',#274) ;
#323=PLANE('',#322) ;
#347=PLANE('',#346) ;
#478=PLANE('',#477) ;
#493=PLANE('',#492) ;
#9=PRODUCT_CATEGORY_RELATIONSHIP(' ',' ',#7,#8) ;
#6=PRODUCT_DEFINITION_FORMATION_WITH_SPECIFIED_SOURCE('',' ',#5,.NOT_KNOWN.) ;
#20=SHAPE_DEFINITION_REPRESENTATION(#11,#19) ;
#42=VERTEX_POINT('',#41) ;
#44=VERTEX_POINT('',#43) ;
#51=VERTEX_POINT('',#50) ;
#58=VERTEX_POINT('',#57) ;
#82=VERTEX_POINT('',#81) ;
#84=VERTEX_POINT('',#83) ;
#113=VERTEX_POINT('',#112) ;
#120=VERTEX_POINT('',#119) ;
#144=VERTEX_POINT('',#143) ;
#151=VERTEX_POINT('',#150) ;
#158=VERTEX_POINT('',#157) ;
#165=VERTEX_POINT('',#164) ;
#172=VERTEX_POINT('',#171) ;
#179=VERTEX_POINT('',#178) ;
#209=VERTEX_POINT('',#208) ;
#233=VERTEX_POINT('',#232) ;
#257=VERTEX_POINT('',#256) ;
#281=VERTEX_POINT('',#280) ;
#305=VERTEX_POINT('',#304) ;
#329=VERTEX_POINT('',#328) ;
#370=VERTEX_POINT('',#369) ;
#372=VERTEX_POINT('',#371) ;
#379=VERTEX_POINT('',#378) ;
#386=VERTEX_POINT('',#385) ;
#427=VERTEX_POINT('',#426) ;
#429=VERTEX_POINT('',#428) ;
#436=VERTEX_POINT('',#435) ;
#443=VERTEX_POINT('',#442) ;
#12=(LENGTH_UNIT()NAMED_UNIT(*)SI_UNIT(.MILLI.,.METRE.)) ;
#13=(NAMED_UNIT(*)PLANE_ANGLE_UNIT()SI_UNIT($,.RADIAN.)) ;
#14=(NAMED_UNIT(*)SI_UNIT($,.STERADIAN.)SOLID_ANGLE_UNIT()) ;
#16=(GEOMETRIC_REPRESENTATION_CONTEXT(3)GLOBAL_UNCERTAINTY_ASSIGNED_CONTEXT((#15))GLOBAL_UNIT_ASSIGNED_CONTEXT((#12,#13,#14))REPRESENTATION_CONTEXT(' ',' ')) ;
ENDSEC;
END-ISO-10303-21;
