ISO-10303-21;
HEADER;
FILE_DESCRIPTION(('CATIA V5 STEP Exchange','CAx-IF Rec.Pracs.--- Model Styling and Organization---1.5--- 2016-08-15','CAx-IF Rec.Pracs.---Supplemental Geometry---1.0---2011-11-01','CAx-IF Rec.Pracs.--- Composite Materials ---1.1---2010-07-15'),'2;1');

FILE_NAME ('D1453907_0', '2025-09-22T05:35:11+00:00', ('none'), ('Weidmueller'), 'CATIA Version 5-6 Release 2024 SP4', 'CATIA V5 STEP AP214 v3', 'none');

FILE_SCHEMA(('AUTOMOTIVE_DESIGN { 1 0 10303 214 1 1 1 1 }'));

ENDSEC;
DATA;
#5=PRODUCT('ESO 5 S','','<Q-CHECKER_SEAL> Q-Checker Version 2.14.8  \X2\000A\X0\CATIA-Version         : Catia V5 R20 SP5 Build Date 01-06-2014.17.15\X2\000A\X0\Model size (in KByte) : 0\X2\000A\X0\Checking date         : 2015-01-14 13:11:51\X2\000A\X0\Checking profile      : ADMIN / Release_2D-3D [CATPart]\X2\000A\X0\Model assessment      : In Ordnung (IO)\X2\000A\X0\Total weight sum      : 0\X2\000A\X0\<CROSS_CHECK_SUM>\X2\000A\X0\  <CHKSUM_DATE> -1194368679 </CHKSUM_DATE>\X2\000A\X0\  <CHKSUM_ENTITIES> -2058001663 </CHKSUM_ENTITIES>\X2\000A\X0\  <CHKSUM_PROFILE> 1594213346 </CHKSUM_PROFILE>\X2\000A\X0\  <CHKSUM_DIMENSION> -186917087 </CHKSUM_DIMENSION>\X2\000A\X0\  <CHKSUM_PROJINTERSEC> -896974048 </CHKSUM_PROJINTERSEC>\X2\000A\X0\  <CHKSUM_IDENTCRV> -896974048 </CHKSUM_IDENTCRV>\X2\000A\X0\  <CHKSUM_INFINITY> 138018827 </CHKSUM_INFINITY>\X2\000A\X0\</CROSS_CHECK_SUM>\X2\000A\X0\</Q-CHECKER_SEAL> \X2\000A\X0\ \X2\000D\X0\\X2\000A\X0\ \X2\000D\X0\\X2\000A\X0\ \X2\000D\X0\\X2\000A\X0\ \X2\000D\X0\\X2\000A\X0\',(#2)) ;
#2=PRODUCT_CONTEXT(' ',#1,'mechanical') ;
#1=APPLICATION_CONTEXT('automotive design') ;
#10=PRODUCT_DEFINITION('',' ',#6,#3) ;
#3=PRODUCT_DEFINITION_CONTEXT('part definition',#1,' ') ;
#11=PRODUCT_DEFINITION_SHAPE(' ',' ',#10) ;
#182=MECHANICAL_DESIGN_GEOMETRIC_PRESENTATION_REPRESENTATION(' ',(#29),#16) ;
#19=SHAPE_REPRESENTATION(' ',(#18),#16) ;
#18=AXIS2_PLACEMENT_3D(' ',#17,$,$) ;
#35=AXIS2_PLACEMENT_3D('Plane Axis2P3D',#32,#33,#34) ;
#75=AXIS2_PLACEMENT_3D('Plane Axis2P3D',#72,#73,#74) ;
#106=AXIS2_PLACEMENT_3D('Plane Axis2P3D',#103,#104,#105) ;
#130=AXIS2_PLACEMENT_3D('Plane Axis2P3D',#127,#128,#129) ;
#154=AXIS2_PLACEMENT_3D('Plane Axis2P3D',#151,#152,#153) ;
#171=AXIS2_PLACEMENT_3D('Plane Axis2P3D',#168,#169,#170) ;
#17=CARTESIAN_POINT(' ',(0.,0.,0.)) ;
#32=CARTESIAN_POINT('Axis2P3D Location',(6.25,39.75,1.91351062367E-16)) ;
#37=CARTESIAN_POINT('Line Origine',(6.25,39.75,0.0999999996275)) ;
#41=CARTESIAN_POINT('Vertex',(6.25,39.75,1.91351062367E-16)) ;
#43=CARTESIAN_POINT('Vertex',(6.25,39.75,0.199999999255)) ;
#46=CARTESIAN_POINT('Line Origine',(3.125,39.75,1.24985149671E-28)) ;
#50=CARTESIAN_POINT('Vertex',(0.,39.75,-1.91351062367E-16)) ;
#53=CARTESIAN_POINT('Line Origine',(-6.12323397293E-18,39.75,0.0999999996275)) ;
#57=CARTESIAN_POINT('Vertex',(-1.22464679459E-17,39.75,0.199999999255)) ;
#60=CARTESIAN_POINT('Line Origine',(3.125,39.75,0.199999999255)) ;
#72=CARTESIAN_POINT('Axis2P3D Location',(6.25,39.75,1.91351062367E-16)) ;
#77=CARTESIAN_POINT('Line Origine',(6.25,3.74939944269E-34,0.0999999996275)) ;
#81=CARTESIAN_POINT('Vertex',(6.25,0.,1.91351062367E-16)) ;
#83=CARTESIAN_POINT('Vertex',(6.25,7.49879888538E-34,0.199999999255)) ;
#86=CARTESIAN_POINT('Line Origine',(6.25,19.875,1.91351062367E-16)) ;
#91=CARTESIAN_POINT('Line Origine',(6.25,19.875,0.199999999255)) ;
#103=CARTESIAN_POINT('Axis2P3D Location',(3.125,19.875,0.)) ;
#108=CARTESIAN_POINT('Line Origine',(3.125,0.,0.)) ;
#112=CARTESIAN_POINT('Vertex',(-1.33226762955E-15,1.91351062367E-16,-1.91351062367E-16)) ;
#115=CARTESIAN_POINT('Line Origine',(0.,19.875,-1.91351062367E-16)) ;
#127=CARTESIAN_POINT('Axis2P3D Location',(0.,3.5527136788E-15,-1.91351062367E-16)) ;
#132=CARTESIAN_POINT('Line Origine',(-6.12323397293E-18,3.5527136788E-15,0.0999999996275)) ;
#136=CARTESIAN_POINT('Vertex',(-1.22464679459E-17,3.5527136788E-15,0.199999999255)) ;
#139=CARTESIAN_POINT('Line Origine',(1.20474628871E-15,19.875,0.199999999255)) ;
#151=CARTESIAN_POINT('Axis2P3D Location',(3.125,19.875,0.2)) ;
#156=CARTESIAN_POINT('Line Origine',(3.125,0.,0.2)) ;
#168=CARTESIAN_POINT('Axis2P3D Location',(0.,0.,-1.91351062367E-16)) ;
#33=DIRECTION('Axis2P3D Direction',(6.12323399574E-17,1.,0.)) ;
#34=DIRECTION('Axis2P3D XDirection',(-1.,6.12323399574E-17,-6.12323399574E-17)) ;
#38=DIRECTION('Vector Direction',(0.,0.,1.)) ;
#47=DIRECTION('Vector Direction',(-1.,0.,-6.12323399574E-17)) ;
#54=DIRECTION('Vector Direction',(-6.12323399574E-17,0.,1.)) ;
#61=DIRECTION('Vector Direction',(-1.,0.,-6.2172489379E-17)) ;
#73=DIRECTION('Axis2P3D Direction',(-1.,6.12323399574E-17,-6.12323399574E-17)) ;
#74=DIRECTION('Axis2P3D XDirection',(-6.12323399574E-17,-1.,0.)) ;
#78=DIRECTION('Vector Direction',(0.,3.74939945666E-33,1.)) ;
#87=DIRECTION('Vector Direction',(-6.70323335623E-17,-1.,0.)) ;
#92=DIRECTION('Vector Direction',(-6.70323335623E-17,-1.,0.)) ;
#104=DIRECTION('Axis2P3D Direction',(-6.12323399574E-17,3.74939945666E-33,1.)) ;
#105=DIRECTION('Axis2P3D XDirection',(-6.12323399574E-17,-1.,0.)) ;
#109=DIRECTION('Vector Direction',(1.,-6.12323399574E-17,6.12323399574E-17)) ;
#116=DIRECTION('Vector Direction',(6.70323335623E-17,1.,0.)) ;
#128=DIRECTION('Axis2P3D Direction',(1.,-6.12323399574E-17,6.12323399574E-17)) ;
#129=DIRECTION('Axis2P3D XDirection',(6.12323399574E-17,1.,0.)) ;
#133=DIRECTION('Vector Direction',(-6.12323399574E-17,0.,1.)) ;
#140=DIRECTION('Vector Direction',(6.12323399574E-17,1.,0.)) ;
#152=DIRECTION('Axis2P3D Direction',(-6.12323399574E-17,3.74939945666E-33,1.)) ;
#153=DIRECTION('Axis2P3D XDirection',(-6.12323399574E-17,-1.,0.)) ;
#157=DIRECTION('Vector Direction',(1.,-6.12323399574E-17,6.2172489379E-17)) ;
#169=DIRECTION('Axis2P3D Direction',(-6.12323399574E-17,-1.,0.)) ;
#170=DIRECTION('Axis2P3D XDirection',(1.,-6.12323399574E-17,6.12323399574E-17)) ;
#30=PRESENTATION_LAYER_ASSIGNMENT('1',' ',(#21)) ;
#8=PRODUCT_RELATED_PRODUCT_CATEGORY('part',$,(#5)) ;
#7=PRODUCT_CATEGORY('part','specification') ;
#29=STYLED_ITEM(' ',(#28),#21) ;
#28=PRESENTATION_STYLE_ASSIGNMENT((#27)) ;
#27=SURFACE_STYLE_USAGE(.BOTH.,#26) ;
#26=SURFACE_SIDE_STYLE(' ',(#25)) ;
#25=SURFACE_STYLE_FILL_AREA(#24) ;
#24=FILL_AREA_STYLE(' ',(#23)) ;
#23=FILL_AREA_STYLE_COLOUR(' ',#22) ;
#39=VECTOR('Line Direction',#38,1.) ;
#48=VECTOR('Line Direction',#47,1.) ;
#55=VECTOR('Line Direction',#54,1.) ;
#62=VECTOR('Line Direction',#61,1.) ;
#79=VECTOR('Line Direction',#78,1.) ;
#88=VECTOR('Line Direction',#87,1.) ;
#93=VECTOR('Line Direction',#92,1.) ;
#110=VECTOR('Line Direction',#109,1.) ;
#117=VECTOR('Line Direction',#116,1.) ;
#134=VECTOR('Line Direction',#133,1.) ;
#141=VECTOR('Line Direction',#140,1.) ;
#158=VECTOR('Line Direction',#157,1.) ;
#15=UNCERTAINTY_MEASURE_WITH_UNIT(LENGTH_MEASURE(0.005),#12,'distance_accuracy_value','CONFUSED CURVE UNCERTAINTY') ;
#181=SHAPE_REPRESENTATION_RELATIONSHIP(' ',' ',#19,#180) ;
#66=ORIENTED_EDGE('',*,*,#45,.F.) ;
#67=ORIENTED_EDGE('',*,*,#52,.T.) ;
#68=ORIENTED_EDGE('',*,*,#59,.T.) ;
#69=ORIENTED_EDGE('',*,*,#64,.F.) ;
#97=ORIENTED_EDGE('',*,*,#85,.F.) ;
#98=ORIENTED_EDGE('',*,*,#90,.T.) ;
#99=ORIENTED_EDGE('',*,*,#45,.T.) ;
#100=ORIENTED_EDGE('',*,*,#95,.F.) ;
#121=ORIENTED_EDGE('',*,*,#90,.F.) ;
#122=ORIENTED_EDGE('',*,*,#114,.F.) ;
#123=ORIENTED_EDGE('',*,*,#119,.F.) ;
#124=ORIENTED_EDGE('',*,*,#52,.F.) ;
#145=ORIENTED_EDGE('',*,*,#59,.F.) ;
#146=ORIENTED_EDGE('',*,*,#119,.T.) ;
#147=ORIENTED_EDGE('',*,*,#138,.T.) ;
#148=ORIENTED_EDGE('',*,*,#143,.F.) ;
#162=ORIENTED_EDGE('',*,*,#64,.T.) ;
#163=ORIENTED_EDGE('',*,*,#143,.T.) ;
#164=ORIENTED_EDGE('',*,*,#160,.T.) ;
#165=ORIENTED_EDGE('',*,*,#95,.T.) ;
#174=ORIENTED_EDGE('',*,*,#138,.F.) ;
#175=ORIENTED_EDGE('',*,*,#114,.T.) ;
#176=ORIENTED_EDGE('',*,*,#85,.T.) ;
#177=ORIENTED_EDGE('',*,*,#160,.F.) ;
#31=CLOSED_SHELL('Closed Shell',(#71,#102,#126,#150,#167,#179)) ;
#180=ADVANCED_BREP_SHAPE_REPRESENTATION('NONE',(#21),#16) ;
#71=ADVANCED_FACE('S3D - gedreht',(#70),#36,.T.) ;
#102=ADVANCED_FACE('S3D - gedreht',(#101),#76,.F.) ;
#126=ADVANCED_FACE('S3D - gedreht',(#125),#107,.F.) ;
#150=ADVANCED_FACE('S3D - gedreht',(#149),#131,.F.) ;
#167=ADVANCED_FACE('S3D - gedreht',(#166),#155,.T.) ;
#179=ADVANCED_FACE('S3D - gedreht',(#178),#172,.T.) ;
#4=APPLICATION_PROTOCOL_DEFINITION('international standard','automotive_design',2001,#1) ;
#21=MANIFOLD_SOLID_BREP('S3D - gedreht',#31) ;
#22=DRAUGHTING_PRE_DEFINED_COLOUR('white') ;
#45=EDGE_CURVE('',#42,#44,#40,.T.) ;
#52=EDGE_CURVE('',#42,#51,#49,.T.) ;
#59=EDGE_CURVE('',#51,#58,#56,.T.) ;
#64=EDGE_CURVE('',#44,#58,#63,.T.) ;
#85=EDGE_CURVE('',#82,#84,#80,.T.) ;
#90=EDGE_CURVE('',#82,#42,#89,.F.) ;
#95=EDGE_CURVE('',#84,#44,#94,.F.) ;
#114=EDGE_CURVE('',#113,#82,#111,.T.) ;
#119=EDGE_CURVE('',#51,#113,#118,.F.) ;
#138=EDGE_CURVE('',#113,#137,#135,.T.) ;
#143=EDGE_CURVE('',#58,#137,#142,.F.) ;
#160=EDGE_CURVE('',#137,#84,#159,.T.) ;
#65=EDGE_LOOP('',(#66,#67,#68,#69)) ;
#96=EDGE_LOOP('',(#97,#98,#99,#100)) ;
#120=EDGE_LOOP('',(#121,#122,#123,#124)) ;
#144=EDGE_LOOP('',(#145,#146,#147,#148)) ;
#161=EDGE_LOOP('',(#162,#163,#164,#165)) ;
#173=EDGE_LOOP('',(#174,#175,#176,#177)) ;
#70=FACE_OUTER_BOUND('',#65,.T.) ;
#101=FACE_OUTER_BOUND('',#96,.T.) ;
#125=FACE_OUTER_BOUND('',#120,.T.) ;
#149=FACE_OUTER_BOUND('',#144,.T.) ;
#166=FACE_OUTER_BOUND('',#161,.T.) ;
#178=FACE_OUTER_BOUND('',#173,.T.) ;
#40=LINE('Line',#37,#39) ;
#49=LINE('Line',#46,#48) ;
#56=LINE('Line',#53,#55) ;
#63=LINE('Line',#60,#62) ;
#80=LINE('Line',#77,#79) ;
#89=LINE('Line',#86,#88) ;
#94=LINE('Line',#91,#93) ;
#111=LINE('Line',#108,#110) ;
#118=LINE('Line',#115,#117) ;
#135=LINE('Line',#132,#134) ;
#142=LINE('Line',#139,#141) ;
#159=LINE('Line',#156,#158) ;
#36=PLANE('',#35) ;
#76=PLANE('',#75) ;
#107=PLANE('',#106) ;
#131=PLANE('',#130) ;
#155=PLANE('',#154) ;
#172=PLANE('',#171) ;
#9=PRODUCT_CATEGORY_RELATIONSHIP(' ',' ',#7,#8) ;
#6=PRODUCT_DEFINITION_FORMATION_WITH_SPECIFIED_SOURCE('',' ',#5,.NOT_KNOWN.) ;
#20=SHAPE_DEFINITION_REPRESENTATION(#11,#19) ;
#42=VERTEX_POINT('',#41) ;
#44=VERTEX_POINT('',#43) ;
#51=VERTEX_POINT('',#50) ;
#58=VERTEX_POINT('',#57) ;
#82=VERTEX_POINT('',#81) ;
#84=VERTEX_POINT('',#83) ;
#113=VERTEX_POINT('',#112) ;
#137=VERTEX_POINT('',#136) ;
#12=(LENGTH_UNIT()NAMED_UNIT(*)SI_UNIT(.MILLI.,.METRE.)) ;
#13=(NAMED_UNIT(*)PLANE_ANGLE_UNIT()SI_UNIT($,.RADIAN.)) ;
#14=(NAMED_UNIT(*)SI_UNIT($,.STERADIAN.)SOLID_ANGLE_UNIT()) ;
#16=(GEOMETRIC_REPRESENTATION_CONTEXT(3)GLOBAL_UNCERTAINTY_ASSIGNED_CONTEXT((#15))GLOBAL_UNIT_ASSIGNED_CONTEXT((#12,#13,#14))REPRESENTATION_CONTEXT(' ',' ')) ;
ENDSEC;
END-ISO-10303-21;
