ISO-10303-21;
HEADER;
FILE_DESCRIPTION(('CATIA V5 STEP Exchange','CAx-IF Rec.Pracs.--- Model Styling and Organization---1.5--- 2016-08-15','CAx-IF Rec.Pracs.---Supplemental Geometry---1.0---2011-11-01','CAx-IF Rec.Pracs.--- Composite Materials ---1.1---2010-07-15'),'2;1');

FILE_NAME ('706710-2_3_2652300000_2652300000.stp','2024-06-11T06:38:37+00:00',('none'),('Weidmueller'),'CATIA Version 5-6 Release 2022 SP4 HF5','CATIA V5 STEP AP214 v3','none');

FILE_SCHEMA(('AUTOMOTIVE_DESIGN { 1 0 10303 214 1 1 1 1 }'));

ENDSEC;
DATA;
#5=PRODUCT('CABTITE BP 2MM PA','CABTITE BP 2MM PA',' ',(#2)) ;
#2=PRODUCT_CONTEXT(' ',#1,'mechanical') ;
#1=APPLICATION_CONTEXT('automotive design') ;
#10=PRODUCT_DEFINITION(' ',' ',#6,#3) ;
#3=PRODUCT_DEFINITION_CONTEXT('part definition',#1,' ') ;
#11=PRODUCT_DEFINITION_SHAPE(' ',' ',#10) ;
#348=MECHANICAL_DESIGN_GEOMETRIC_PRESENTATION_REPRESENTATION(' ',(#87,#113,#184,#208,#225,#237,#244,#276,#289,#321,#334,#345,#29),#16) ;
#19=SHAPE_REPRESENTATION(' ',(#18),#16) ;
#18=AXIS2_PLACEMENT_3D(' ',#17,$,$) ;
#35=AXIS2_PLACEMENT_3D('Cylinder Axis2P3D',#32,#33,#34) ;
#48=AXIS2_PLACEMENT_3D('Circle Axis2P3D',#46,#47,$) ;
#62=AXIS2_PLACEMENT_3D('Circle Axis2P3D',#60,#61,$) ;
#69=AXIS2_PLACEMENT_3D('Circle Axis2P3D',#67,#68,$) ;
#90=AXIS2_PLACEMENT_3D('Circle Axis2P3D',#88,#89,$) ;
#95=AXIS2_PLACEMENT_3D('Circle Axis2P3D',#93,#94,$) ;
#102=AXIS2_PLACEMENT_3D('Circle Axis2P3D',#100,#101,$) ;
#117=AXIS2_PLACEMENT_3D('Plane Axis2P3D',#114,#115,#116) ;
#188=AXIS2_PLACEMENT_3D('Sphere Axis2P3D',#185,#186,#187) ;
#192=AXIS2_PLACEMENT_3D('Circle Axis2P3D',#190,#191,$) ;
#199=AXIS2_PLACEMENT_3D('Circle Axis2P3D',#197,#198,$) ;
#212=AXIS2_PLACEMENT_3D('Sphere Axis2P3D',#209,#210,#211) ;
#216=AXIS2_PLACEMENT_3D('Circle Axis2P3D',#214,#215,$) ;
#228=AXIS2_PLACEMENT_3D('Circle Axis2P3D',#226,#227,$) ;
#248=AXIS2_PLACEMENT_3D('Cylinder Axis2P3D',#245,#246,#247) ;
#259=AXIS2_PLACEMENT_3D('Circle Axis2P3D',#257,#258,$) ;
#279=AXIS2_PLACEMENT_3D('Circle Axis2P3D',#277,#278,$) ;
#293=AXIS2_PLACEMENT_3D('Cone Axis2P3D',#290,#291,#292) ;
#311=AXIS2_PLACEMENT_3D('Circle Axis2P3D',#309,#310,$) ;
#324=AXIS2_PLACEMENT_3D('Circle Axis2P3D',#322,#323,$) ;
#338=AXIS2_PLACEMENT_3D('Plane Axis2P3D',#335,#336,#337) ;
#17=CARTESIAN_POINT(' ',(0.,0.,0.)) ;
#32=CARTESIAN_POINT('Axis2P3D Location',(1.9,1.9,16.5)) ;
#37=CARTESIAN_POINT('Line Origine',(3.8,1.9,16.5)) ;
#41=CARTESIAN_POINT('Vertex',(3.8,1.9,17.)) ;
#43=CARTESIAN_POINT('Vertex',(3.8,1.9,16.5)) ;
#46=CARTESIAN_POINT('Axis2P3D Location',(1.9,1.9,16.5)) ;
#50=CARTESIAN_POINT('Vertex',(0.,1.9,16.5)) ;
#53=CARTESIAN_POINT('Line Origine',(0.,1.9,16.5)) ;
#57=CARTESIAN_POINT('Vertex',(0.,1.9,17.)) ;
#60=CARTESIAN_POINT('Axis2P3D Location',(1.9,1.9,17.)) ;
#64=CARTESIAN_POINT('Vertex',(1.9,3.8,17.)) ;
#67=CARTESIAN_POINT('Axis2P3D Location',(1.9,1.9,17.)) ;
#88=CARTESIAN_POINT('Axis2P3D Location',(1.9,1.9,16.5)) ;
#93=CARTESIAN_POINT('Axis2P3D Location',(1.9,1.9,17.)) ;
#97=CARTESIAN_POINT('Vertex',(1.9,0.,17.)) ;
#100=CARTESIAN_POINT('Axis2P3D Location',(1.9,1.9,17.)) ;
#114=CARTESIAN_POINT('Axis2P3D Location',(1.9,0.,16.5)) ;
#124=CARTESIAN_POINT('Control Point',(2.9,1.90000000037,16.5)) ;
#125=CARTESIAN_POINT('Control Point',(2.9,1.80202368555,16.5)) ;
#126=CARTESIAN_POINT('Control Point',(2.88800080009,1.70404811152,16.5)) ;
#127=CARTESIAN_POINT('Control Point',(2.8639927112,1.60800452685,16.5)) ;
#128=CARTESIAN_POINT('Control Point',(2.79296287016,1.42380708318,16.5)) ;
#129=CARTESIAN_POINT('Control Point',(2.67958322525,1.26219695969,16.5)) ;
#130=CARTESIAN_POINT('Control Point',(2.61320614458,1.18874737348,16.5)) ;
#131=CARTESIAN_POINT('Control Point',(2.46385777247,1.05963888976,16.5)) ;
#132=CARTESIAN_POINT('Control Point',(2.28776934714,0.970388437551,16.5)) ;
#133=CARTESIAN_POINT('Control Point',(2.19463843132,0.936811806029,16.5)) ;
#134=CARTESIAN_POINT('Control Point',(2.00210560518,0.893164944222,16.5)) ;
#135=CARTESIAN_POINT('Control Point',(1.80473305239,0.897270259788,16.5)) ;
#136=CARTESIAN_POINT('Control Point',(1.70675727759,0.911465452577,16.5)) ;
#137=CARTESIAN_POINT('Control Point',(1.51633318242,0.963548101894,16.5)) ;
#138=CARTESIAN_POINT('Control Point',(1.34410823123,1.06004341618,16.5)) ;
#139=CARTESIAN_POINT('Control Point',(1.26433631073,1.11867101911,16.5)) ;
#140=CARTESIAN_POINT('Control Point',(1.12081752925,1.25423127832,16.5)) ;
#141=CARTESIAN_POINT('Control Point',(1.01425570275,1.4204168716,16.5)) ;
#142=CARTESIAN_POINT('Control Point',(0.97145533854,1.50968310682,16.5)) ;
#143=CARTESIAN_POINT('Control Point',(0.927082578565,1.64180835296,16.5)) ;
#144=CARTESIAN_POINT('Control Point',(0.906147059289,1.7787373858,16.5)) ;
#145=CARTESIAN_POINT('Control Point',(0.902036894251,1.81926602671,16.5)) ;
#146=CARTESIAN_POINT('Control Point',(0.9,1.85963301359,16.5)) ;
#147=CARTESIAN_POINT('Control Point',(0.9,1.90000000037,16.5)) ;
#148=CARTESIAN_POINT('Vertex',(2.9,1.9,16.5)) ;
#150=CARTESIAN_POINT('Vertex',(0.9,1.90000000037,16.5)) ;
#154=CARTESIAN_POINT('Control Point',(0.9,1.90000000037,16.5)) ;
#155=CARTESIAN_POINT('Control Point',(0.9,1.9979763131,16.5)) ;
#156=CARTESIAN_POINT('Control Point',(0.911999199396,2.09595188505,16.5)) ;
#157=CARTESIAN_POINT('Control Point',(0.936007290118,2.19199547978,16.5)) ;
#158=CARTESIAN_POINT('Control Point',(1.00703713129,2.37619292175,16.5)) ;
#159=CARTESIAN_POINT('Control Point',(1.12041677564,2.53780304383,16.5)) ;
#160=CARTESIAN_POINT('Control Point',(1.18679385613,2.61125262484,16.5)) ;
#161=CARTESIAN_POINT('Control Point',(1.33614223242,2.74036111195,16.5)) ;
#162=CARTESIAN_POINT('Control Point',(1.51223066331,2.82961156531,16.5)) ;
#163=CARTESIAN_POINT('Control Point',(1.60536155584,2.86318819015,16.5)) ;
#164=CARTESIAN_POINT('Control Point',(1.79789438523,2.9068350545,16.5)) ;
#165=CARTESIAN_POINT('Control Point',(1.9952669416,2.90272973977,16.5)) ;
#166=CARTESIAN_POINT('Control Point',(2.09324272247,2.88853454865,16.5)) ;
#167=CARTESIAN_POINT('Control Point',(2.28366681539,2.83645190053,16.5)) ;
#168=CARTESIAN_POINT('Control Point',(2.45589176499,2.73995658845,16.5)) ;
#169=CARTESIAN_POINT('Control Point',(2.53566369107,2.68132897787,16.5)) ;
#170=CARTESIAN_POINT('Control Point',(2.67918247118,2.54576871973,16.5)) ;
#171=CARTESIAN_POINT('Control Point',(2.78574429695,2.37958312799,16.5)) ;
#172=CARTESIAN_POINT('Control Point',(2.82854466772,2.29031688228,16.5)) ;
#173=CARTESIAN_POINT('Control Point',(2.87291742516,2.1581916387,16.5)) ;
#174=CARTESIAN_POINT('Control Point',(2.89385294277,2.02126260817,16.5)) ;
#175=CARTESIAN_POINT('Control Point',(2.89796310599,1.98073396936,16.5)) ;
#176=CARTESIAN_POINT('Control Point',(2.9,1.94036698482,16.5)) ;
#177=CARTESIAN_POINT('Control Point',(2.9,1.90000000037,16.5)) ;
#185=CARTESIAN_POINT('Axis2P3D Location',(1.9,1.9,13.64)) ;
#190=CARTESIAN_POINT('Axis2P3D Location',(1.9,1.9,13.64)) ;
#194=CARTESIAN_POINT('Vertex',(1.9,1.9,17.5)) ;
#197=CARTESIAN_POINT('Axis2P3D Location',(1.9,1.9,13.64)) ;
#209=CARTESIAN_POINT('Axis2P3D Location',(1.9,1.9,13.64)) ;
#214=CARTESIAN_POINT('Axis2P3D Location',(1.9,1.9,13.64)) ;
#226=CARTESIAN_POINT('Axis2P3D Location',(1.9,1.9,13.64)) ;
#245=CARTESIAN_POINT('Axis2P3D Location',(1.9,1.9,16.5)) ;
#250=CARTESIAN_POINT('Line Origine',(0.9,1.9,16.5)) ;
#254=CARTESIAN_POINT('Vertex',(0.9,1.9,2.)) ;
#257=CARTESIAN_POINT('Axis2P3D Location',(1.9,1.9,2.)) ;
#261=CARTESIAN_POINT('Vertex',(2.9,1.9,2.)) ;
#264=CARTESIAN_POINT('Line Origine',(2.9,1.9,16.5)) ;
#277=CARTESIAN_POINT('Axis2P3D Location',(1.9,1.9,2.)) ;
#290=CARTESIAN_POINT('Axis2P3D Location',(1.9,1.9,0.)) ;
#295=CARTESIAN_POINT('Line Origine',(980582.874583,1.89999999976,4902901.87868)) ;
#299=CARTESIAN_POINT('Vertex',(2.5,1.9,0.)) ;
#302=CARTESIAN_POINT('Line Origine',(-980579.074583,1.90000000012,4902901.87868)) ;
#306=CARTESIAN_POINT('Vertex',(1.30000000003,1.9,-1.34325367522E-10)) ;
#309=CARTESIAN_POINT('Axis2P3D Location',(1.9,1.9,0.)) ;
#322=CARTESIAN_POINT('Axis2P3D Location',(1.9,1.9,0.)) ;
#335=CARTESIAN_POINT('Axis2P3D Location',(1.9,0.9,0.)) ;
#33=DIRECTION('Axis2P3D Direction',(0.,0.,-1.)) ;
#34=DIRECTION('Axis2P3D XDirection',(-1.,0.,0.)) ;
#38=DIRECTION('Vector Direction',(0.,0.,-1.)) ;
#47=DIRECTION('Axis2P3D Direction',(0.,0.,-1.)) ;
#54=DIRECTION('Vector Direction',(0.,0.,-1.)) ;
#61=DIRECTION('Axis2P3D Direction',(0.,0.,-1.)) ;
#68=DIRECTION('Axis2P3D Direction',(0.,0.,-1.)) ;
#89=DIRECTION('Axis2P3D Direction',(0.,0.,-1.)) ;
#94=DIRECTION('Axis2P3D Direction',(0.,0.,-1.)) ;
#101=DIRECTION('Axis2P3D Direction',(0.,0.,-1.)) ;
#115=DIRECTION('Axis2P3D Direction',(0.,0.,1.)) ;
#116=DIRECTION('Axis2P3D XDirection',(1.,0.,0.)) ;
#186=DIRECTION('Axis2P3D Direction',(0.,-0.,1.)) ;
#187=DIRECTION('Axis2P3D XDirection',(1.15049018096E-16,1.,0.)) ;
#191=DIRECTION('Axis2P3D Direction',(1.76281358053E-16,1.,-0.)) ;
#198=DIRECTION('Axis2P3D Direction',(1.,-1.15049018096E-16,0.)) ;
#210=DIRECTION('Axis2P3D Direction',(0.,0.,1.)) ;
#211=DIRECTION('Axis2P3D XDirection',(-2.30098036192E-16,-1.,0.)) ;
#215=DIRECTION('Axis2P3D Direction',(-2.91330376149E-16,-1.,0.)) ;
#227=DIRECTION('Axis2P3D Direction',(-1.,2.30098036192E-16,0.)) ;
#246=DIRECTION('Axis2P3D Direction',(0.,0.,-1.)) ;
#247=DIRECTION('Axis2P3D XDirection',(-1.,-2.64687485605E-28,-0.)) ;
#251=DIRECTION('Vector Direction',(0.,0.,-1.)) ;
#258=DIRECTION('Axis2P3D Direction',(0.,0.,-1.)) ;
#265=DIRECTION('Vector Direction',(0.,0.,-1.)) ;
#278=DIRECTION('Axis2P3D Direction',(0.,0.,-1.)) ;
#291=DIRECTION('Axis2P3D Direction',(0.,0.,1.)) ;
#292=DIRECTION('Axis2P3D XDirection',(1.,0.,0.)) ;
#296=DIRECTION('Vector Direction',(0.196116134917,-4.80345838252E-17,0.980580675735)) ;
#303=DIRECTION('Vector Direction',(-0.196116134917,2.40172919126E-17,0.980580675735)) ;
#310=DIRECTION('Axis2P3D Direction',(0.,0.,1.)) ;
#323=DIRECTION('Axis2P3D Direction',(0.,0.,1.)) ;
#336=DIRECTION('Axis2P3D Direction',(0.,0.,1.)) ;
#337=DIRECTION('Axis2P3D XDirection',(1.,0.,0.)) ;
#30=PRESENTATION_LAYER_ASSIGNMENT('1',' ',(#21)) ;
#8=PRODUCT_RELATED_PRODUCT_CATEGORY('part',$,(#5)) ;
#7=PRODUCT_CATEGORY('part','specification') ;
#29=STYLED_ITEM(' ',(#28),#21) ;
#28=PRESENTATION_STYLE_ASSIGNMENT((#27)) ;
#86=PRESENTATION_STYLE_ASSIGNMENT((#85)) ;
#27=SURFACE_STYLE_USAGE(.BOTH.,#26) ;
#85=SURFACE_STYLE_USAGE(.BOTH.,#84) ;
#26=SURFACE_SIDE_STYLE(' ',(#25)) ;
#84=SURFACE_SIDE_STYLE(' ',(#83)) ;
#25=SURFACE_STYLE_FILL_AREA(#24) ;
#83=SURFACE_STYLE_FILL_AREA(#82) ;
#24=FILL_AREA_STYLE(' ',(#23)) ;
#82=FILL_AREA_STYLE(' ',(#81)) ;
#23=FILL_AREA_STYLE_COLOUR(' ',#22) ;
#81=FILL_AREA_STYLE_COLOUR(' ',#80) ;
#39=VECTOR('Line Direction',#38,1.) ;
#55=VECTOR('Line Direction',#54,1.) ;
#252=VECTOR('Line Direction',#251,1.) ;
#266=VECTOR('Line Direction',#265,1.) ;
#297=VECTOR('Line Direction',#296,1.) ;
#304=VECTOR('Line Direction',#303,1.) ;
#15=UNCERTAINTY_MEASURE_WITH_UNIT(LENGTH_MEASURE(0.005),#12,'distance_accuracy_value','CONFUSED CURVE UNCERTAINTY') ;
#347=SHAPE_REPRESENTATION_RELATIONSHIP(' ',' ',#19,#346) ;
#73=ORIENTED_EDGE('',*,*,#45,.T.) ;
#74=ORIENTED_EDGE('',*,*,#52,.F.) ;
#75=ORIENTED_EDGE('',*,*,#59,.T.) ;
#76=ORIENTED_EDGE('',*,*,#66,.T.) ;
#77=ORIENTED_EDGE('',*,*,#71,.T.) ;
#106=ORIENTED_EDGE('',*,*,#59,.F.) ;
#107=ORIENTED_EDGE('',*,*,#92,.F.) ;
#108=ORIENTED_EDGE('',*,*,#45,.F.) ;
#109=ORIENTED_EDGE('',*,*,#99,.F.) ;
#110=ORIENTED_EDGE('',*,*,#104,.F.) ;
#120=ORIENTED_EDGE('',*,*,#52,.T.) ;
#121=ORIENTED_EDGE('',*,*,#92,.T.) ;
#180=ORIENTED_EDGE('',*,*,#152,.F.) ;
#181=ORIENTED_EDGE('',*,*,#178,.F.) ;
#203=ORIENTED_EDGE('',*,*,#196,.T.) ;
#204=ORIENTED_EDGE('',*,*,#201,.T.) ;
#205=ORIENTED_EDGE('',*,*,#66,.F.) ;
#220=ORIENTED_EDGE('',*,*,#218,.F.) ;
#221=ORIENTED_EDGE('',*,*,#71,.F.) ;
#222=ORIENTED_EDGE('',*,*,#201,.F.) ;
#232=ORIENTED_EDGE('',*,*,#218,.T.) ;
#233=ORIENTED_EDGE('',*,*,#230,.T.) ;
#234=ORIENTED_EDGE('',*,*,#99,.T.) ;
#239=ORIENTED_EDGE('',*,*,#196,.F.) ;
#240=ORIENTED_EDGE('',*,*,#104,.T.) ;
#241=ORIENTED_EDGE('',*,*,#230,.F.) ;
#270=ORIENTED_EDGE('',*,*,#256,.F.) ;
#271=ORIENTED_EDGE('',*,*,#263,.T.) ;
#272=ORIENTED_EDGE('',*,*,#268,.F.) ;
#273=ORIENTED_EDGE('',*,*,#152,.T.) ;
#283=ORIENTED_EDGE('',*,*,#268,.T.) ;
#284=ORIENTED_EDGE('',*,*,#281,.T.) ;
#285=ORIENTED_EDGE('',*,*,#256,.T.) ;
#286=ORIENTED_EDGE('',*,*,#178,.T.) ;
#315=ORIENTED_EDGE('',*,*,#301,.F.) ;
#316=ORIENTED_EDGE('',*,*,#263,.F.) ;
#317=ORIENTED_EDGE('',*,*,#308,.F.) ;
#318=ORIENTED_EDGE('',*,*,#313,.F.) ;
#328=ORIENTED_EDGE('',*,*,#308,.T.) ;
#329=ORIENTED_EDGE('',*,*,#281,.F.) ;
#330=ORIENTED_EDGE('',*,*,#301,.T.) ;
#331=ORIENTED_EDGE('',*,*,#326,.F.) ;
#341=ORIENTED_EDGE('',*,*,#313,.T.) ;
#342=ORIENTED_EDGE('',*,*,#326,.T.) ;
#182=FACE_BOUND('',#179,.T.) ;
#31=CLOSED_SHELL('Closed Shell',(#79,#112,#183,#207,#224,#236,#243,#275,#288,#320,#333,#344)) ;
#346=ADVANCED_BREP_SHAPE_REPRESENTATION('NONE',(#21),#16) ;
#79=ADVANCED_FACE('CABTITE BP 2MM PA',(#78),#36,.T.) ;
#112=ADVANCED_FACE('CABTITE BP 2MM PA',(#111),#36,.T.) ;
#183=ADVANCED_FACE('CABTITE BP 2MM PA',(#122,#182),#118,.F.) ;
#207=ADVANCED_FACE('CABTITE BP 2MM PA',(#206),#189,.T.) ;
#224=ADVANCED_FACE('CABTITE BP 2MM PA',(#223),#213,.T.) ;
#236=ADVANCED_FACE('CABTITE BP 2MM PA',(#235),#213,.T.) ;
#243=ADVANCED_FACE('CABTITE BP 2MM PA',(#242),#213,.T.) ;
#275=ADVANCED_FACE('CABTITE BP 2MM PA',(#274),#249,.T.) ;
#288=ADVANCED_FACE('CABTITE BP 2MM PA',(#287),#249,.T.) ;
#320=ADVANCED_FACE('CABTITE BP 2MM PA',(#319),#294,.T.) ;
#333=ADVANCED_FACE('CABTITE BP 2MM PA',(#332),#294,.T.) ;
#344=ADVANCED_FACE('CABTITE BP 2MM PA',(#343),#339,.F.) ;
#4=APPLICATION_PROTOCOL_DEFINITION('international standard','automotive_design',2001,#1) ;
#123=B_SPLINE_CURVE_WITH_KNOTS('',5,(#124,#125,#126,#127,#128,#129,#130,#131,#132,#133,#134,#135,#136,#137,#138,#139,#140,#141,#142,#143,#144,#145,#146,#147),.UNSPECIFIED.,.F.,.U.,(6,3,3,3,3,3,3,6),(0.,0.694484086455,1.38896817209,2.08345226797,2.77793637366,3.47242048653,4.16690969252,4.45304241747),.UNSPECIFIED.) ;
#153=B_SPLINE_CURVE_WITH_KNOTS('',5,(#154,#155,#156,#157,#158,#159,#160,#161,#162,#163,#164,#165,#166,#167,#168,#169,#170,#171,#172,#173,#174,#175,#176,#177),.UNSPECIFIED.,.F.,.U.,(6,3,3,3,3,3,3,6),(0.,0.694484073526,1.38896816546,2.08345229648,2.77793639615,3.47242050173,4.16690970697,4.45304241613),.UNSPECIFIED.) ;
#21=MANIFOLD_SOLID_BREP('CABTITE BP 2MM PA',#31) ;
#49=CIRCLE('generated circle',#48,1.9) ;
#63=CIRCLE('generated circle',#62,1.9) ;
#70=CIRCLE('generated circle',#69,1.9) ;
#91=CIRCLE('generated circle',#90,1.9) ;
#96=CIRCLE('generated circle',#95,1.9) ;
#103=CIRCLE('generated circle',#102,1.9) ;
#193=CIRCLE('generated circle',#192,3.86) ;
#200=CIRCLE('generated circle',#199,3.86) ;
#217=CIRCLE('generated circle',#216,3.86) ;
#229=CIRCLE('generated circle',#228,3.86) ;
#260=CIRCLE('generated circle',#259,1.) ;
#280=CIRCLE('generated circle',#279,1.) ;
#312=CIRCLE('generated circle',#311,0.6) ;
#325=CIRCLE('generated circle',#324,0.6) ;
#22=COLOUR_RGB('Colour',0.823529411765,0.823529411765,1.) ;
#80=COLOUR_RGB('Colour',0.964705882353,0.937254901961,0.894117647059) ;
#294=CONICAL_SURFACE('Cone',#293,0.6,0.197395559624) ;
#87=OVER_RIDING_STYLED_ITEM(' ',(#86),#79,#29) ;
#113=OVER_RIDING_STYLED_ITEM(' ',(#86),#112,#29) ;
#184=OVER_RIDING_STYLED_ITEM(' ',(#86),#183,#29) ;
#208=OVER_RIDING_STYLED_ITEM(' ',(#86),#207,#29) ;
#225=OVER_RIDING_STYLED_ITEM(' ',(#86),#224,#29) ;
#237=OVER_RIDING_STYLED_ITEM(' ',(#86),#236,#29) ;
#244=OVER_RIDING_STYLED_ITEM(' ',(#86),#243,#29) ;
#276=OVER_RIDING_STYLED_ITEM(' ',(#86),#275,#29) ;
#289=OVER_RIDING_STYLED_ITEM(' ',(#86),#288,#29) ;
#321=OVER_RIDING_STYLED_ITEM(' ',(#86),#320,#29) ;
#334=OVER_RIDING_STYLED_ITEM(' ',(#86),#333,#29) ;
#345=OVER_RIDING_STYLED_ITEM(' ',(#86),#344,#29) ;
#36=CYLINDRICAL_SURFACE('generated cylinder',#35,1.9) ;
#249=CYLINDRICAL_SURFACE('generated cylinder',#248,1.) ;
#45=EDGE_CURVE('',#42,#44,#40,.T.) ;
#52=EDGE_CURVE('',#51,#44,#49,.T.) ;
#59=EDGE_CURVE('',#51,#58,#56,.F.) ;
#66=EDGE_CURVE('',#58,#65,#63,.T.) ;
#71=EDGE_CURVE('',#65,#42,#70,.T.) ;
#92=EDGE_CURVE('',#44,#51,#91,.T.) ;
#99=EDGE_CURVE('',#98,#42,#96,.F.) ;
#104=EDGE_CURVE('',#58,#98,#103,.F.) ;
#152=EDGE_CURVE('',#149,#151,#123,.T.) ;
#178=EDGE_CURVE('',#151,#149,#153,.T.) ;
#196=EDGE_CURVE('',#58,#195,#193,.T.) ;
#201=EDGE_CURVE('',#195,#65,#200,.F.) ;
#218=EDGE_CURVE('',#42,#195,#217,.T.) ;
#230=EDGE_CURVE('',#195,#98,#229,.F.) ;
#256=EDGE_CURVE('',#255,#151,#253,.F.) ;
#263=EDGE_CURVE('',#255,#262,#260,.F.) ;
#268=EDGE_CURVE('',#149,#262,#267,.T.) ;
#281=EDGE_CURVE('',#262,#255,#280,.F.) ;
#301=EDGE_CURVE('',#262,#300,#298,.F.) ;
#308=EDGE_CURVE('',#307,#255,#305,.T.) ;
#313=EDGE_CURVE('',#300,#307,#312,.F.) ;
#326=EDGE_CURVE('',#307,#300,#325,.F.) ;
#72=EDGE_LOOP('',(#73,#74,#75,#76,#77)) ;
#105=EDGE_LOOP('',(#106,#107,#108,#109,#110)) ;
#119=EDGE_LOOP('',(#120,#121)) ;
#179=EDGE_LOOP('',(#180,#181)) ;
#202=EDGE_LOOP('',(#203,#204,#205)) ;
#219=EDGE_LOOP('',(#220,#221,#222)) ;
#231=EDGE_LOOP('',(#232,#233,#234)) ;
#238=EDGE_LOOP('',(#239,#240,#241)) ;
#269=EDGE_LOOP('',(#270,#271,#272,#273)) ;
#282=EDGE_LOOP('',(#283,#284,#285,#286)) ;
#314=EDGE_LOOP('',(#315,#316,#317,#318)) ;
#327=EDGE_LOOP('',(#328,#329,#330,#331)) ;
#340=EDGE_LOOP('',(#341,#342)) ;
#78=FACE_OUTER_BOUND('',#72,.T.) ;
#111=FACE_OUTER_BOUND('',#105,.T.) ;
#122=FACE_OUTER_BOUND('',#119,.T.) ;
#206=FACE_OUTER_BOUND('',#202,.T.) ;
#223=FACE_OUTER_BOUND('',#219,.T.) ;
#235=FACE_OUTER_BOUND('',#231,.T.) ;
#242=FACE_OUTER_BOUND('',#238,.T.) ;
#274=FACE_OUTER_BOUND('',#269,.T.) ;
#287=FACE_OUTER_BOUND('',#282,.T.) ;
#319=FACE_OUTER_BOUND('',#314,.T.) ;
#332=FACE_OUTER_BOUND('',#327,.T.) ;
#343=FACE_OUTER_BOUND('',#340,.T.) ;
#40=LINE('Line',#37,#39) ;
#56=LINE('Line',#53,#55) ;
#253=LINE('Line',#250,#252) ;
#267=LINE('Line',#264,#266) ;
#298=LINE('Line',#295,#297) ;
#305=LINE('Line',#302,#304) ;
#118=PLANE('',#117) ;
#339=PLANE('',#338) ;
#9=PRODUCT_CATEGORY_RELATIONSHIP(' ',' ',#7,#8) ;
#6=PRODUCT_DEFINITION_FORMATION_WITH_SPECIFIED_SOURCE(' ',' ',#5,.NOT_KNOWN.) ;
#20=SHAPE_DEFINITION_REPRESENTATION(#11,#19) ;
#189=SPHERICAL_SURFACE('',#188,3.86) ;
#213=SPHERICAL_SURFACE('',#212,3.86) ;
#42=VERTEX_POINT('',#41) ;
#44=VERTEX_POINT('',#43) ;
#51=VERTEX_POINT('',#50) ;
#58=VERTEX_POINT('',#57) ;
#65=VERTEX_POINT('',#64) ;
#98=VERTEX_POINT('',#97) ;
#149=VERTEX_POINT('',#148) ;
#151=VERTEX_POINT('',#150) ;
#195=VERTEX_POINT('',#194) ;
#255=VERTEX_POINT('',#254) ;
#262=VERTEX_POINT('',#261) ;
#300=VERTEX_POINT('',#299) ;
#307=VERTEX_POINT('',#306) ;
#12=(LENGTH_UNIT()NAMED_UNIT(*)SI_UNIT(.MILLI.,.METRE.)) ;
#13=(NAMED_UNIT(*)PLANE_ANGLE_UNIT()SI_UNIT($,.RADIAN.)) ;
#14=(NAMED_UNIT(*)SI_UNIT($,.STERADIAN.)SOLID_ANGLE_UNIT()) ;
#16=(GEOMETRIC_REPRESENTATION_CONTEXT(3)GLOBAL_UNCERTAINTY_ASSIGNED_CONTEXT((#15))GLOBAL_UNIT_ASSIGNED_CONTEXT((#12,#13,#14))REPRESENTATION_CONTEXT(' ',' ')) ;
ENDSEC;
END-ISO-10303-21;
