ISO-10303-21;
HEADER;
FILE_DESCRIPTION(('CATIA V5R19 STEP'),'2;1');

FILE_NAME ('D1450990_0', '2015-02-20T07:39:00+00:00', ('Weidmueller Interface'), ('Weidmueller'), 'CATIA Version 5 Release 20 SP 5 (IN-10)', 'CATIA V5 STEP AP214', 'none');

FILE_SCHEMA(('AUTOMOTIVE_DESIGN { 1 0 10303 214 1 1 1 1 }'));

ENDSEC;
/* file written by CATIA V5R20 */
DATA;
#5=PRODUCT('SM 46/46-30','','<Q-CHECKER_SEAL> Q-Checker Version 2.14.8  \X2\000D\X0\\X2\000A\X0\CATIA-Version         : Catia V5 R20 SP5 Build Date 01-14-2011.22.00\X2\000D\X0\\X2\000A\X0\Model size (in KByte) : 0\X2\000D\X0\\X2\000A\X0\Checking date         : 2011-12-01 08:20:24\X2\000D\X0\\X2\000A\X0\Checking profile      : ADMIN / Release_2D-3D [CATPart]\X2\000D\X0\\X2\000A\X0\Model assessment      : In Ordnung (IO)\X2\000D\X0\\X2\000A\X0\Total weight sum      : 0\X2\000D\X0\\X2\000A\X0\<CROSS_CHECK_SUM>\X2\000D\X0\\X2\000A\X0\  <CHKSUM_DATE> 863242919 </CHKSUM_DATE>\X2\000D\X0\\X2\000A\X0\  <CHKSUM_ENTITIES> -873489556 </CHKSUM_ENTITIES>\X2\000D\X0\\X2\000A\X0\  <CHKSUM_PROFILE> 1594213346 </CHKSUM_PROFILE>\X2\000D\X0\\X2\000A\X0\  <CHKSUM_DIMENSION> -186917087 </CHKSUM_DIMENSION>\X2\000D\X0\\X2\000A\X0\  <CHKSUM_PROJINTERSEC> -896974048 </CHKSUM_PROJINTERSEC>\X2\000D\X0\\X2\000A\X0\  <CHKSUM_IDENTCRV> -896974048 </CHKSUM_IDENTCRV>\X2\000D\X0\\X2\000A\X0\  <CHKSUM_INFINITY> 138018827 </CHKSUM_INFINITY>\X2\000D\X0\\X2\000A\X0\</CROSS_CHECK_SUM>\X2\000D\X0\\X2\000A\X0\</Q-CHECKER_SEAL> \X2\000D\X0\\X2\000A\X0\',(#2)) ;
#2=PRODUCT_CONTEXT(' ',#1,'mechanical') ;
#1=APPLICATION_CONTEXT('automotive design') ;
#10=PRODUCT_DEFINITION('52614',' ',#6,#3) ;
#3=PRODUCT_DEFINITION_CONTEXT('part definition',#1,' ') ;
#11=PRODUCT_DEFINITION_SHAPE(' ',' ',#10) ;
#248=MECHANICAL_DESIGN_GEOMETRIC_PRESENTATION_REPRESENTATION(' ',(#30),#17) ;
#20=SHAPE_REPRESENTATION(' ',(#19),#17) ;
#19=AXIS2_PLACEMENT_3D(' ',#18,$,$) ;
#36=AXIS2_PLACEMENT_3D('Plane Axis2P3D',#33,#34,#35) ;
#76=AXIS2_PLACEMENT_3D('Plane Axis2P3D',#73,#74,#75) ;
#107=AXIS2_PLACEMENT_3D('Plane Axis2P3D',#104,#105,#106) ;
#138=AXIS2_PLACEMENT_3D('Plane Axis2P3D',#135,#136,#137) ;
#160=AXIS2_PLACEMENT_3D('Cylinder Axis2P3D',#157,#158,#159) ;
#164=AXIS2_PLACEMENT_3D('Circle Axis2P3D',#162,#163,$) ;
#180=AXIS2_PLACEMENT_3D('Circle Axis2P3D',#178,#179,$) ;
#199=AXIS2_PLACEMENT_3D('Circle Axis2P3D',#197,#198,$) ;
#204=AXIS2_PLACEMENT_3D('Circle Axis2P3D',#202,#203,$) ;
#217=AXIS2_PLACEMENT_3D('Plane Axis2P3D',#214,#215,#216) ;
#233=AXIS2_PLACEMENT_3D('Plane Axis2P3D',#230,#231,#232) ;
#18=CARTESIAN_POINT(' ',(0.,0.,0.)) ;
#33=CARTESIAN_POINT('Axis2P3D Location',(45.6,-3.5527136788E-015,1.39609735103E-015)) ;
#38=CARTESIAN_POINT('Line Origine',(45.6,-3.51597427483E-015,0.6)) ;
#42=CARTESIAN_POINT('Vertex',(45.6,-3.5527136788E-015,1.39609735103E-015)) ;
#44=CARTESIAN_POINT('Vertex',(45.6,-3.5527136788E-015,1.2)) ;
#47=CARTESIAN_POINT('Line Origine',(45.6,22.8,1.97215226305E-031)) ;
#51=CARTESIAN_POINT('Vertex',(45.6,45.6,-1.39609735103E-015)) ;
#54=CARTESIAN_POINT('Line Origine',(45.6,45.6,0.6)) ;
#58=CARTESIAN_POINT('Vertex',(45.6,45.6,1.2)) ;
#61=CARTESIAN_POINT('Line Origine',(45.6,22.8,1.2)) ;
#73=CARTESIAN_POINT('Axis2P3D Location',(3.5527136788E-015,45.6,-1.39609735103E-015)) ;
#78=CARTESIAN_POINT('Line Origine',(22.8,45.6,-1.39609735103E-015)) ;
#82=CARTESIAN_POINT('Vertex',(3.5527136788E-015,45.6,-1.39609735103E-015)) ;
#85=CARTESIAN_POINT('Line Origine',(3.5527136788E-015,45.6,0.6)) ;
#89=CARTESIAN_POINT('Vertex',(3.5527136788E-015,45.6,1.2)) ;
#92=CARTESIAN_POINT('Line Origine',(22.8,45.6,1.2)) ;
#104=CARTESIAN_POINT('Axis2P3D Location',(0.,45.6,-1.39609735103E-015)) ;
#109=CARTESIAN_POINT('Line Origine',(0.,22.8,-1.97215226305E-031)) ;
#113=CARTESIAN_POINT('Vertex',(0.,-3.5527136788E-015,1.39609735103E-015)) ;
#116=CARTESIAN_POINT('Line Origine',(0.,3.67394039744E-017,0.6)) ;
#120=CARTESIAN_POINT('Vertex',(0.,-3.5527136788E-015,1.2)) ;
#123=CARTESIAN_POINT('Line Origine',(0.,22.8,1.2)) ;
#135=CARTESIAN_POINT('Axis2P3D Location',(45.6,0.,1.39609735103E-015)) ;
#140=CARTESIAN_POINT('Line Origine',(22.8,0.,1.39609735103E-015)) ;
#145=CARTESIAN_POINT('Line Origine',(22.8,7.34788079488E-017,1.2)) ;
#157=CARTESIAN_POINT('Axis2P3D Location',(22.8,22.8,0.6)) ;
#162=CARTESIAN_POINT('Axis2P3D Location',(22.8,22.8,1.2)) ;
#166=CARTESIAN_POINT('Vertex',(37.7,22.8,1.2)) ;
#168=CARTESIAN_POINT('Vertex',(7.9,22.8,1.2)) ;
#171=CARTESIAN_POINT('Line Origine',(7.9,22.8,0.6)) ;
#175=CARTESIAN_POINT('Vertex',(7.9,22.8,0.)) ;
#178=CARTESIAN_POINT('Axis2P3D Location',(22.8,22.8,0.)) ;
#182=CARTESIAN_POINT('Vertex',(37.7,22.8,1.11732103808E-031)) ;
#185=CARTESIAN_POINT('Line Origine',(37.7,22.8,0.6)) ;
#197=CARTESIAN_POINT('Axis2P3D Location',(22.8,22.8,1.2)) ;
#202=CARTESIAN_POINT('Axis2P3D Location',(22.8,22.8,0.)) ;
#214=CARTESIAN_POINT('Axis2P3D Location',(22.8,22.8,0.)) ;
#230=CARTESIAN_POINT('Axis2P3D Location',(22.8,22.8,1.2)) ;
#34=DIRECTION('Axis2P3D Direction',(1.,-0.,0.)) ;
#35=DIRECTION('Axis2P3D XDirection',(0.,1.,-6.12323399574E-017)) ;
#39=DIRECTION('Vector Direction',(0.,6.12323399574E-017,1.)) ;
#48=DIRECTION('Vector Direction',(0.,1.,-6.12323399574E-017)) ;
#55=DIRECTION('Vector Direction',(0.,0.,1.)) ;
#62=DIRECTION('Vector Direction',(0.,1.,-5.84327907697E-017)) ;
#74=DIRECTION('Axis2P3D Direction',(0.,-1.,6.12323399574E-017)) ;
#75=DIRECTION('Axis2P3D XDirection',(1.,0.,0.)) ;
#79=DIRECTION('Vector Direction',(1.,0.,0.)) ;
#86=DIRECTION('Vector Direction',(0.,0.,1.)) ;
#93=DIRECTION('Vector Direction',(1.,0.,0.)) ;
#105=DIRECTION('Axis2P3D Direction',(-1.,0.,0.)) ;
#106=DIRECTION('Axis2P3D XDirection',(0.,-1.,6.12323399574E-017)) ;
#110=DIRECTION('Vector Direction',(0.,-1.,6.12323399574E-017)) ;
#117=DIRECTION('Vector Direction',(0.,6.12323399574E-017,1.)) ;
#124=DIRECTION('Vector Direction',(0.,-1.,5.84327907697E-017)) ;
#136=DIRECTION('Axis2P3D Direction',(0.,1.,-6.12323399574E-017)) ;
#137=DIRECTION('Axis2P3D XDirection',(-1.,0.,0.)) ;
#141=DIRECTION('Vector Direction',(-1.,0.,0.)) ;
#146=DIRECTION('Vector Direction',(-1.,0.,0.)) ;
#158=DIRECTION('Axis2P3D Direction',(0.,6.12323399574E-017,1.)) ;
#159=DIRECTION('Axis2P3D XDirection',(-1.,0.,0.)) ;
#163=DIRECTION('Axis2P3D Direction',(0.,6.12323399574E-017,1.)) ;
#172=DIRECTION('Vector Direction',(0.,0.,1.)) ;
#179=DIRECTION('Axis2P3D Direction',(0.,6.12323399574E-017,1.)) ;
#186=DIRECTION('Vector Direction',(0.,0.,1.)) ;
#198=DIRECTION('Axis2P3D Direction',(0.,6.12323399574E-017,1.)) ;
#203=DIRECTION('Axis2P3D Direction',(0.,6.12323399574E-017,1.)) ;
#215=DIRECTION('Axis2P3D Direction',(0.,6.12323399574E-017,1.)) ;
#216=DIRECTION('Axis2P3D XDirection',(-1.,0.,0.)) ;
#231=DIRECTION('Axis2P3D Direction',(0.,6.12323399574E-017,1.)) ;
#232=DIRECTION('Axis2P3D XDirection',(-1.,0.,0.)) ;
#31=PRESENTATION_LAYER_ASSIGNMENT('1',' ',(#22)) ;
#8=PRODUCT_RELATED_PRODUCT_CATEGORY('part',$,(#5)) ;
#7=PRODUCT_CATEGORY('part','specification') ;
#30=STYLED_ITEM(' ',(#29),#22) ;
#29=PRESENTATION_STYLE_ASSIGNMENT((#28)) ;
#28=SURFACE_STYLE_USAGE(.BOTH.,#27) ;
#27=SURFACE_SIDE_STYLE(' ',(#26)) ;
#26=SURFACE_STYLE_FILL_AREA(#25) ;
#25=FILL_AREA_STYLE(' ',(#24)) ;
#24=FILL_AREA_STYLE_COLOUR(' ',#23) ;
#40=VECTOR('Line Direction',#39,1.) ;
#49=VECTOR('Line Direction',#48,1.) ;
#56=VECTOR('Line Direction',#55,1.) ;
#63=VECTOR('Line Direction',#62,1.) ;
#80=VECTOR('Line Direction',#79,1.) ;
#87=VECTOR('Line Direction',#86,1.) ;
#94=VECTOR('Line Direction',#93,1.) ;
#111=VECTOR('Line Direction',#110,1.) ;
#118=VECTOR('Line Direction',#117,1.) ;
#125=VECTOR('Line Direction',#124,1.) ;
#142=VECTOR('Line Direction',#141,1.) ;
#147=VECTOR('Line Direction',#146,1.) ;
#173=VECTOR('Line Direction',#172,1.) ;
#187=VECTOR('Line Direction',#186,1.) ;
#16=UNCERTAINTY_MEASURE_WITH_UNIT(LENGTH_MEASURE(0.005),#12,'distance_accuracy_value','CONFUSED CURVE UNCERTAINTY') ;
#247=SHAPE_REPRESENTATION_RELATIONSHIP(' ',' ',#20,#246) ;
#67=ORIENTED_EDGE('',*,*,#46,.F.) ;
#68=ORIENTED_EDGE('',*,*,#53,.T.) ;
#69=ORIENTED_EDGE('',*,*,#60,.T.) ;
#70=ORIENTED_EDGE('',*,*,#65,.F.) ;
#98=ORIENTED_EDGE('',*,*,#60,.F.) ;
#99=ORIENTED_EDGE('',*,*,#84,.T.) ;
#100=ORIENTED_EDGE('',*,*,#91,.T.) ;
#101=ORIENTED_EDGE('',*,*,#96,.F.) ;
#129=ORIENTED_EDGE('',*,*,#91,.F.) ;
#130=ORIENTED_EDGE('',*,*,#115,.T.) ;
#131=ORIENTED_EDGE('',*,*,#122,.T.) ;
#132=ORIENTED_EDGE('',*,*,#127,.F.) ;
#151=ORIENTED_EDGE('',*,*,#122,.F.) ;
#152=ORIENTED_EDGE('',*,*,#144,.T.) ;
#153=ORIENTED_EDGE('',*,*,#46,.T.) ;
#154=ORIENTED_EDGE('',*,*,#149,.F.) ;
#191=ORIENTED_EDGE('',*,*,#170,.T.) ;
#192=ORIENTED_EDGE('',*,*,#177,.F.) ;
#193=ORIENTED_EDGE('',*,*,#184,.F.) ;
#194=ORIENTED_EDGE('',*,*,#189,.T.) ;
#208=ORIENTED_EDGE('',*,*,#201,.T.) ;
#209=ORIENTED_EDGE('',*,*,#189,.F.) ;
#210=ORIENTED_EDGE('',*,*,#206,.F.) ;
#211=ORIENTED_EDGE('',*,*,#177,.T.) ;
#220=ORIENTED_EDGE('',*,*,#144,.F.) ;
#221=ORIENTED_EDGE('',*,*,#115,.F.) ;
#222=ORIENTED_EDGE('',*,*,#84,.F.) ;
#223=ORIENTED_EDGE('',*,*,#53,.F.) ;
#226=ORIENTED_EDGE('',*,*,#206,.T.) ;
#227=ORIENTED_EDGE('',*,*,#184,.T.) ;
#236=ORIENTED_EDGE('',*,*,#65,.T.) ;
#237=ORIENTED_EDGE('',*,*,#96,.T.) ;
#238=ORIENTED_EDGE('',*,*,#127,.T.) ;
#239=ORIENTED_EDGE('',*,*,#149,.T.) ;
#242=ORIENTED_EDGE('',*,*,#170,.F.) ;
#243=ORIENTED_EDGE('',*,*,#201,.F.) ;
#228=FACE_BOUND('',#225,.T.) ;
#244=FACE_BOUND('',#241,.T.) ;
#32=CLOSED_SHELL('Closed Shell',(#72,#103,#134,#156,#196,#213,#229,#245)) ;
#246=ADVANCED_BREP_SHAPE_REPRESENTATION('NONE',(#22),#17) ;
#72=ADVANCED_FACE('S3D gedreht',(#71),#37,.T.) ;
#103=ADVANCED_FACE('S3D gedreht',(#102),#77,.F.) ;
#134=ADVANCED_FACE('S3D gedreht',(#133),#108,.T.) ;
#156=ADVANCED_FACE('S3D gedreht',(#155),#139,.F.) ;
#196=ADVANCED_FACE('S3D gedreht',(#195),#161,.F.) ;
#213=ADVANCED_FACE('S3D gedreht',(#212),#161,.F.) ;
#229=ADVANCED_FACE('S3D gedreht',(#224,#228),#218,.F.) ;
#245=ADVANCED_FACE('S3D gedreht',(#240,#244),#234,.T.) ;
#4=APPLICATION_PROTOCOL_DEFINITION('international standard','automotive_design',2001,#1) ;
#22=MANIFOLD_SOLID_BREP('S3D gedreht',#32) ;
#165=CIRCLE('generated circle',#164,14.9) ;
#181=CIRCLE('generated circle',#180,14.9) ;
#200=CIRCLE('generated circle',#199,14.9) ;
#205=CIRCLE('generated circle',#204,14.9) ;
#161=CYLINDRICAL_SURFACE('generated cylinder',#160,14.9) ;
#23=DRAUGHTING_PRE_DEFINED_COLOUR('yellow') ;
#46=EDGE_CURVE('',#43,#45,#41,.T.) ;
#53=EDGE_CURVE('',#43,#52,#50,.T.) ;
#60=EDGE_CURVE('',#52,#59,#57,.T.) ;
#65=EDGE_CURVE('',#45,#59,#64,.T.) ;
#84=EDGE_CURVE('',#52,#83,#81,.F.) ;
#91=EDGE_CURVE('',#83,#90,#88,.T.) ;
#96=EDGE_CURVE('',#59,#90,#95,.F.) ;
#115=EDGE_CURVE('',#83,#114,#112,.T.) ;
#122=EDGE_CURVE('',#114,#121,#119,.T.) ;
#127=EDGE_CURVE('',#90,#121,#126,.T.) ;
#144=EDGE_CURVE('',#114,#43,#143,.F.) ;
#149=EDGE_CURVE('',#121,#45,#148,.F.) ;
#170=EDGE_CURVE('',#167,#169,#165,.T.) ;
#177=EDGE_CURVE('',#176,#169,#174,.T.) ;
#184=EDGE_CURVE('',#183,#176,#181,.T.) ;
#189=EDGE_CURVE('',#183,#167,#188,.T.) ;
#201=EDGE_CURVE('',#169,#167,#200,.T.) ;
#206=EDGE_CURVE('',#176,#183,#205,.T.) ;
#66=EDGE_LOOP('',(#67,#68,#69,#70)) ;
#97=EDGE_LOOP('',(#98,#99,#100,#101)) ;
#128=EDGE_LOOP('',(#129,#130,#131,#132)) ;
#150=EDGE_LOOP('',(#151,#152,#153,#154)) ;
#190=EDGE_LOOP('',(#191,#192,#193,#194)) ;
#207=EDGE_LOOP('',(#208,#209,#210,#211)) ;
#219=EDGE_LOOP('',(#220,#221,#222,#223)) ;
#225=EDGE_LOOP('',(#226,#227)) ;
#235=EDGE_LOOP('',(#236,#237,#238,#239)) ;
#241=EDGE_LOOP('',(#242,#243)) ;
#71=FACE_OUTER_BOUND('',#66,.T.) ;
#102=FACE_OUTER_BOUND('',#97,.T.) ;
#133=FACE_OUTER_BOUND('',#128,.T.) ;
#155=FACE_OUTER_BOUND('',#150,.T.) ;
#195=FACE_OUTER_BOUND('',#190,.T.) ;
#212=FACE_OUTER_BOUND('',#207,.T.) ;
#224=FACE_OUTER_BOUND('',#219,.T.) ;
#240=FACE_OUTER_BOUND('',#235,.T.) ;
#41=LINE('Line',#38,#40) ;
#50=LINE('Line',#47,#49) ;
#57=LINE('Line',#54,#56) ;
#64=LINE('Line',#61,#63) ;
#81=LINE('Line',#78,#80) ;
#88=LINE('Line',#85,#87) ;
#95=LINE('Line',#92,#94) ;
#112=LINE('Line',#109,#111) ;
#119=LINE('Line',#116,#118) ;
#126=LINE('Line',#123,#125) ;
#143=LINE('Line',#140,#142) ;
#148=LINE('Line',#145,#147) ;
#174=LINE('Line',#171,#173) ;
#188=LINE('Line',#185,#187) ;
#37=PLANE('',#36) ;
#77=PLANE('',#76) ;
#108=PLANE('',#107) ;
#139=PLANE('',#138) ;
#218=PLANE('',#217) ;
#234=PLANE('',#233) ;
#14=PLANE_ANGLE_MEASURE_WITH_UNIT(PLANE_ANGLE_MEASURE(0.0174532925199),#13) ;
#9=PRODUCT_CATEGORY_RELATIONSHIP(' ',' ',#7,#8) ;
#6=PRODUCT_DEFINITION_FORMATION_WITH_SPECIFIED_SOURCE('',' ',#5,.NOT_KNOWN.) ;
#21=SHAPE_DEFINITION_REPRESENTATION(#11,#20) ;
#43=VERTEX_POINT('',#42) ;
#45=VERTEX_POINT('',#44) ;
#52=VERTEX_POINT('',#51) ;
#59=VERTEX_POINT('',#58) ;
#83=VERTEX_POINT('',#82) ;
#90=VERTEX_POINT('',#89) ;
#114=VERTEX_POINT('',#113) ;
#121=VERTEX_POINT('',#120) ;
#167=VERTEX_POINT('',#166) ;
#169=VERTEX_POINT('',#168) ;
#176=VERTEX_POINT('',#175) ;
#183=VERTEX_POINT('',#182) ;
#12=(LENGTH_UNIT()NAMED_UNIT(*)SI_UNIT(.MILLI.,.METRE.)) ;
#13=(NAMED_UNIT(*)PLANE_ANGLE_UNIT()SI_UNIT($,.RADIAN.)) ;
#15=(NAMED_UNIT(*)SI_UNIT($,.STERADIAN.)SOLID_ANGLE_UNIT()) ;
#17=(GEOMETRIC_REPRESENTATION_CONTEXT(3)GLOBAL_UNCERTAINTY_ASSIGNED_CONTEXT((#16))GLOBAL_UNIT_ASSIGNED_CONTEXT((#12,#13,#15))REPRESENTATION_CONTEXT(' ',' ')) ;
ENDSEC;
END-ISO-10303-21;
