ISO-10303-21;
HEADER;
FILE_DESCRIPTION(('CATIA V5 STEP Exchange','CAx-IF Rec.Pracs.--- Model Styling and Organization---1.4--- 2014-01-23'),'2;1');

FILE_NAME ('D1448107_0_1065600000_1065600000.stp','2020-01-27T12:37:30+00:00',('none'),('Weidmueller'),'CATIA Version 5-6 Release 2016 SP3 HF44','CATIA V5 STEP AP214','none');

FILE_SCHEMA(('AUTOMOTIVE_DESIGN { 1 0 10303 214 1 1 1 1 }'));

ENDSEC;
DATA;
#5=PRODUCT('1065600000_WQL_3_WFF120','','',(#2)) ;
#2=PRODUCT_CONTEXT(' ',#1,'mechanical') ;
#1=APPLICATION_CONTEXT('automotive design') ;
#10=PRODUCT_DEFINITION('',' ',#6,#3) ;
#3=PRODUCT_DEFINITION_CONTEXT('part definition',#1,' ') ;
#11=PRODUCT_DEFINITION_SHAPE(' ',' ',#10) ;
#509=MECHANICAL_DESIGN_GEOMETRIC_PRESENTATION_REPRESENTATION(' ',(#29),#16) ;
#19=SHAPE_REPRESENTATION(' ',(#18),#16) ;
#18=AXIS2_PLACEMENT_3D(' ',#17,$,$) ;
#35=AXIS2_PLACEMENT_3D('Cylinder Axis2P3D',#32,#33,#34) ;
#39=AXIS2_PLACEMENT_3D('Circle Axis2P3D',#37,#38,$) ;
#55=AXIS2_PLACEMENT_3D('Circle Axis2P3D',#53,#54,$) ;
#74=AXIS2_PLACEMENT_3D('Circle Axis2P3D',#72,#73,$) ;
#79=AXIS2_PLACEMENT_3D('Circle Axis2P3D',#77,#78,$) ;
#92=AXIS2_PLACEMENT_3D('Plane Axis2P3D',#89,#90,#91) ;
#162=AXIS2_PLACEMENT_3D('Circle Axis2P3D',#160,#161,$) ;
#171=AXIS2_PLACEMENT_3D('Circle Axis2P3D',#169,#170,$) ;
#180=AXIS2_PLACEMENT_3D('Circle Axis2P3D',#178,#179,$) ;
#189=AXIS2_PLACEMENT_3D('Circle Axis2P3D',#187,#188,$) ;
#204=AXIS2_PLACEMENT_3D('Plane Axis2P3D',#201,#202,#203) ;
#235=AXIS2_PLACEMENT_3D('Plane Axis2P3D',#232,#233,#234) ;
#259=AXIS2_PLACEMENT_3D('Plane Axis2P3D',#256,#257,#258) ;
#283=AXIS2_PLACEMENT_3D('Plane Axis2P3D',#280,#281,#282) ;
#307=AXIS2_PLACEMENT_3D('Plane Axis2P3D',#304,#305,#306) ;
#331=AXIS2_PLACEMENT_3D('Plane Axis2P3D',#328,#329,#330) ;
#355=AXIS2_PLACEMENT_3D('Plane Axis2P3D',#352,#353,#354) ;
#379=AXIS2_PLACEMENT_3D('Plane Axis2P3D',#376,#377,#378) ;
#396=AXIS2_PLACEMENT_3D('Cylinder Axis2P3D',#393,#394,#395) ;
#400=AXIS2_PLACEMENT_3D('Circle Axis2P3D',#398,#399,$) ;
#426=AXIS2_PLACEMENT_3D('Circle Axis2P3D',#424,#425,$) ;
#439=AXIS2_PLACEMENT_3D('Cylinder Axis2P3D',#436,#437,#438) ;
#443=AXIS2_PLACEMENT_3D('Circle Axis2P3D',#441,#442,$) ;
#469=AXIS2_PLACEMENT_3D('Circle Axis2P3D',#467,#468,$) ;
#482=AXIS2_PLACEMENT_3D('Plane Axis2P3D',#479,#480,#481) ;
#17=CARTESIAN_POINT(' ',(0.,0.,0.)) ;
#32=CARTESIAN_POINT('Axis2P3D Location',(101.5,15.,0.1)) ;
#37=CARTESIAN_POINT('Axis2P3D Location',(101.5,15.,0.)) ;
#41=CARTESIAN_POINT('Vertex',(96.6732959096,12.3631595377,-8.32667268469E-017)) ;
#43=CARTESIAN_POINT('Vertex',(106.32670409,17.6368404623,-8.32667268469E-017)) ;
#46=CARTESIAN_POINT('Line Origine',(96.6732959096,12.3631595377,1.84499999998)) ;
#50=CARTESIAN_POINT('Vertex',(96.6732959096,12.3631595377,4.)) ;
#53=CARTESIAN_POINT('Axis2P3D Location',(101.5,15.,4.)) ;
#57=CARTESIAN_POINT('Vertex',(106.32670409,17.6368404623,4.)) ;
#60=CARTESIAN_POINT('Line Origine',(106.32670409,17.6368404623,1.84499999998)) ;
#72=CARTESIAN_POINT('Axis2P3D Location',(101.5,15.,0.)) ;
#77=CARTESIAN_POINT('Axis2P3D Location',(101.5,15.,4.)) ;
#89=CARTESIAN_POINT('Axis2P3D Location',(0.,0.,4.)) ;
#94=CARTESIAN_POINT('Line Origine',(59.5,0.,4.)) ;
#98=CARTESIAN_POINT('Vertex',(2.,0.,4.)) ;
#100=CARTESIAN_POINT('Vertex',(117.,0.,4.)) ;
#103=CARTESIAN_POINT('Line Origine',(118.,0.999999999984,4.)) ;
#107=CARTESIAN_POINT('Vertex',(119.,1.99999999997,4.)) ;
#110=CARTESIAN_POINT('Line Origine',(119.,15.,4.)) ;
#114=CARTESIAN_POINT('Vertex',(119.,28.,4.)) ;
#117=CARTESIAN_POINT('Line Origine',(118.,29.,4.)) ;
#121=CARTESIAN_POINT('Vertex',(117.,30.,4.)) ;
#124=CARTESIAN_POINT('Line Origine',(59.5,30.,4.)) ;
#128=CARTESIAN_POINT('Vertex',(2.,30.,4.)) ;
#131=CARTESIAN_POINT('Line Origine',(1.,29.,4.)) ;
#135=CARTESIAN_POINT('Vertex',(7.81597009336E-014,28.,4.)) ;
#138=CARTESIAN_POINT('Line Origine',(0.,15.,4.)) ;
#142=CARTESIAN_POINT('Vertex',(0.,1.99999999997,4.)) ;
#145=CARTESIAN_POINT('Line Origine',(1.,0.999999999984,4.)) ;
#160=CARTESIAN_POINT('Axis2P3D Location',(59.5,15.,4.)) ;
#164=CARTESIAN_POINT('Vertex',(64.3267040904,17.6368404623,4.)) ;
#166=CARTESIAN_POINT('Vertex',(54.6732959096,12.3631595377,4.)) ;
#169=CARTESIAN_POINT('Axis2P3D Location',(59.5,15.,4.)) ;
#178=CARTESIAN_POINT('Axis2P3D Location',(17.5,15.,4.)) ;
#182=CARTESIAN_POINT('Vertex',(22.3267040904,17.6368404623,4.)) ;
#184=CARTESIAN_POINT('Vertex',(12.6732959096,12.3631595377,4.)) ;
#187=CARTESIAN_POINT('Axis2P3D Location',(17.5,15.,4.)) ;
#201=CARTESIAN_POINT('Axis2P3D Location',(2.,0.,0.)) ;
#206=CARTESIAN_POINT('Line Origine',(2.,0.,2.)) ;
#210=CARTESIAN_POINT('Vertex',(2.,0.,0.)) ;
#213=CARTESIAN_POINT('Line Origine',(59.5,0.,0.)) ;
#217=CARTESIAN_POINT('Vertex',(117.,0.,0.)) ;
#220=CARTESIAN_POINT('Line Origine',(117.,0.,2.)) ;
#232=CARTESIAN_POINT('Axis2P3D Location',(117.,2.13162820728E-014,0.)) ;
#237=CARTESIAN_POINT('Line Origine',(118.,0.999999999984,0.)) ;
#241=CARTESIAN_POINT('Vertex',(119.,1.99999999997,0.)) ;
#244=CARTESIAN_POINT('Line Origine',(119.,1.99999999997,2.)) ;
#256=CARTESIAN_POINT('Axis2P3D Location',(119.,1.99999999997,0.)) ;
#261=CARTESIAN_POINT('Line Origine',(119.,15.,0.)) ;
#265=CARTESIAN_POINT('Vertex',(119.,28.,0.)) ;
#268=CARTESIAN_POINT('Line Origine',(119.,28.,2.)) ;
#280=CARTESIAN_POINT('Axis2P3D Location',(117.,30.,0.)) ;
#285=CARTESIAN_POINT('Line Origine',(118.,29.,0.)) ;
#289=CARTESIAN_POINT('Vertex',(117.,30.,0.)) ;
#292=CARTESIAN_POINT('Line Origine',(117.,30.,2.)) ;
#304=CARTESIAN_POINT('Axis2P3D Location',(117.,30.,0.)) ;
#309=CARTESIAN_POINT('Line Origine',(59.5,30.,0.)) ;
#313=CARTESIAN_POINT('Vertex',(2.,30.,0.)) ;
#316=CARTESIAN_POINT('Line Origine',(2.,30.,2.)) ;
#328=CARTESIAN_POINT('Axis2P3D Location',(2.,30.,0.)) ;
#333=CARTESIAN_POINT('Line Origine',(1.,29.,0.)) ;
#337=CARTESIAN_POINT('Vertex',(7.81597009336E-014,28.,0.)) ;
#340=CARTESIAN_POINT('Line Origine',(7.77156117238E-014,28.,2.)) ;
#352=CARTESIAN_POINT('Axis2P3D Location',(0.,28.,0.)) ;
#357=CARTESIAN_POINT('Line Origine',(0.,15.,0.)) ;
#361=CARTESIAN_POINT('Vertex',(0.,1.99999999997,0.)) ;
#364=CARTESIAN_POINT('Line Origine',(0.,1.99999999997,2.)) ;
#376=CARTESIAN_POINT('Axis2P3D Location',(2.,1.40998324127E-014,0.)) ;
#381=CARTESIAN_POINT('Line Origine',(1.,0.999999999984,0.)) ;
#393=CARTESIAN_POINT('Axis2P3D Location',(17.5,15.,0.1)) ;
#398=CARTESIAN_POINT('Axis2P3D Location',(17.5,15.,0.)) ;
#402=CARTESIAN_POINT('Vertex',(12.6732959096,12.3631595377,-8.32667268469E-017)) ;
#404=CARTESIAN_POINT('Vertex',(22.3267040904,17.6368404623,-8.32667268469E-017)) ;
#407=CARTESIAN_POINT('Line Origine',(12.6732959096,12.3631595377,1.84499999998)) ;
#412=CARTESIAN_POINT('Line Origine',(22.3267040904,17.6368404623,1.84499999998)) ;
#424=CARTESIAN_POINT('Axis2P3D Location',(17.5,15.,0.)) ;
#436=CARTESIAN_POINT('Axis2P3D Location',(59.5,15.,0.1)) ;
#441=CARTESIAN_POINT('Axis2P3D Location',(59.5,15.,0.)) ;
#445=CARTESIAN_POINT('Vertex',(54.6732959096,12.3631595377,-8.32667268469E-017)) ;
#447=CARTESIAN_POINT('Vertex',(64.3267040904,17.6368404623,-8.32667268469E-017)) ;
#450=CARTESIAN_POINT('Line Origine',(54.6732959096,12.3631595377,1.84499999998)) ;
#455=CARTESIAN_POINT('Line Origine',(64.3267040904,17.6368404623,1.84499999998)) ;
#467=CARTESIAN_POINT('Axis2P3D Location',(59.5,15.,0.)) ;
#479=CARTESIAN_POINT('Axis2P3D Location',(0.,0.,0.)) ;
#33=DIRECTION('Axis2P3D Direction',(0.,0.,1.)) ;
#34=DIRECTION('Axis2P3D XDirection',(0.87758256189,0.479425538604,0.)) ;
#38=DIRECTION('Axis2P3D Direction',(0.,0.,1.)) ;
#47=DIRECTION('Vector Direction',(0.,0.,1.)) ;
#54=DIRECTION('Axis2P3D Direction',(0.,0.,1.)) ;
#61=DIRECTION('Vector Direction',(0.,0.,1.)) ;
#73=DIRECTION('Axis2P3D Direction',(0.,0.,1.)) ;
#78=DIRECTION('Axis2P3D Direction',(0.,0.,1.)) ;
#90=DIRECTION('Axis2P3D Direction',(0.,0.,1.)) ;
#91=DIRECTION('Axis2P3D XDirection',(1.,0.,0.)) ;
#95=DIRECTION('Vector Direction',(1.,0.,0.)) ;
#104=DIRECTION('Vector Direction',(0.707106781192,0.707106781181,0.)) ;
#111=DIRECTION('Vector Direction',(0.,1.,0.)) ;
#118=DIRECTION('Vector Direction',(0.707106781192,-0.707106781181,0.)) ;
#125=DIRECTION('Vector Direction',(-1.,0.,0.)) ;
#132=DIRECTION('Vector Direction',(-0.707106781192,-0.707106781181,0.)) ;
#139=DIRECTION('Vector Direction',(0.,-1.,0.)) ;
#146=DIRECTION('Vector Direction',(-0.707106781192,0.707106781181,0.)) ;
#161=DIRECTION('Axis2P3D Direction',(0.,0.,1.)) ;
#170=DIRECTION('Axis2P3D Direction',(0.,0.,1.)) ;
#179=DIRECTION('Axis2P3D Direction',(0.,0.,1.)) ;
#188=DIRECTION('Axis2P3D Direction',(0.,0.,1.)) ;
#202=DIRECTION('Axis2P3D Direction',(0.,-1.,0.)) ;
#203=DIRECTION('Axis2P3D XDirection',(1.,0.,0.)) ;
#207=DIRECTION('Vector Direction',(0.,0.,1.)) ;
#214=DIRECTION('Vector Direction',(1.,0.,0.)) ;
#221=DIRECTION('Vector Direction',(0.,0.,1.)) ;
#233=DIRECTION('Axis2P3D Direction',(0.707106781181,-0.707106781192,0.)) ;
#234=DIRECTION('Axis2P3D XDirection',(0.707106781192,0.707106781181,0.)) ;
#238=DIRECTION('Vector Direction',(0.707106781192,0.707106781181,0.)) ;
#245=DIRECTION('Vector Direction',(0.,0.,1.)) ;
#257=DIRECTION('Axis2P3D Direction',(1.,0.,0.)) ;
#258=DIRECTION('Axis2P3D XDirection',(0.,1.,0.)) ;
#262=DIRECTION('Vector Direction',(0.,1.,0.)) ;
#269=DIRECTION('Vector Direction',(0.,0.,1.)) ;
#281=DIRECTION('Axis2P3D Direction',(-0.707106781181,-0.707106781192,0.)) ;
#282=DIRECTION('Axis2P3D XDirection',(0.707106781192,-0.707106781181,0.)) ;
#286=DIRECTION('Vector Direction',(0.707106781192,-0.707106781181,0.)) ;
#293=DIRECTION('Vector Direction',(0.,0.,1.)) ;
#305=DIRECTION('Axis2P3D Direction',(0.,1.,-0.)) ;
#306=DIRECTION('Axis2P3D XDirection',(-1.,0.,0.)) ;
#310=DIRECTION('Vector Direction',(-1.,0.,0.)) ;
#317=DIRECTION('Vector Direction',(0.,0.,1.)) ;
#329=DIRECTION('Axis2P3D Direction',(-0.707106781181,0.707106781192,0.)) ;
#330=DIRECTION('Axis2P3D XDirection',(-0.707106781192,-0.707106781181,-0.)) ;
#334=DIRECTION('Vector Direction',(-0.707106781192,-0.707106781181,0.)) ;
#341=DIRECTION('Vector Direction',(0.,0.,1.)) ;
#353=DIRECTION('Axis2P3D Direction',(-1.,0.,0.)) ;
#354=DIRECTION('Axis2P3D XDirection',(0.,-1.,0.)) ;
#358=DIRECTION('Vector Direction',(0.,-1.,0.)) ;
#365=DIRECTION('Vector Direction',(0.,0.,1.)) ;
#377=DIRECTION('Axis2P3D Direction',(0.707106781181,0.707106781192,-0.)) ;
#378=DIRECTION('Axis2P3D XDirection',(-0.707106781192,0.707106781181,0.)) ;
#382=DIRECTION('Vector Direction',(-0.707106781192,0.707106781181,0.)) ;
#394=DIRECTION('Axis2P3D Direction',(0.,0.,1.)) ;
#395=DIRECTION('Axis2P3D XDirection',(0.87758256189,0.479425538604,0.)) ;
#399=DIRECTION('Axis2P3D Direction',(0.,0.,1.)) ;
#408=DIRECTION('Vector Direction',(0.,0.,1.)) ;
#413=DIRECTION('Vector Direction',(0.,0.,1.)) ;
#425=DIRECTION('Axis2P3D Direction',(0.,0.,1.)) ;
#437=DIRECTION('Axis2P3D Direction',(0.,0.,1.)) ;
#438=DIRECTION('Axis2P3D XDirection',(0.87758256189,0.479425538604,0.)) ;
#442=DIRECTION('Axis2P3D Direction',(0.,0.,1.)) ;
#451=DIRECTION('Vector Direction',(0.,0.,1.)) ;
#456=DIRECTION('Vector Direction',(0.,0.,1.)) ;
#468=DIRECTION('Axis2P3D Direction',(0.,0.,1.)) ;
#480=DIRECTION('Axis2P3D Direction',(0.,0.,1.)) ;
#481=DIRECTION('Axis2P3D XDirection',(1.,0.,0.)) ;
#30=PRESENTATION_LAYER_ASSIGNMENT('1',' ',(#21)) ;
#8=PRODUCT_RELATED_PRODUCT_CATEGORY('part',$,(#5)) ;
#7=PRODUCT_CATEGORY('part','specification') ;
#29=STYLED_ITEM(' ',(#28),#21) ;
#28=PRESENTATION_STYLE_ASSIGNMENT((#27)) ;
#27=SURFACE_STYLE_USAGE(.BOTH.,#26) ;
#26=SURFACE_SIDE_STYLE(' ',(#25)) ;
#25=SURFACE_STYLE_FILL_AREA(#24) ;
#24=FILL_AREA_STYLE(' ',(#23)) ;
#23=FILL_AREA_STYLE_COLOUR(' ',#22) ;
#48=VECTOR('Line Direction',#47,1.) ;
#62=VECTOR('Line Direction',#61,1.) ;
#96=VECTOR('Line Direction',#95,1.) ;
#105=VECTOR('Line Direction',#104,1.) ;
#112=VECTOR('Line Direction',#111,1.) ;
#119=VECTOR('Line Direction',#118,1.) ;
#126=VECTOR('Line Direction',#125,1.) ;
#133=VECTOR('Line Direction',#132,1.) ;
#140=VECTOR('Line Direction',#139,1.) ;
#147=VECTOR('Line Direction',#146,1.) ;
#208=VECTOR('Line Direction',#207,1.) ;
#215=VECTOR('Line Direction',#214,1.) ;
#222=VECTOR('Line Direction',#221,1.) ;
#239=VECTOR('Line Direction',#238,1.) ;
#246=VECTOR('Line Direction',#245,1.) ;
#263=VECTOR('Line Direction',#262,1.) ;
#270=VECTOR('Line Direction',#269,1.) ;
#287=VECTOR('Line Direction',#286,1.) ;
#294=VECTOR('Line Direction',#293,1.) ;
#311=VECTOR('Line Direction',#310,1.) ;
#318=VECTOR('Line Direction',#317,1.) ;
#335=VECTOR('Line Direction',#334,1.) ;
#342=VECTOR('Line Direction',#341,1.) ;
#359=VECTOR('Line Direction',#358,1.) ;
#366=VECTOR('Line Direction',#365,1.) ;
#383=VECTOR('Line Direction',#382,1.) ;
#409=VECTOR('Line Direction',#408,1.) ;
#414=VECTOR('Line Direction',#413,1.) ;
#452=VECTOR('Line Direction',#451,1.) ;
#457=VECTOR('Line Direction',#456,1.) ;
#15=UNCERTAINTY_MEASURE_WITH_UNIT(LENGTH_MEASURE(0.005),#12,'distance_accuracy_value','CONFUSED CURVE UNCERTAINTY') ;
#508=SHAPE_REPRESENTATION_RELATIONSHIP(' ',' ',#19,#507) ;
#66=ORIENTED_EDGE('',*,*,#45,.F.) ;
#67=ORIENTED_EDGE('',*,*,#52,.F.) ;
#68=ORIENTED_EDGE('',*,*,#59,.T.) ;
#69=ORIENTED_EDGE('',*,*,#64,.T.) ;
#83=ORIENTED_EDGE('',*,*,#76,.F.) ;
#84=ORIENTED_EDGE('',*,*,#64,.F.) ;
#85=ORIENTED_EDGE('',*,*,#81,.T.) ;
#86=ORIENTED_EDGE('',*,*,#52,.T.) ;
#151=ORIENTED_EDGE('',*,*,#102,.T.) ;
#152=ORIENTED_EDGE('',*,*,#109,.T.) ;
#153=ORIENTED_EDGE('',*,*,#116,.T.) ;
#154=ORIENTED_EDGE('',*,*,#123,.T.) ;
#155=ORIENTED_EDGE('',*,*,#130,.T.) ;
#156=ORIENTED_EDGE('',*,*,#137,.T.) ;
#157=ORIENTED_EDGE('',*,*,#144,.T.) ;
#158=ORIENTED_EDGE('',*,*,#149,.T.) ;
#175=ORIENTED_EDGE('',*,*,#168,.F.) ;
#176=ORIENTED_EDGE('',*,*,#173,.F.) ;
#193=ORIENTED_EDGE('',*,*,#186,.F.) ;
#194=ORIENTED_EDGE('',*,*,#191,.F.) ;
#197=ORIENTED_EDGE('',*,*,#81,.F.) ;
#198=ORIENTED_EDGE('',*,*,#59,.F.) ;
#226=ORIENTED_EDGE('',*,*,#212,.F.) ;
#227=ORIENTED_EDGE('',*,*,#219,.T.) ;
#228=ORIENTED_EDGE('',*,*,#224,.T.) ;
#229=ORIENTED_EDGE('',*,*,#102,.F.) ;
#250=ORIENTED_EDGE('',*,*,#224,.F.) ;
#251=ORIENTED_EDGE('',*,*,#243,.T.) ;
#252=ORIENTED_EDGE('',*,*,#248,.T.) ;
#253=ORIENTED_EDGE('',*,*,#109,.F.) ;
#274=ORIENTED_EDGE('',*,*,#248,.F.) ;
#275=ORIENTED_EDGE('',*,*,#267,.T.) ;
#276=ORIENTED_EDGE('',*,*,#272,.T.) ;
#277=ORIENTED_EDGE('',*,*,#116,.F.) ;
#298=ORIENTED_EDGE('',*,*,#272,.F.) ;
#299=ORIENTED_EDGE('',*,*,#291,.T.) ;
#300=ORIENTED_EDGE('',*,*,#296,.T.) ;
#301=ORIENTED_EDGE('',*,*,#123,.F.) ;
#322=ORIENTED_EDGE('',*,*,#296,.F.) ;
#323=ORIENTED_EDGE('',*,*,#315,.T.) ;
#324=ORIENTED_EDGE('',*,*,#320,.T.) ;
#325=ORIENTED_EDGE('',*,*,#130,.F.) ;
#346=ORIENTED_EDGE('',*,*,#320,.F.) ;
#347=ORIENTED_EDGE('',*,*,#339,.T.) ;
#348=ORIENTED_EDGE('',*,*,#344,.T.) ;
#349=ORIENTED_EDGE('',*,*,#137,.F.) ;
#370=ORIENTED_EDGE('',*,*,#344,.F.) ;
#371=ORIENTED_EDGE('',*,*,#363,.T.) ;
#372=ORIENTED_EDGE('',*,*,#368,.T.) ;
#373=ORIENTED_EDGE('',*,*,#144,.F.) ;
#387=ORIENTED_EDGE('',*,*,#368,.F.) ;
#388=ORIENTED_EDGE('',*,*,#385,.T.) ;
#389=ORIENTED_EDGE('',*,*,#212,.T.) ;
#390=ORIENTED_EDGE('',*,*,#149,.F.) ;
#418=ORIENTED_EDGE('',*,*,#406,.F.) ;
#419=ORIENTED_EDGE('',*,*,#411,.F.) ;
#420=ORIENTED_EDGE('',*,*,#191,.T.) ;
#421=ORIENTED_EDGE('',*,*,#416,.T.) ;
#430=ORIENTED_EDGE('',*,*,#428,.F.) ;
#431=ORIENTED_EDGE('',*,*,#416,.F.) ;
#432=ORIENTED_EDGE('',*,*,#186,.T.) ;
#433=ORIENTED_EDGE('',*,*,#411,.T.) ;
#461=ORIENTED_EDGE('',*,*,#449,.F.) ;
#462=ORIENTED_EDGE('',*,*,#454,.F.) ;
#463=ORIENTED_EDGE('',*,*,#173,.T.) ;
#464=ORIENTED_EDGE('',*,*,#459,.T.) ;
#473=ORIENTED_EDGE('',*,*,#471,.F.) ;
#474=ORIENTED_EDGE('',*,*,#459,.F.) ;
#475=ORIENTED_EDGE('',*,*,#168,.T.) ;
#476=ORIENTED_EDGE('',*,*,#454,.T.) ;
#485=ORIENTED_EDGE('',*,*,#385,.F.) ;
#486=ORIENTED_EDGE('',*,*,#363,.F.) ;
#487=ORIENTED_EDGE('',*,*,#339,.F.) ;
#488=ORIENTED_EDGE('',*,*,#315,.F.) ;
#489=ORIENTED_EDGE('',*,*,#291,.F.) ;
#490=ORIENTED_EDGE('',*,*,#267,.F.) ;
#491=ORIENTED_EDGE('',*,*,#243,.F.) ;
#492=ORIENTED_EDGE('',*,*,#219,.F.) ;
#495=ORIENTED_EDGE('',*,*,#449,.T.) ;
#496=ORIENTED_EDGE('',*,*,#471,.T.) ;
#499=ORIENTED_EDGE('',*,*,#406,.T.) ;
#500=ORIENTED_EDGE('',*,*,#428,.T.) ;
#503=ORIENTED_EDGE('',*,*,#45,.T.) ;
#504=ORIENTED_EDGE('',*,*,#76,.T.) ;
#177=FACE_BOUND('',#174,.T.) ;
#195=FACE_BOUND('',#192,.T.) ;
#199=FACE_BOUND('',#196,.T.) ;
#497=FACE_BOUND('',#494,.T.) ;
#501=FACE_BOUND('',#498,.T.) ;
#505=FACE_BOUND('',#502,.T.) ;
#31=CLOSED_SHELL('Closed Shell',(#71,#88,#200,#231,#255,#279,#303,#327,#351,#375,#392,#423,#435,#466,#478,#506)) ;
#507=ADVANCED_BREP_SHAPE_REPRESENTATION('NONE',(#21),#16) ;
#71=ADVANCED_FACE('Hauptk\X2\00F6\X0\rper',(#70),#36,.F.) ;
#88=ADVANCED_FACE('Hauptk\X2\00F6\X0\rper',(#87),#36,.F.) ;
#200=ADVANCED_FACE('Hauptk\X2\00F6\X0\rper',(#159,#177,#195,#199),#93,.T.) ;
#231=ADVANCED_FACE('Hauptk\X2\00F6\X0\rper',(#230),#205,.T.) ;
#255=ADVANCED_FACE('Hauptk\X2\00F6\X0\rper',(#254),#236,.T.) ;
#279=ADVANCED_FACE('Hauptk\X2\00F6\X0\rper',(#278),#260,.T.) ;
#303=ADVANCED_FACE('Hauptk\X2\00F6\X0\rper',(#302),#284,.F.) ;
#327=ADVANCED_FACE('Hauptk\X2\00F6\X0\rper',(#326),#308,.T.) ;
#351=ADVANCED_FACE('Hauptk\X2\00F6\X0\rper',(#350),#332,.T.) ;
#375=ADVANCED_FACE('Hauptk\X2\00F6\X0\rper',(#374),#356,.T.) ;
#392=ADVANCED_FACE('Hauptk\X2\00F6\X0\rper',(#391),#380,.F.) ;
#423=ADVANCED_FACE('Hauptk\X2\00F6\X0\rper',(#422),#397,.F.) ;
#435=ADVANCED_FACE('Hauptk\X2\00F6\X0\rper',(#434),#397,.F.) ;
#466=ADVANCED_FACE('Hauptk\X2\00F6\X0\rper',(#465),#440,.F.) ;
#478=ADVANCED_FACE('Hauptk\X2\00F6\X0\rper',(#477),#440,.F.) ;
#506=ADVANCED_FACE('Hauptk\X2\00F6\X0\rper',(#493,#497,#501,#505),#483,.F.) ;
#4=APPLICATION_PROTOCOL_DEFINITION('international standard','automotive_design',2001,#1) ;
#21=MANIFOLD_SOLID_BREP('Hauptk\X2\00F6\X0\rper',#31) ;
#40=CIRCLE('generated circle',#39,5.5) ;
#56=CIRCLE('generated circle',#55,5.5) ;
#75=CIRCLE('generated circle',#74,5.5) ;
#80=CIRCLE('generated circle',#79,5.5) ;
#163=CIRCLE('generated circle',#162,5.5) ;
#172=CIRCLE('generated circle',#171,5.5) ;
#181=CIRCLE('generated circle',#180,5.5) ;
#190=CIRCLE('generated circle',#189,5.5) ;
#401=CIRCLE('generated circle',#400,5.5) ;
#427=CIRCLE('generated circle',#426,5.5) ;
#444=CIRCLE('generated circle',#443,5.5) ;
#470=CIRCLE('generated circle',#469,5.5) ;
#22=COLOUR_RGB('Colour',0.690196078431,0.690196078431,0.690196078431) ;
#36=CYLINDRICAL_SURFACE('generated cylinder',#35,5.5) ;
#397=CYLINDRICAL_SURFACE('generated cylinder',#396,5.5) ;
#440=CYLINDRICAL_SURFACE('generated cylinder',#439,5.5) ;
#45=EDGE_CURVE('',#42,#44,#40,.T.) ;
#52=EDGE_CURVE('',#51,#42,#49,.F.) ;
#59=EDGE_CURVE('',#51,#58,#56,.T.) ;
#64=EDGE_CURVE('',#58,#44,#63,.F.) ;
#76=EDGE_CURVE('',#44,#42,#75,.T.) ;
#81=EDGE_CURVE('',#58,#51,#80,.T.) ;
#102=EDGE_CURVE('',#99,#101,#97,.T.) ;
#109=EDGE_CURVE('',#101,#108,#106,.T.) ;
#116=EDGE_CURVE('',#108,#115,#113,.T.) ;
#123=EDGE_CURVE('',#115,#122,#120,.F.) ;
#130=EDGE_CURVE('',#122,#129,#127,.T.) ;
#137=EDGE_CURVE('',#129,#136,#134,.T.) ;
#144=EDGE_CURVE('',#136,#143,#141,.T.) ;
#149=EDGE_CURVE('',#143,#99,#148,.F.) ;
#168=EDGE_CURVE('',#165,#167,#163,.T.) ;
#173=EDGE_CURVE('',#167,#165,#172,.T.) ;
#186=EDGE_CURVE('',#183,#185,#181,.T.) ;
#191=EDGE_CURVE('',#185,#183,#190,.T.) ;
#212=EDGE_CURVE('',#211,#99,#209,.T.) ;
#219=EDGE_CURVE('',#211,#218,#216,.T.) ;
#224=EDGE_CURVE('',#218,#101,#223,.T.) ;
#243=EDGE_CURVE('',#218,#242,#240,.T.) ;
#248=EDGE_CURVE('',#242,#108,#247,.T.) ;
#267=EDGE_CURVE('',#242,#266,#264,.T.) ;
#272=EDGE_CURVE('',#266,#115,#271,.T.) ;
#291=EDGE_CURVE('',#266,#290,#288,.F.) ;
#296=EDGE_CURVE('',#290,#122,#295,.T.) ;
#315=EDGE_CURVE('',#290,#314,#312,.T.) ;
#320=EDGE_CURVE('',#314,#129,#319,.T.) ;
#339=EDGE_CURVE('',#314,#338,#336,.T.) ;
#344=EDGE_CURVE('',#338,#136,#343,.T.) ;
#363=EDGE_CURVE('',#338,#362,#360,.T.) ;
#368=EDGE_CURVE('',#362,#143,#367,.T.) ;
#385=EDGE_CURVE('',#362,#211,#384,.F.) ;
#406=EDGE_CURVE('',#403,#405,#401,.T.) ;
#411=EDGE_CURVE('',#185,#403,#410,.F.) ;
#416=EDGE_CURVE('',#183,#405,#415,.F.) ;
#428=EDGE_CURVE('',#405,#403,#427,.T.) ;
#449=EDGE_CURVE('',#446,#448,#444,.T.) ;
#454=EDGE_CURVE('',#167,#446,#453,.F.) ;
#459=EDGE_CURVE('',#165,#448,#458,.F.) ;
#471=EDGE_CURVE('',#448,#446,#470,.T.) ;
#65=EDGE_LOOP('',(#66,#67,#68,#69)) ;
#82=EDGE_LOOP('',(#83,#84,#85,#86)) ;
#150=EDGE_LOOP('',(#151,#152,#153,#154,#155,#156,#157,#158)) ;
#174=EDGE_LOOP('',(#175,#176)) ;
#192=EDGE_LOOP('',(#193,#194)) ;
#196=EDGE_LOOP('',(#197,#198)) ;
#225=EDGE_LOOP('',(#226,#227,#228,#229)) ;
#249=EDGE_LOOP('',(#250,#251,#252,#253)) ;
#273=EDGE_LOOP('',(#274,#275,#276,#277)) ;
#297=EDGE_LOOP('',(#298,#299,#300,#301)) ;
#321=EDGE_LOOP('',(#322,#323,#324,#325)) ;
#345=EDGE_LOOP('',(#346,#347,#348,#349)) ;
#369=EDGE_LOOP('',(#370,#371,#372,#373)) ;
#386=EDGE_LOOP('',(#387,#388,#389,#390)) ;
#417=EDGE_LOOP('',(#418,#419,#420,#421)) ;
#429=EDGE_LOOP('',(#430,#431,#432,#433)) ;
#460=EDGE_LOOP('',(#461,#462,#463,#464)) ;
#472=EDGE_LOOP('',(#473,#474,#475,#476)) ;
#484=EDGE_LOOP('',(#485,#486,#487,#488,#489,#490,#491,#492)) ;
#494=EDGE_LOOP('',(#495,#496)) ;
#498=EDGE_LOOP('',(#499,#500)) ;
#502=EDGE_LOOP('',(#503,#504)) ;
#70=FACE_OUTER_BOUND('',#65,.T.) ;
#87=FACE_OUTER_BOUND('',#82,.T.) ;
#159=FACE_OUTER_BOUND('',#150,.T.) ;
#230=FACE_OUTER_BOUND('',#225,.T.) ;
#254=FACE_OUTER_BOUND('',#249,.T.) ;
#278=FACE_OUTER_BOUND('',#273,.T.) ;
#302=FACE_OUTER_BOUND('',#297,.T.) ;
#326=FACE_OUTER_BOUND('',#321,.T.) ;
#350=FACE_OUTER_BOUND('',#345,.T.) ;
#374=FACE_OUTER_BOUND('',#369,.T.) ;
#391=FACE_OUTER_BOUND('',#386,.T.) ;
#422=FACE_OUTER_BOUND('',#417,.T.) ;
#434=FACE_OUTER_BOUND('',#429,.T.) ;
#465=FACE_OUTER_BOUND('',#460,.T.) ;
#477=FACE_OUTER_BOUND('',#472,.T.) ;
#493=FACE_OUTER_BOUND('',#484,.T.) ;
#49=LINE('Line',#46,#48) ;
#63=LINE('Line',#60,#62) ;
#97=LINE('Line',#94,#96) ;
#106=LINE('Line',#103,#105) ;
#113=LINE('Line',#110,#112) ;
#120=LINE('Line',#117,#119) ;
#127=LINE('Line',#124,#126) ;
#134=LINE('Line',#131,#133) ;
#141=LINE('Line',#138,#140) ;
#148=LINE('Line',#145,#147) ;
#209=LINE('Line',#206,#208) ;
#216=LINE('Line',#213,#215) ;
#223=LINE('Line',#220,#222) ;
#240=LINE('Line',#237,#239) ;
#247=LINE('Line',#244,#246) ;
#264=LINE('Line',#261,#263) ;
#271=LINE('Line',#268,#270) ;
#288=LINE('Line',#285,#287) ;
#295=LINE('Line',#292,#294) ;
#312=LINE('Line',#309,#311) ;
#319=LINE('Line',#316,#318) ;
#336=LINE('Line',#333,#335) ;
#343=LINE('Line',#340,#342) ;
#360=LINE('Line',#357,#359) ;
#367=LINE('Line',#364,#366) ;
#384=LINE('Line',#381,#383) ;
#410=LINE('Line',#407,#409) ;
#415=LINE('Line',#412,#414) ;
#453=LINE('Line',#450,#452) ;
#458=LINE('Line',#455,#457) ;
#93=PLANE('',#92) ;
#205=PLANE('',#204) ;
#236=PLANE('',#235) ;
#260=PLANE('',#259) ;
#284=PLANE('',#283) ;
#308=PLANE('',#307) ;
#332=PLANE('',#331) ;
#356=PLANE('',#355) ;
#380=PLANE('',#379) ;
#483=PLANE('',#482) ;
#9=PRODUCT_CATEGORY_RELATIONSHIP(' ',' ',#7,#8) ;
#6=PRODUCT_DEFINITION_FORMATION_WITH_SPECIFIED_SOURCE('',' ',#5,.NOT_KNOWN.) ;
#20=SHAPE_DEFINITION_REPRESENTATION(#11,#19) ;
#42=VERTEX_POINT('',#41) ;
#44=VERTEX_POINT('',#43) ;
#51=VERTEX_POINT('',#50) ;
#58=VERTEX_POINT('',#57) ;
#99=VERTEX_POINT('',#98) ;
#101=VERTEX_POINT('',#100) ;
#108=VERTEX_POINT('',#107) ;
#115=VERTEX_POINT('',#114) ;
#122=VERTEX_POINT('',#121) ;
#129=VERTEX_POINT('',#128) ;
#136=VERTEX_POINT('',#135) ;
#143=VERTEX_POINT('',#142) ;
#165=VERTEX_POINT('',#164) ;
#167=VERTEX_POINT('',#166) ;
#183=VERTEX_POINT('',#182) ;
#185=VERTEX_POINT('',#184) ;
#211=VERTEX_POINT('',#210) ;
#218=VERTEX_POINT('',#217) ;
#242=VERTEX_POINT('',#241) ;
#266=VERTEX_POINT('',#265) ;
#290=VERTEX_POINT('',#289) ;
#314=VERTEX_POINT('',#313) ;
#338=VERTEX_POINT('',#337) ;
#362=VERTEX_POINT('',#361) ;
#403=VERTEX_POINT('',#402) ;
#405=VERTEX_POINT('',#404) ;
#446=VERTEX_POINT('',#445) ;
#448=VERTEX_POINT('',#447) ;
#12=(LENGTH_UNIT()NAMED_UNIT(*)SI_UNIT(.MILLI.,.METRE.)) ;
#13=(NAMED_UNIT(*)PLANE_ANGLE_UNIT()SI_UNIT($,.RADIAN.)) ;
#14=(NAMED_UNIT(*)SI_UNIT($,.STERADIAN.)SOLID_ANGLE_UNIT()) ;
#16=(GEOMETRIC_REPRESENTATION_CONTEXT(3)GLOBAL_UNCERTAINTY_ASSIGNED_CONTEXT((#15))GLOBAL_UNIT_ASSIGNED_CONTEXT((#12,#13,#14))REPRESENTATION_CONTEXT(' ',' ')) ;
ENDSEC;
END-ISO-10303-21;
