ISO-10303-21;
HEADER;
FILE_DESCRIPTION(('CATIA V5R19 STEP'),'2;1');

FILE_NAME ('D1454441_0', '2015-11-24T13:08:01+00:00', ('Weidmueller Interface'), ('Weidmueller'), 'CATIA Version 5 Release 20 SP 5 (IN-10)', 'CATIA V5 STEP AP214', 'none');

FILE_SCHEMA(('AUTOMOTIVE_DESIGN { 1 0 10303 214 1 1 1 1 }'));

ENDSEC;
/* file written by CATIA V5R20 */
DATA;
#5=PRODUCT('LM MT 210/297','','ETIKETT\X2\000D\X0\\X2\000A\X0\<Q-CHECKER_SEAL> Q-Checker Version 2.14.8  \X2\000D\X0\\X2\000A\X0\CATIA-Version         : Catia V5 R20 SP5 Build Date 01-06-2014.17.15\X2\000D\X0\\X2\000A\X0\Model size (in KByte) : 0\X2\000D\X0\\X2\000A\X0\Checking date         : 2015-11-19 08:03:37\X2\000D\X0\\X2\000A\X0\Checking profile      : ADMIN / Release_CATDrawings [CATPart]\X2\000D\X0\\X2\000A\X0\Model assessment      : In Ordnung (IO)\X2\000D\X0\\X2\000A\X0\Total weight sum      : 0\X2\000D\X0\\X2\000A\X0\<CROSS_CHECK_SUM>\X2\000D\X0\\X2\000A\X0\  <CHKSUM_DATE> 1928063079 </CHKSUM_DATE>\X2\000D\X0\\X2\000A\X0\  <CHKSUM_ENTITIES> -908986611 </CHKSUM_ENTITIES>\X2\000D\X0\\X2\000A\X0\  <CHKSUM_PROFILE> 1832121173 </CHKSUM_PROFILE>\X2\000D\X0\\X2\000A\X0\  <CHKSUM_DIMENSION> -186917087 </CHKSUM_DIMENSION>\X2\000D\X0\\X2\000A\X0\  <CHKSUM_PROJINTERSEC> -896974048 </CHKSUM_PROJINTERSEC>\X2\000D\X0\\X2\000A\X0\  <CHKSUM_IDENTCRV> -896974048 </CHKSUM_IDENTCRV>\X2\000D\X0\\X2\000A\X0\  <CHKSUM_INFINITY> 138018827 </CHKSUM_INFINITY>\X2\000D\X0\\X2\000A\X0\</CROSS_CHECK_SUM>\X2\000D\X0\\X2\000A\X0\</Q-CHECKER_SEAL> \X2\000D\X0\\X2\000A\X0\ \X2\000D\X0\\X2\000A\X0\ \X2\000D\X0\\X2\000A\X0\',(#2)) ;
#2=PRODUCT_CONTEXT(' ',#1,'mechanical') ;
#1=APPLICATION_CONTEXT('automotive design') ;
#10=PRODUCT_DEFINITION('',' ',#6,#3) ;
#3=PRODUCT_DEFINITION_CONTEXT('part definition',#1,' ') ;
#11=PRODUCT_DEFINITION_SHAPE(' ',' ',#10) ;
#183=MECHANICAL_DESIGN_GEOMETRIC_PRESENTATION_REPRESENTATION(' ',(#30),#17) ;
#20=SHAPE_REPRESENTATION(' ',(#19),#17) ;
#19=AXIS2_PLACEMENT_3D(' ',#18,$,$) ;
#36=AXIS2_PLACEMENT_3D('Plane Axis2P3D',#33,#34,#35) ;
#76=AXIS2_PLACEMENT_3D('Plane Axis2P3D',#73,#74,#75) ;
#107=AXIS2_PLACEMENT_3D('Plane Axis2P3D',#104,#105,#106) ;
#138=AXIS2_PLACEMENT_3D('Plane Axis2P3D',#135,#136,#137) ;
#160=AXIS2_PLACEMENT_3D('Plane Axis2P3D',#157,#158,#159) ;
#172=AXIS2_PLACEMENT_3D('Plane Axis2P3D',#169,#170,#171) ;
#18=CARTESIAN_POINT(' ',(0.,0.,0.)) ;
#33=CARTESIAN_POINT('Axis2P3D Location',(297.,-1.42108547152E-014,6.42939569552E-015)) ;
#38=CARTESIAN_POINT('Line Origine',(297.,-1.42093239067E-014,0.025)) ;
#42=CARTESIAN_POINT('Vertex',(297.,-1.42108547152E-014,6.42939569552E-015)) ;
#44=CARTESIAN_POINT('Vertex',(297.,-1.42108547152E-014,0.05)) ;
#47=CARTESIAN_POINT('Line Origine',(297.,105.,-1.57772181044E-030)) ;
#51=CARTESIAN_POINT('Vertex',(297.,210.,-6.42939569552E-015)) ;
#54=CARTESIAN_POINT('Line Origine',(297.,210.,0.025)) ;
#58=CARTESIAN_POINT('Vertex',(297.,210.,0.05)) ;
#61=CARTESIAN_POINT('Line Origine',(297.,105.,0.05)) ;
#73=CARTESIAN_POINT('Axis2P3D Location',(0.,210.,-6.42939569552E-015)) ;
#78=CARTESIAN_POINT('Line Origine',(148.5,210.,-6.42939569552E-015)) ;
#82=CARTESIAN_POINT('Vertex',(0.,210.,-6.42939569552E-015)) ;
#85=CARTESIAN_POINT('Line Origine',(0.,210.,0.025)) ;
#89=CARTESIAN_POINT('Vertex',(0.,210.,0.05)) ;
#92=CARTESIAN_POINT('Line Origine',(148.5,210.,0.05)) ;
#104=CARTESIAN_POINT('Axis2P3D Location',(0.,210.,-6.42939569552E-015)) ;
#109=CARTESIAN_POINT('Line Origine',(0.,105.,1.57772181044E-030)) ;
#113=CARTESIAN_POINT('Vertex',(0.,-1.42108547152E-014,6.42939569552E-015)) ;
#116=CARTESIAN_POINT('Line Origine',(0.,-2.84201786219E-014,0.025)) ;
#120=CARTESIAN_POINT('Vertex',(0.,-1.42108547152E-014,0.05)) ;
#123=CARTESIAN_POINT('Line Origine',(0.,105.,0.05)) ;
#135=CARTESIAN_POINT('Axis2P3D Location',(297.,0.,6.42939569552E-015)) ;
#140=CARTESIAN_POINT('Line Origine',(148.5,0.,6.42939569552E-015)) ;
#145=CARTESIAN_POINT('Line Origine',(148.5,3.06161699787E-018,0.05)) ;
#157=CARTESIAN_POINT('Axis2P3D Location',(148.5,105.,0.)) ;
#169=CARTESIAN_POINT('Axis2P3D Location',(148.5,105.,0.05)) ;
#34=DIRECTION('Axis2P3D Direction',(1.,-0.,0.)) ;
#35=DIRECTION('Axis2P3D XDirection',(0.,1.,-6.12323399574E-017)) ;
#39=DIRECTION('Vector Direction',(0.,6.12323399574E-017,1.)) ;
#48=DIRECTION('Vector Direction',(0.,1.,-6.12323399574E-017)) ;
#55=DIRECTION('Vector Direction',(0.,0.,1.)) ;
#62=DIRECTION('Vector Direction',(0.,1.,-6.12605204659E-017)) ;
#74=DIRECTION('Axis2P3D Direction',(0.,-1.,6.12323399574E-017)) ;
#75=DIRECTION('Axis2P3D XDirection',(1.,0.,0.)) ;
#79=DIRECTION('Vector Direction',(1.,0.,0.)) ;
#86=DIRECTION('Vector Direction',(0.,0.,1.)) ;
#93=DIRECTION('Vector Direction',(1.,0.,0.)) ;
#105=DIRECTION('Axis2P3D Direction',(-1.,0.,0.)) ;
#106=DIRECTION('Axis2P3D XDirection',(0.,-1.,6.12323399574E-017)) ;
#110=DIRECTION('Vector Direction',(0.,-1.,6.12323399574E-017)) ;
#117=DIRECTION('Vector Direction',(0.,6.12323399574E-017,1.)) ;
#124=DIRECTION('Vector Direction',(0.,-1.,6.12605204659E-017)) ;
#136=DIRECTION('Axis2P3D Direction',(0.,1.,-6.12323399574E-017)) ;
#137=DIRECTION('Axis2P3D XDirection',(-1.,0.,0.)) ;
#141=DIRECTION('Vector Direction',(-1.,0.,0.)) ;
#146=DIRECTION('Vector Direction',(-1.,0.,0.)) ;
#158=DIRECTION('Axis2P3D Direction',(0.,6.12323399574E-017,1.)) ;
#159=DIRECTION('Axis2P3D XDirection',(-1.,0.,0.)) ;
#170=DIRECTION('Axis2P3D Direction',(0.,6.12323399574E-017,1.)) ;
#171=DIRECTION('Axis2P3D XDirection',(-1.,0.,0.)) ;
#31=PRESENTATION_LAYER_ASSIGNMENT('1',' ',(#22)) ;
#8=PRODUCT_RELATED_PRODUCT_CATEGORY('part',$,(#5)) ;
#7=PRODUCT_CATEGORY('part','specification') ;
#30=STYLED_ITEM(' ',(#29),#22) ;
#29=PRESENTATION_STYLE_ASSIGNMENT((#28)) ;
#28=SURFACE_STYLE_USAGE(.BOTH.,#27) ;
#27=SURFACE_SIDE_STYLE(' ',(#26)) ;
#26=SURFACE_STYLE_FILL_AREA(#25) ;
#25=FILL_AREA_STYLE(' ',(#24)) ;
#24=FILL_AREA_STYLE_COLOUR(' ',#23) ;
#40=VECTOR('Line Direction',#39,1.) ;
#49=VECTOR('Line Direction',#48,1.) ;
#56=VECTOR('Line Direction',#55,1.) ;
#63=VECTOR('Line Direction',#62,1.) ;
#80=VECTOR('Line Direction',#79,1.) ;
#87=VECTOR('Line Direction',#86,1.) ;
#94=VECTOR('Line Direction',#93,1.) ;
#111=VECTOR('Line Direction',#110,1.) ;
#118=VECTOR('Line Direction',#117,1.) ;
#125=VECTOR('Line Direction',#124,1.) ;
#142=VECTOR('Line Direction',#141,1.) ;
#147=VECTOR('Line Direction',#146,1.) ;
#16=UNCERTAINTY_MEASURE_WITH_UNIT(LENGTH_MEASURE(0.005),#12,'distance_accuracy_value','CONFUSED CURVE UNCERTAINTY') ;
#182=SHAPE_REPRESENTATION_RELATIONSHIP(' ',' ',#20,#181) ;
#67=ORIENTED_EDGE('',*,*,#46,.F.) ;
#68=ORIENTED_EDGE('',*,*,#53,.T.) ;
#69=ORIENTED_EDGE('',*,*,#60,.T.) ;
#70=ORIENTED_EDGE('',*,*,#65,.F.) ;
#98=ORIENTED_EDGE('',*,*,#60,.F.) ;
#99=ORIENTED_EDGE('',*,*,#84,.T.) ;
#100=ORIENTED_EDGE('',*,*,#91,.T.) ;
#101=ORIENTED_EDGE('',*,*,#96,.F.) ;
#129=ORIENTED_EDGE('',*,*,#91,.F.) ;
#130=ORIENTED_EDGE('',*,*,#115,.T.) ;
#131=ORIENTED_EDGE('',*,*,#122,.T.) ;
#132=ORIENTED_EDGE('',*,*,#127,.F.) ;
#151=ORIENTED_EDGE('',*,*,#122,.F.) ;
#152=ORIENTED_EDGE('',*,*,#144,.T.) ;
#153=ORIENTED_EDGE('',*,*,#46,.T.) ;
#154=ORIENTED_EDGE('',*,*,#149,.F.) ;
#163=ORIENTED_EDGE('',*,*,#144,.F.) ;
#164=ORIENTED_EDGE('',*,*,#115,.F.) ;
#165=ORIENTED_EDGE('',*,*,#84,.F.) ;
#166=ORIENTED_EDGE('',*,*,#53,.F.) ;
#175=ORIENTED_EDGE('',*,*,#65,.T.) ;
#176=ORIENTED_EDGE('',*,*,#96,.T.) ;
#177=ORIENTED_EDGE('',*,*,#127,.T.) ;
#178=ORIENTED_EDGE('',*,*,#149,.T.) ;
#32=CLOSED_SHELL('Closed Shell',(#72,#103,#134,#156,#168,#180)) ;
#181=ADVANCED_BREP_SHAPE_REPRESENTATION('NONE',(#22),#17) ;
#72=ADVANCED_FACE('S3D gedreht',(#71),#37,.T.) ;
#103=ADVANCED_FACE('S3D gedreht',(#102),#77,.F.) ;
#134=ADVANCED_FACE('S3D gedreht',(#133),#108,.T.) ;
#156=ADVANCED_FACE('S3D gedreht',(#155),#139,.F.) ;
#168=ADVANCED_FACE('S3D gedreht',(#167),#161,.F.) ;
#180=ADVANCED_FACE('S3D gedreht',(#179),#173,.T.) ;
#4=APPLICATION_PROTOCOL_DEFINITION('international standard','automotive_design',2001,#1) ;
#22=MANIFOLD_SOLID_BREP('S3D gedreht',#32) ;
#23=COLOUR_RGB('Colour',0.647058823529,0.647058823529,0.647058823529) ;
#46=EDGE_CURVE('',#43,#45,#41,.T.) ;
#53=EDGE_CURVE('',#43,#52,#50,.T.) ;
#60=EDGE_CURVE('',#52,#59,#57,.T.) ;
#65=EDGE_CURVE('',#45,#59,#64,.T.) ;
#84=EDGE_CURVE('',#52,#83,#81,.F.) ;
#91=EDGE_CURVE('',#83,#90,#88,.T.) ;
#96=EDGE_CURVE('',#59,#90,#95,.F.) ;
#115=EDGE_CURVE('',#83,#114,#112,.T.) ;
#122=EDGE_CURVE('',#114,#121,#119,.T.) ;
#127=EDGE_CURVE('',#90,#121,#126,.T.) ;
#144=EDGE_CURVE('',#114,#43,#143,.F.) ;
#149=EDGE_CURVE('',#121,#45,#148,.F.) ;
#66=EDGE_LOOP('',(#67,#68,#69,#70)) ;
#97=EDGE_LOOP('',(#98,#99,#100,#101)) ;
#128=EDGE_LOOP('',(#129,#130,#131,#132)) ;
#150=EDGE_LOOP('',(#151,#152,#153,#154)) ;
#162=EDGE_LOOP('',(#163,#164,#165,#166)) ;
#174=EDGE_LOOP('',(#175,#176,#177,#178)) ;
#71=FACE_OUTER_BOUND('',#66,.T.) ;
#102=FACE_OUTER_BOUND('',#97,.T.) ;
#133=FACE_OUTER_BOUND('',#128,.T.) ;
#155=FACE_OUTER_BOUND('',#150,.T.) ;
#167=FACE_OUTER_BOUND('',#162,.T.) ;
#179=FACE_OUTER_BOUND('',#174,.T.) ;
#41=LINE('Line',#38,#40) ;
#50=LINE('Line',#47,#49) ;
#57=LINE('Line',#54,#56) ;
#64=LINE('Line',#61,#63) ;
#81=LINE('Line',#78,#80) ;
#88=LINE('Line',#85,#87) ;
#95=LINE('Line',#92,#94) ;
#112=LINE('Line',#109,#111) ;
#119=LINE('Line',#116,#118) ;
#126=LINE('Line',#123,#125) ;
#143=LINE('Line',#140,#142) ;
#148=LINE('Line',#145,#147) ;
#37=PLANE('',#36) ;
#77=PLANE('',#76) ;
#108=PLANE('',#107) ;
#139=PLANE('',#138) ;
#161=PLANE('',#160) ;
#173=PLANE('',#172) ;
#14=PLANE_ANGLE_MEASURE_WITH_UNIT(PLANE_ANGLE_MEASURE(0.0174532925199),#13) ;
#9=PRODUCT_CATEGORY_RELATIONSHIP(' ',' ',#7,#8) ;
#6=PRODUCT_DEFINITION_FORMATION_WITH_SPECIFIED_SOURCE('',' ',#5,.BOUGHT.) ;
#21=SHAPE_DEFINITION_REPRESENTATION(#11,#20) ;
#43=VERTEX_POINT('',#42) ;
#45=VERTEX_POINT('',#44) ;
#52=VERTEX_POINT('',#51) ;
#59=VERTEX_POINT('',#58) ;
#83=VERTEX_POINT('',#82) ;
#90=VERTEX_POINT('',#89) ;
#114=VERTEX_POINT('',#113) ;
#121=VERTEX_POINT('',#120) ;
#12=(LENGTH_UNIT()NAMED_UNIT(*)SI_UNIT(.MILLI.,.METRE.)) ;
#13=(NAMED_UNIT(*)PLANE_ANGLE_UNIT()SI_UNIT($,.RADIAN.)) ;
#15=(NAMED_UNIT(*)SI_UNIT($,.STERADIAN.)SOLID_ANGLE_UNIT()) ;
#17=(GEOMETRIC_REPRESENTATION_CONTEXT(3)GLOBAL_UNCERTAINTY_ASSIGNED_CONTEXT((#16))GLOBAL_UNIT_ASSIGNED_CONTEXT((#12,#13,#15))REPRESENTATION_CONTEXT(' ',' ')) ;
ENDSEC;
END-ISO-10303-21;
