ISO-10303-21;
HEADER;
FILE_DESCRIPTION(('CATIA V5R24 STEP','CAx-IF Rec.Pracs.--- Model Styling and Organization---1.2---2011-12-15'),'2;1');

FILE_NAME ('D1456585_0_1806540000_1806540000.stp','2018-05-22T11:17:47+00:00',('none'),('Weidmueller'),'CATIA Version 5-6 Release 2014 SP4 HF52','CATIA V5 STEP AP214','none');

FILE_SCHEMA(('AUTOMOTIVE_DESIGN { 1 0 10303 214 1 1 1 1 }'));

ENDSEC;
DATA;
#5=PRODUCT('1806540000_SKMU_M12x1_5_SW18','','Sechskantmutter\X2\000A\X0\<Q-CHECKER_SEAL> Q-Checker Version 2.6.2  \X2\000A\X0\CATIA-Version         : Catia V5 R18 SP6 Build Date 07-18-2008.22.00\X2\000A\X0\Model size (in KByte) : 0\X2\000A\X0\Checking date         : 2009-04-07 08:56:45\X2\000A\X0\Checking profile      : ADMIN / Release_CATDrawings [CATPart]\X2\000A\X0\Model assessment      : Fehlerhaft\X2\000A\X0\Total weight sum      : 9\X2\000A\X0\<CROSS_CHECK_SUM>\X2\000A\X0\  <CHKSUM_DATE> -1523431806 </CHKSUM_DATE>\X2\000A\X0\  <CHKSUM_ENTITIES> 1992809215 </CHKSUM_ENTITIES>\X2\000A\X0\  <CHKSUM_PROFILE> 1875091983 </CHKSUM_PROFILE>\X2\000A\X0\  <CHKSUM_DIMENSION> -186917087 </CHKSUM_DIMENSION>\X2\000A\X0\  <CHKSUM_PROJINTERSEC> -896974048 </CHKSUM_PROJINTERSEC>\X2\000A\X0\  <CHKSUM_IDENTCRV> -896974048 </CHKSUM_IDENTCRV>\X2\000A\X0\  <CHKSUM_INFINITY> 138018827 </CHKSUM_INFINITY>\X2\000A\X0\</CROSS_CHECK_SUM>\X2\000A\X0\</Q-CHECKER_SEAL> \X2\000A\X0\ \X2\000A\X0\ \X2\000A\X0\',(#2)) ;
#2=PRODUCT_CONTEXT(' ',#1,'mechanical') ;
#1=APPLICATION_CONTEXT('automotive design') ;
#10=PRODUCT_DEFINITION('',' ',#6,#3) ;
#3=PRODUCT_DEFINITION_CONTEXT('part definition',#1,' ') ;
#11=PRODUCT_DEFINITION_SHAPE(' ',' ',#10) ;
#547=MECHANICAL_DESIGN_GEOMETRIC_PRESENTATION_REPRESENTATION(' ',(#29),#16) ;
#19=SHAPE_REPRESENTATION(' ',(#18),#16) ;
#18=AXIS2_PLACEMENT_3D(' ',#17,$,$) ;
#35=AXIS2_PLACEMENT_3D('Cylinder Axis2P3D',#32,#33,#34) ;
#48=AXIS2_PLACEMENT_3D('Circle Axis2P3D',#46,#47,$) ;
#62=AXIS2_PLACEMENT_3D('Circle Axis2P3D',#60,#61,$) ;
#75=AXIS2_PLACEMENT_3D('Plane Axis2P3D',#72,#73,#74) ;
#79=AXIS2_PLACEMENT_3D('Circle Axis2P3D',#77,#78,$) ;
#95=AXIS2_PLACEMENT_3D('Circle Axis2P3D',#93,#94,$) ;
#109=AXIS2_PLACEMENT_3D('Circle Axis2P3D',#107,#108,$) ;
#116=AXIS2_PLACEMENT_3D('Circle Axis2P3D',#114,#115,$) ;
#130=AXIS2_PLACEMENT_3D('Circle Axis2P3D',#128,#129,$) ;
#144=AXIS2_PLACEMENT_3D('Circle Axis2P3D',#142,#143,$) ;
#158=AXIS2_PLACEMENT_3D('Circle Axis2P3D',#156,#157,$) ;
#165=AXIS2_PLACEMENT_3D('Circle Axis2P3D',#163,#164,$) ;
#193=AXIS2_PLACEMENT_3D('Circle Axis2P3D',#191,#192,$) ;
#203=AXIS2_PLACEMENT_3D('Circle Axis2P3D',#201,#202,$) ;
#216=AXIS2_PLACEMENT_3D('Cylinder Axis2P3D',#213,#214,#215) ;
#227=AXIS2_PLACEMENT_3D('Circle Axis2P3D',#225,#226,$) ;
#246=AXIS2_PLACEMENT_3D('Circle Axis2P3D',#244,#245,$) ;
#265=AXIS2_PLACEMENT_3D('Circle Axis2P3D',#263,#264,$) ;
#284=AXIS2_PLACEMENT_3D('Circle Axis2P3D',#282,#283,$) ;
#316=AXIS2_PLACEMENT_3D('Plane Axis2P3D',#313,#314,#315) ;
#333=AXIS2_PLACEMENT_3D('Plane Axis2P3D',#330,#331,#332) ;
#356=AXIS2_PLACEMENT_3D('Circle Axis2P3D',#354,#355,$) ;
#375=AXIS2_PLACEMENT_3D('Circle Axis2P3D',#373,#374,$) ;
#387=AXIS2_PLACEMENT_3D('Circle Axis2P3D',#385,#386,$) ;
#399=AXIS2_PLACEMENT_3D('Circle Axis2P3D',#397,#398,$) ;
#431=AXIS2_PLACEMENT_3D('Plane Axis2P3D',#428,#429,#430) ;
#448=AXIS2_PLACEMENT_3D('Plane Axis2P3D',#445,#446,#447) ;
#465=AXIS2_PLACEMENT_3D('Plane Axis2P3D',#462,#463,#464) ;
#482=AXIS2_PLACEMENT_3D('Plane Axis2P3D',#479,#480,#481) ;
#499=AXIS2_PLACEMENT_3D('Plane Axis2P3D',#496,#497,#498) ;
#534=AXIS2_PLACEMENT_3D('Plane Axis2P3D',#531,#532,#533) ;
#17=CARTESIAN_POINT(' ',(0.,0.,0.)) ;
#32=CARTESIAN_POINT('Axis2P3D Location',(9.94,9.94,4.9)) ;
#37=CARTESIAN_POINT('Line Origine',(5.38534650379,12.4282185454,2.49999995157)) ;
#41=CARTESIAN_POINT('Vertex',(5.38534650379,12.4282185454,0.)) ;
#43=CARTESIAN_POINT('Vertex',(5.38534650379,12.4282185454,5.)) ;
#46=CARTESIAN_POINT('Axis2P3D Location',(9.94,9.94,0.)) ;
#50=CARTESIAN_POINT('Vertex',(14.4946534962,7.45178145464,0.)) ;
#53=CARTESIAN_POINT('Line Origine',(14.4946534962,7.45178145464,2.49999995157)) ;
#57=CARTESIAN_POINT('Vertex',(14.4946534962,7.45178145464,5.)) ;
#60=CARTESIAN_POINT('Axis2P3D Location',(9.94,9.94,5.)) ;
#72=CARTESIAN_POINT('Axis2P3D Location',(9.94,9.94,5.)) ;
#77=CARTESIAN_POINT('Axis2P3D Location',(9.94,9.94,5.)) ;
#81=CARTESIAN_POINT('Vertex',(15.6245130134,18.0941346445,5.)) ;
#83=CARTESIAN_POINT('Vertex',(14.1594312413,18.94,5.)) ;
#86=CARTESIAN_POINT('Line Origine',(9.94,18.94,5.)) ;
#90=CARTESIAN_POINT('Vertex',(5.72056875871,18.94,5.)) ;
#93=CARTESIAN_POINT('Axis2P3D Location',(9.94,9.94,5.)) ;
#97=CARTESIAN_POINT('Vertex',(4.25548698659,18.0941346445,5.)) ;
#100=CARTESIAN_POINT('Line Origine',(2.14577136594,14.44,5.)) ;
#104=CARTESIAN_POINT('Vertex',(0.0360557452935,10.7858653555,5.)) ;
#107=CARTESIAN_POINT('Axis2P3D Location',(9.94,9.94,5.)) ;
#111=CARTESIAN_POINT('Vertex',(0.,9.94,5.)) ;
#114=CARTESIAN_POINT('Axis2P3D Location',(9.94,9.94,5.)) ;
#118=CARTESIAN_POINT('Vertex',(0.0360557452935,9.09413464448,5.)) ;
#121=CARTESIAN_POINT('Line Origine',(2.14577136594,5.44,5.)) ;
#125=CARTESIAN_POINT('Vertex',(4.25548698659,1.78586535552,5.)) ;
#128=CARTESIAN_POINT('Axis2P3D Location',(9.94,9.94,5.)) ;
#132=CARTESIAN_POINT('Vertex',(5.72056875871,0.94,5.)) ;
#135=CARTESIAN_POINT('Line Origine',(9.94,0.94,5.)) ;
#139=CARTESIAN_POINT('Vertex',(14.1594312413,0.94,5.)) ;
#142=CARTESIAN_POINT('Axis2P3D Location',(9.94,9.94,5.)) ;
#146=CARTESIAN_POINT('Vertex',(15.6245130134,1.78586535552,5.)) ;
#149=CARTESIAN_POINT('Line Origine',(17.7342286341,5.44,5.)) ;
#153=CARTESIAN_POINT('Vertex',(19.8439442547,9.09413464448,5.)) ;
#156=CARTESIAN_POINT('Axis2P3D Location',(9.94,9.94,5.)) ;
#160=CARTESIAN_POINT('Vertex',(19.88,9.94,5.)) ;
#163=CARTESIAN_POINT('Axis2P3D Location',(9.94,9.94,5.)) ;
#167=CARTESIAN_POINT('Vertex',(19.8439442547,10.7858653555,5.)) ;
#170=CARTESIAN_POINT('Line Origine',(17.7342286341,14.44,5.)) ;
#191=CARTESIAN_POINT('Axis2P3D Location',(9.94,9.94,5.)) ;
#201=CARTESIAN_POINT('Axis2P3D Location',(9.94,9.94,0.)) ;
#213=CARTESIAN_POINT('Axis2P3D Location',(9.94,9.94,2.5)) ;
#218=CARTESIAN_POINT('Line Origine',(5.72056875871,18.94,2.5)) ;
#222=CARTESIAN_POINT('Vertex',(5.72056875871,18.94,1.3)) ;
#225=CARTESIAN_POINT('Axis2P3D Location',(9.94,9.94,1.3)) ;
#229=CARTESIAN_POINT('Vertex',(14.1594312413,18.94,1.3)) ;
#232=CARTESIAN_POINT('Line Origine',(14.1594312413,18.94,2.5)) ;
#237=CARTESIAN_POINT('Line Origine',(15.6245130134,18.0941346445,2.5)) ;
#241=CARTESIAN_POINT('Vertex',(15.6245130134,18.0941346445,1.3)) ;
#244=CARTESIAN_POINT('Axis2P3D Location',(9.94,9.94,1.3)) ;
#248=CARTESIAN_POINT('Vertex',(19.8439442547,10.7858653555,1.3)) ;
#251=CARTESIAN_POINT('Line Origine',(19.8439442547,10.7858653555,2.5)) ;
#256=CARTESIAN_POINT('Line Origine',(19.88,9.94,2.5)) ;
#260=CARTESIAN_POINT('Vertex',(19.88,9.94,0.)) ;
#263=CARTESIAN_POINT('Axis2P3D Location',(9.94,9.94,0.)) ;
#267=CARTESIAN_POINT('Vertex',(0.,9.94,0.)) ;
#270=CARTESIAN_POINT('Line Origine',(0.,9.94,2.5)) ;
#275=CARTESIAN_POINT('Line Origine',(0.0360557452935,10.7858653555,2.5)) ;
#279=CARTESIAN_POINT('Vertex',(0.0360557452935,10.7858653555,1.3)) ;
#282=CARTESIAN_POINT('Axis2P3D Location',(9.94,9.94,1.3)) ;
#286=CARTESIAN_POINT('Vertex',(4.25548698659,18.0941346445,1.3)) ;
#289=CARTESIAN_POINT('Line Origine',(4.25548698659,18.0941346445,2.5)) ;
#313=CARTESIAN_POINT('Axis2P3D Location',(15.1361524227,18.94,5.)) ;
#318=CARTESIAN_POINT('Line Origine',(9.94,18.94,1.3)) ;
#330=CARTESIAN_POINT('Axis2P3D Location',(4.74384757729,18.94,5.)) ;
#335=CARTESIAN_POINT('Line Origine',(2.14577136594,14.44,1.3)) ;
#347=CARTESIAN_POINT('Line Origine',(14.1594312413,0.94,2.5)) ;
#351=CARTESIAN_POINT('Vertex',(14.1594312413,0.94,1.3)) ;
#354=CARTESIAN_POINT('Axis2P3D Location',(9.94,9.94,1.3)) ;
#358=CARTESIAN_POINT('Vertex',(5.72056875871,0.94,1.3)) ;
#361=CARTESIAN_POINT('Line Origine',(5.72056875871,0.94,2.5)) ;
#366=CARTESIAN_POINT('Line Origine',(4.25548698659,1.78586535552,2.5)) ;
#370=CARTESIAN_POINT('Vertex',(4.25548698659,1.78586535552,1.3)) ;
#373=CARTESIAN_POINT('Axis2P3D Location',(9.94,9.94,1.3)) ;
#377=CARTESIAN_POINT('Vertex',(0.0360557452935,9.09413464448,1.3)) ;
#380=CARTESIAN_POINT('Line Origine',(0.0360557452935,9.09413464448,2.5)) ;
#385=CARTESIAN_POINT('Axis2P3D Location',(9.94,9.94,0.)) ;
#390=CARTESIAN_POINT('Line Origine',(19.8439442547,9.09413464448,2.5)) ;
#394=CARTESIAN_POINT('Vertex',(19.8439442547,9.09413464448,1.3)) ;
#397=CARTESIAN_POINT('Axis2P3D Location',(9.94,9.94,1.3)) ;
#401=CARTESIAN_POINT('Vertex',(15.6245130134,1.78586535552,1.3)) ;
#404=CARTESIAN_POINT('Line Origine',(15.6245130134,1.78586535552,2.5)) ;
#428=CARTESIAN_POINT('Axis2P3D Location',(-0.452304845413,9.94,5.)) ;
#433=CARTESIAN_POINT('Line Origine',(2.14577136594,5.44,1.3)) ;
#445=CARTESIAN_POINT('Axis2P3D Location',(4.74384757729,0.94,5.)) ;
#450=CARTESIAN_POINT('Line Origine',(9.94,0.94,1.3)) ;
#462=CARTESIAN_POINT('Axis2P3D Location',(15.1361524227,0.94,5.)) ;
#467=CARTESIAN_POINT('Line Origine',(17.7342286341,5.44,1.3)) ;
#479=CARTESIAN_POINT('Axis2P3D Location',(20.3323048454,9.94,5.)) ;
#484=CARTESIAN_POINT('Line Origine',(17.7342286341,14.44,1.3)) ;
#496=CARTESIAN_POINT('Axis2P3D Location',(9.94,9.94,1.3)) ;
#531=CARTESIAN_POINT('Axis2P3D Location',(9.94,9.94,0.)) ;
#33=DIRECTION('Axis2P3D Direction',(0.,0.,-1.)) ;
#34=DIRECTION('Axis2P3D XDirection',(0.87758256189,-0.479425538604,0.)) ;
#38=DIRECTION('Vector Direction',(0.,0.,-1.)) ;
#47=DIRECTION('Axis2P3D Direction',(0.,0.,-1.)) ;
#54=DIRECTION('Vector Direction',(0.,0.,-1.)) ;
#61=DIRECTION('Axis2P3D Direction',(0.,0.,-1.)) ;
#73=DIRECTION('Axis2P3D Direction',(0.,0.,1.)) ;
#74=DIRECTION('Axis2P3D XDirection',(1.,0.,0.)) ;
#78=DIRECTION('Axis2P3D Direction',(0.,0.,1.)) ;
#87=DIRECTION('Vector Direction',(-1.,0.,0.)) ;
#94=DIRECTION('Axis2P3D Direction',(0.,0.,1.)) ;
#101=DIRECTION('Vector Direction',(-0.5,-0.866025403784,0.)) ;
#108=DIRECTION('Axis2P3D Direction',(0.,0.,1.)) ;
#115=DIRECTION('Axis2P3D Direction',(0.,0.,1.)) ;
#122=DIRECTION('Vector Direction',(0.5,-0.866025403784,0.)) ;
#129=DIRECTION('Axis2P3D Direction',(0.,0.,1.)) ;
#136=DIRECTION('Vector Direction',(1.,0.,0.)) ;
#143=DIRECTION('Axis2P3D Direction',(0.,0.,1.)) ;
#150=DIRECTION('Vector Direction',(0.5,0.866025403784,0.)) ;
#157=DIRECTION('Axis2P3D Direction',(0.,0.,1.)) ;
#164=DIRECTION('Axis2P3D Direction',(0.,0.,1.)) ;
#171=DIRECTION('Vector Direction',(-0.5,0.866025403784,0.)) ;
#192=DIRECTION('Axis2P3D Direction',(0.,0.,1.)) ;
#202=DIRECTION('Axis2P3D Direction',(0.,0.,-1.)) ;
#214=DIRECTION('Axis2P3D Direction',(0.,0.,1.)) ;
#215=DIRECTION('Axis2P3D XDirection',(1.,0.,0.)) ;
#219=DIRECTION('Vector Direction',(0.,0.,1.)) ;
#226=DIRECTION('Axis2P3D Direction',(0.,0.,1.)) ;
#233=DIRECTION('Vector Direction',(0.,0.,1.)) ;
#238=DIRECTION('Vector Direction',(0.,0.,1.)) ;
#245=DIRECTION('Axis2P3D Direction',(0.,0.,1.)) ;
#252=DIRECTION('Vector Direction',(0.,0.,1.)) ;
#257=DIRECTION('Vector Direction',(0.,0.,1.)) ;
#264=DIRECTION('Axis2P3D Direction',(0.,0.,1.)) ;
#271=DIRECTION('Vector Direction',(0.,0.,1.)) ;
#276=DIRECTION('Vector Direction',(0.,0.,1.)) ;
#283=DIRECTION('Axis2P3D Direction',(0.,0.,1.)) ;
#290=DIRECTION('Vector Direction',(0.,0.,1.)) ;
#314=DIRECTION('Axis2P3D Direction',(-0.,-1.,-0.)) ;
#315=DIRECTION('Axis2P3D XDirection',(-1.,0.,0.)) ;
#319=DIRECTION('Vector Direction',(-1.,0.,0.)) ;
#331=DIRECTION('Axis2P3D Direction',(0.866025403784,-0.5,0.)) ;
#332=DIRECTION('Axis2P3D XDirection',(-0.5,-0.866025403784,0.)) ;
#336=DIRECTION('Vector Direction',(-0.5,-0.866025403784,0.)) ;
#348=DIRECTION('Vector Direction',(0.,0.,1.)) ;
#355=DIRECTION('Axis2P3D Direction',(0.,0.,1.)) ;
#362=DIRECTION('Vector Direction',(0.,0.,1.)) ;
#367=DIRECTION('Vector Direction',(0.,0.,1.)) ;
#374=DIRECTION('Axis2P3D Direction',(0.,0.,1.)) ;
#381=DIRECTION('Vector Direction',(0.,0.,1.)) ;
#386=DIRECTION('Axis2P3D Direction',(0.,0.,1.)) ;
#391=DIRECTION('Vector Direction',(0.,0.,1.)) ;
#398=DIRECTION('Axis2P3D Direction',(0.,0.,1.)) ;
#405=DIRECTION('Vector Direction',(0.,0.,1.)) ;
#429=DIRECTION('Axis2P3D Direction',(0.866025403784,0.5,0.)) ;
#430=DIRECTION('Axis2P3D XDirection',(0.5,-0.866025403784,0.)) ;
#434=DIRECTION('Vector Direction',(-0.5,0.866025403784,0.)) ;
#446=DIRECTION('Axis2P3D Direction',(-0.,1.,0.)) ;
#447=DIRECTION('Axis2P3D XDirection',(1.,0.,0.)) ;
#451=DIRECTION('Vector Direction',(-1.,0.,0.)) ;
#463=DIRECTION('Axis2P3D Direction',(-0.866025403784,0.5,0.)) ;
#464=DIRECTION('Axis2P3D XDirection',(0.5,0.866025403784,0.)) ;
#468=DIRECTION('Vector Direction',(-0.5,-0.866025403784,0.)) ;
#480=DIRECTION('Axis2P3D Direction',(-0.866025403784,-0.5,-0.)) ;
#481=DIRECTION('Axis2P3D XDirection',(-0.5,0.866025403784,0.)) ;
#485=DIRECTION('Vector Direction',(0.5,-0.866025403784,0.)) ;
#497=DIRECTION('Axis2P3D Direction',(0.,0.,1.)) ;
#498=DIRECTION('Axis2P3D XDirection',(1.,0.,0.)) ;
#532=DIRECTION('Axis2P3D Direction',(0.,0.,1.)) ;
#533=DIRECTION('Axis2P3D XDirection',(1.,0.,0.)) ;
#30=PRESENTATION_LAYER_ASSIGNMENT('1',' ',(#21)) ;
#8=PRODUCT_RELATED_PRODUCT_CATEGORY('part',$,(#5)) ;
#7=PRODUCT_CATEGORY('part','specification') ;
#29=STYLED_ITEM(' ',(#28),#21) ;
#28=PRESENTATION_STYLE_ASSIGNMENT((#27)) ;
#27=SURFACE_STYLE_USAGE(.BOTH.,#26) ;
#26=SURFACE_SIDE_STYLE(' ',(#25)) ;
#25=SURFACE_STYLE_FILL_AREA(#24) ;
#24=FILL_AREA_STYLE(' ',(#23)) ;
#23=FILL_AREA_STYLE_COLOUR(' ',#22) ;
#39=VECTOR('Line Direction',#38,1.) ;
#55=VECTOR('Line Direction',#54,1.) ;
#88=VECTOR('Line Direction',#87,1.) ;
#102=VECTOR('Line Direction',#101,1.) ;
#123=VECTOR('Line Direction',#122,1.) ;
#137=VECTOR('Line Direction',#136,1.) ;
#151=VECTOR('Line Direction',#150,1.) ;
#172=VECTOR('Line Direction',#171,1.) ;
#220=VECTOR('Line Direction',#219,1.) ;
#234=VECTOR('Line Direction',#233,1.) ;
#239=VECTOR('Line Direction',#238,1.) ;
#253=VECTOR('Line Direction',#252,1.) ;
#258=VECTOR('Line Direction',#257,1.) ;
#272=VECTOR('Line Direction',#271,1.) ;
#277=VECTOR('Line Direction',#276,1.) ;
#291=VECTOR('Line Direction',#290,1.) ;
#320=VECTOR('Line Direction',#319,1.) ;
#337=VECTOR('Line Direction',#336,1.) ;
#349=VECTOR('Line Direction',#348,1.) ;
#363=VECTOR('Line Direction',#362,1.) ;
#368=VECTOR('Line Direction',#367,1.) ;
#382=VECTOR('Line Direction',#381,1.) ;
#392=VECTOR('Line Direction',#391,1.) ;
#406=VECTOR('Line Direction',#405,1.) ;
#435=VECTOR('Line Direction',#434,1.) ;
#452=VECTOR('Line Direction',#451,1.) ;
#469=VECTOR('Line Direction',#468,1.) ;
#486=VECTOR('Line Direction',#485,1.) ;
#15=UNCERTAINTY_MEASURE_WITH_UNIT(LENGTH_MEASURE(0.005),#12,'distance_accuracy_value','CONFUSED CURVE UNCERTAINTY') ;
#546=SHAPE_REPRESENTATION_RELATIONSHIP(' ',' ',#19,#545) ;
#66=ORIENTED_EDGE('',*,*,#45,.F.) ;
#67=ORIENTED_EDGE('',*,*,#52,.F.) ;
#68=ORIENTED_EDGE('',*,*,#59,.T.) ;
#69=ORIENTED_EDGE('',*,*,#64,.T.) ;
#176=ORIENTED_EDGE('',*,*,#85,.T.) ;
#177=ORIENTED_EDGE('',*,*,#92,.T.) ;
#178=ORIENTED_EDGE('',*,*,#99,.T.) ;
#179=ORIENTED_EDGE('',*,*,#106,.T.) ;
#180=ORIENTED_EDGE('',*,*,#113,.T.) ;
#181=ORIENTED_EDGE('',*,*,#120,.T.) ;
#182=ORIENTED_EDGE('',*,*,#127,.T.) ;
#183=ORIENTED_EDGE('',*,*,#134,.T.) ;
#184=ORIENTED_EDGE('',*,*,#141,.T.) ;
#185=ORIENTED_EDGE('',*,*,#148,.T.) ;
#186=ORIENTED_EDGE('',*,*,#155,.T.) ;
#187=ORIENTED_EDGE('',*,*,#162,.T.) ;
#188=ORIENTED_EDGE('',*,*,#169,.T.) ;
#189=ORIENTED_EDGE('',*,*,#174,.T.) ;
#197=ORIENTED_EDGE('',*,*,#195,.F.) ;
#198=ORIENTED_EDGE('',*,*,#64,.F.) ;
#207=ORIENTED_EDGE('',*,*,#59,.F.) ;
#208=ORIENTED_EDGE('',*,*,#205,.F.) ;
#209=ORIENTED_EDGE('',*,*,#45,.T.) ;
#210=ORIENTED_EDGE('',*,*,#195,.T.) ;
#295=ORIENTED_EDGE('',*,*,#99,.F.) ;
#296=ORIENTED_EDGE('',*,*,#224,.T.) ;
#297=ORIENTED_EDGE('',*,*,#231,.F.) ;
#298=ORIENTED_EDGE('',*,*,#236,.F.) ;
#299=ORIENTED_EDGE('',*,*,#85,.F.) ;
#300=ORIENTED_EDGE('',*,*,#243,.T.) ;
#301=ORIENTED_EDGE('',*,*,#250,.F.) ;
#302=ORIENTED_EDGE('',*,*,#255,.F.) ;
#303=ORIENTED_EDGE('',*,*,#169,.F.) ;
#304=ORIENTED_EDGE('',*,*,#262,.F.) ;
#305=ORIENTED_EDGE('',*,*,#269,.T.) ;
#306=ORIENTED_EDGE('',*,*,#274,.T.) ;
#307=ORIENTED_EDGE('',*,*,#113,.F.) ;
#308=ORIENTED_EDGE('',*,*,#281,.T.) ;
#309=ORIENTED_EDGE('',*,*,#288,.F.) ;
#310=ORIENTED_EDGE('',*,*,#293,.F.) ;
#324=ORIENTED_EDGE('',*,*,#322,.T.) ;
#325=ORIENTED_EDGE('',*,*,#224,.F.) ;
#326=ORIENTED_EDGE('',*,*,#92,.F.) ;
#327=ORIENTED_EDGE('',*,*,#236,.T.) ;
#341=ORIENTED_EDGE('',*,*,#339,.T.) ;
#342=ORIENTED_EDGE('',*,*,#281,.F.) ;
#343=ORIENTED_EDGE('',*,*,#106,.F.) ;
#344=ORIENTED_EDGE('',*,*,#293,.T.) ;
#410=ORIENTED_EDGE('',*,*,#148,.F.) ;
#411=ORIENTED_EDGE('',*,*,#353,.T.) ;
#412=ORIENTED_EDGE('',*,*,#360,.F.) ;
#413=ORIENTED_EDGE('',*,*,#365,.F.) ;
#414=ORIENTED_EDGE('',*,*,#134,.F.) ;
#415=ORIENTED_EDGE('',*,*,#372,.T.) ;
#416=ORIENTED_EDGE('',*,*,#379,.F.) ;
#417=ORIENTED_EDGE('',*,*,#384,.F.) ;
#418=ORIENTED_EDGE('',*,*,#120,.F.) ;
#419=ORIENTED_EDGE('',*,*,#274,.F.) ;
#420=ORIENTED_EDGE('',*,*,#389,.T.) ;
#421=ORIENTED_EDGE('',*,*,#262,.T.) ;
#422=ORIENTED_EDGE('',*,*,#162,.F.) ;
#423=ORIENTED_EDGE('',*,*,#396,.T.) ;
#424=ORIENTED_EDGE('',*,*,#403,.F.) ;
#425=ORIENTED_EDGE('',*,*,#408,.F.) ;
#439=ORIENTED_EDGE('',*,*,#437,.F.) ;
#440=ORIENTED_EDGE('',*,*,#372,.F.) ;
#441=ORIENTED_EDGE('',*,*,#127,.F.) ;
#442=ORIENTED_EDGE('',*,*,#384,.T.) ;
#456=ORIENTED_EDGE('',*,*,#454,.F.) ;
#457=ORIENTED_EDGE('',*,*,#353,.F.) ;
#458=ORIENTED_EDGE('',*,*,#141,.F.) ;
#459=ORIENTED_EDGE('',*,*,#365,.T.) ;
#473=ORIENTED_EDGE('',*,*,#471,.F.) ;
#474=ORIENTED_EDGE('',*,*,#396,.F.) ;
#475=ORIENTED_EDGE('',*,*,#155,.F.) ;
#476=ORIENTED_EDGE('',*,*,#408,.T.) ;
#490=ORIENTED_EDGE('',*,*,#174,.F.) ;
#491=ORIENTED_EDGE('',*,*,#255,.T.) ;
#492=ORIENTED_EDGE('',*,*,#488,.F.) ;
#493=ORIENTED_EDGE('',*,*,#243,.F.) ;
#502=ORIENTED_EDGE('',*,*,#471,.T.) ;
#503=ORIENTED_EDGE('',*,*,#403,.T.) ;
#507=ORIENTED_EDGE('',*,*,#437,.T.) ;
#508=ORIENTED_EDGE('',*,*,#379,.T.) ;
#512=ORIENTED_EDGE('',*,*,#360,.T.) ;
#513=ORIENTED_EDGE('',*,*,#454,.T.) ;
#517=ORIENTED_EDGE('',*,*,#288,.T.) ;
#518=ORIENTED_EDGE('',*,*,#339,.F.) ;
#522=ORIENTED_EDGE('',*,*,#250,.T.) ;
#523=ORIENTED_EDGE('',*,*,#488,.T.) ;
#527=ORIENTED_EDGE('',*,*,#322,.F.) ;
#528=ORIENTED_EDGE('',*,*,#231,.T.) ;
#537=ORIENTED_EDGE('',*,*,#389,.F.) ;
#538=ORIENTED_EDGE('',*,*,#269,.F.) ;
#541=ORIENTED_EDGE('',*,*,#52,.T.) ;
#542=ORIENTED_EDGE('',*,*,#205,.T.) ;
#199=FACE_BOUND('',#196,.T.) ;
#543=FACE_BOUND('',#540,.T.) ;
#31=CLOSED_SHELL('Closed Shell',(#71,#200,#212,#312,#329,#346,#427,#444,#461,#478,#495,#505,#510,#515,#520,#525,#530,#544)) ;
#545=ADVANCED_BREP_SHAPE_REPRESENTATION('NONE',(#21),#16) ;
#71=ADVANCED_FACE('K\X2\00F6\X0\rper.3',(#70),#36,.F.) ;
#200=ADVANCED_FACE('K\X2\00F6\X0\rper.3',(#190,#199),#76,.T.) ;
#212=ADVANCED_FACE('K\X2\00F6\X0\rper.3',(#211),#36,.F.) ;
#312=ADVANCED_FACE('K\X2\00F6\X0\rper.3',(#311),#217,.T.) ;
#329=ADVANCED_FACE('K\X2\00F6\X0\rper.3',(#328),#317,.F.) ;
#346=ADVANCED_FACE('K\X2\00F6\X0\rper.3',(#345),#334,.F.) ;
#427=ADVANCED_FACE('K\X2\00F6\X0\rper.3',(#426),#217,.T.) ;
#444=ADVANCED_FACE('K\X2\00F6\X0\rper.3',(#443),#432,.F.) ;
#461=ADVANCED_FACE('K\X2\00F6\X0\rper.3',(#460),#449,.F.) ;
#478=ADVANCED_FACE('K\X2\00F6\X0\rper.3',(#477),#466,.F.) ;
#495=ADVANCED_FACE('K\X2\00F6\X0\rper.3',(#494),#483,.F.) ;
#505=ADVANCED_FACE('K\X2\00F6\X0\rper.3',(#504),#500,.T.) ;
#510=ADVANCED_FACE('K\X2\00F6\X0\rper.3',(#509),#500,.T.) ;
#515=ADVANCED_FACE('K\X2\00F6\X0\rper.3',(#514),#500,.T.) ;
#520=ADVANCED_FACE('K\X2\00F6\X0\rper.3',(#519),#500,.T.) ;
#525=ADVANCED_FACE('K\X2\00F6\X0\rper.3',(#524),#500,.T.) ;
#530=ADVANCED_FACE('K\X2\00F6\X0\rper.3',(#529),#500,.T.) ;
#544=ADVANCED_FACE('K\X2\00F6\X0\rper.3',(#539,#543),#535,.F.) ;
#4=APPLICATION_PROTOCOL_DEFINITION('international standard','automotive_design',2001,#1) ;
#21=MANIFOLD_SOLID_BREP('K\X2\00F6\X0\rper.3',#31) ;
#49=CIRCLE('generated circle',#48,5.19) ;
#63=CIRCLE('generated circle',#62,5.19) ;
#80=CIRCLE('generated circle',#79,9.94) ;
#96=CIRCLE('generated circle',#95,9.94) ;
#110=CIRCLE('generated circle',#109,9.94) ;
#117=CIRCLE('generated circle',#116,9.94) ;
#131=CIRCLE('generated circle',#130,9.94) ;
#145=CIRCLE('generated circle',#144,9.94) ;
#159=CIRCLE('generated circle',#158,9.94) ;
#166=CIRCLE('generated circle',#165,9.94) ;
#194=CIRCLE('generated circle',#193,5.19) ;
#204=CIRCLE('generated circle',#203,5.19) ;
#228=CIRCLE('generated circle',#227,9.94) ;
#247=CIRCLE('generated circle',#246,9.94) ;
#266=CIRCLE('generated circle',#265,9.94) ;
#285=CIRCLE('generated circle',#284,9.94) ;
#357=CIRCLE('generated circle',#356,9.94) ;
#376=CIRCLE('generated circle',#375,9.94) ;
#388=CIRCLE('generated circle',#387,9.94) ;
#400=CIRCLE('generated circle',#399,9.94) ;
#22=COLOUR_RGB('Colour',0.313725490196,0.313725490196,0.313725490196) ;
#36=CYLINDRICAL_SURFACE('generated cylinder',#35,5.19) ;
#217=CYLINDRICAL_SURFACE('generated cylinder',#216,9.94) ;
#45=EDGE_CURVE('',#42,#44,#40,.F.) ;
#52=EDGE_CURVE('',#51,#42,#49,.F.) ;
#59=EDGE_CURVE('',#51,#58,#56,.F.) ;
#64=EDGE_CURVE('',#58,#44,#63,.F.) ;
#85=EDGE_CURVE('',#82,#84,#80,.T.) ;
#92=EDGE_CURVE('',#84,#91,#89,.T.) ;
#99=EDGE_CURVE('',#91,#98,#96,.T.) ;
#106=EDGE_CURVE('',#98,#105,#103,.T.) ;
#113=EDGE_CURVE('',#105,#112,#110,.T.) ;
#120=EDGE_CURVE('',#112,#119,#117,.T.) ;
#127=EDGE_CURVE('',#119,#126,#124,.T.) ;
#134=EDGE_CURVE('',#126,#133,#131,.T.) ;
#141=EDGE_CURVE('',#133,#140,#138,.T.) ;
#148=EDGE_CURVE('',#140,#147,#145,.T.) ;
#155=EDGE_CURVE('',#147,#154,#152,.T.) ;
#162=EDGE_CURVE('',#154,#161,#159,.T.) ;
#169=EDGE_CURVE('',#161,#168,#166,.T.) ;
#174=EDGE_CURVE('',#168,#82,#173,.T.) ;
#195=EDGE_CURVE('',#44,#58,#194,.T.) ;
#205=EDGE_CURVE('',#42,#51,#204,.F.) ;
#224=EDGE_CURVE('',#91,#223,#221,.F.) ;
#231=EDGE_CURVE('',#230,#223,#228,.T.) ;
#236=EDGE_CURVE('',#84,#230,#235,.F.) ;
#243=EDGE_CURVE('',#82,#242,#240,.F.) ;
#250=EDGE_CURVE('',#249,#242,#247,.T.) ;
#255=EDGE_CURVE('',#168,#249,#254,.F.) ;
#262=EDGE_CURVE('',#261,#161,#259,.T.) ;
#269=EDGE_CURVE('',#261,#268,#266,.T.) ;
#274=EDGE_CURVE('',#268,#112,#273,.T.) ;
#281=EDGE_CURVE('',#105,#280,#278,.F.) ;
#288=EDGE_CURVE('',#287,#280,#285,.T.) ;
#293=EDGE_CURVE('',#98,#287,#292,.F.) ;
#322=EDGE_CURVE('',#230,#223,#321,.T.) ;
#339=EDGE_CURVE('',#287,#280,#338,.T.) ;
#353=EDGE_CURVE('',#140,#352,#350,.F.) ;
#360=EDGE_CURVE('',#359,#352,#357,.T.) ;
#365=EDGE_CURVE('',#133,#359,#364,.F.) ;
#372=EDGE_CURVE('',#126,#371,#369,.F.) ;
#379=EDGE_CURVE('',#378,#371,#376,.T.) ;
#384=EDGE_CURVE('',#119,#378,#383,.F.) ;
#389=EDGE_CURVE('',#268,#261,#388,.T.) ;
#396=EDGE_CURVE('',#154,#395,#393,.F.) ;
#403=EDGE_CURVE('',#402,#395,#400,.T.) ;
#408=EDGE_CURVE('',#147,#402,#407,.F.) ;
#437=EDGE_CURVE('',#371,#378,#436,.T.) ;
#454=EDGE_CURVE('',#352,#359,#453,.T.) ;
#471=EDGE_CURVE('',#395,#402,#470,.T.) ;
#488=EDGE_CURVE('',#242,#249,#487,.T.) ;
#65=EDGE_LOOP('',(#66,#67,#68,#69)) ;
#175=EDGE_LOOP('',(#176,#177,#178,#179,#180,#181,#182,#183,#184,#185,#186,#187,#188,#189)) ;
#196=EDGE_LOOP('',(#197,#198)) ;
#206=EDGE_LOOP('',(#207,#208,#209,#210)) ;
#294=EDGE_LOOP('',(#295,#296,#297,#298,#299,#300,#301,#302,#303,#304,#305,#306,#307,#308,#309,#310)) ;
#323=EDGE_LOOP('',(#324,#325,#326,#327)) ;
#340=EDGE_LOOP('',(#341,#342,#343,#344)) ;
#409=EDGE_LOOP('',(#410,#411,#412,#413,#414,#415,#416,#417,#418,#419,#420,#421,#422,#423,#424,#425)) ;
#438=EDGE_LOOP('',(#439,#440,#441,#442)) ;
#455=EDGE_LOOP('',(#456,#457,#458,#459)) ;
#472=EDGE_LOOP('',(#473,#474,#475,#476)) ;
#489=EDGE_LOOP('',(#490,#491,#492,#493)) ;
#501=EDGE_LOOP('',(#502,#503)) ;
#506=EDGE_LOOP('',(#507,#508)) ;
#511=EDGE_LOOP('',(#512,#513)) ;
#516=EDGE_LOOP('',(#517,#518)) ;
#521=EDGE_LOOP('',(#522,#523)) ;
#526=EDGE_LOOP('',(#527,#528)) ;
#536=EDGE_LOOP('',(#537,#538)) ;
#540=EDGE_LOOP('',(#541,#542)) ;
#70=FACE_OUTER_BOUND('',#65,.T.) ;
#190=FACE_OUTER_BOUND('',#175,.T.) ;
#211=FACE_OUTER_BOUND('',#206,.T.) ;
#311=FACE_OUTER_BOUND('',#294,.T.) ;
#328=FACE_OUTER_BOUND('',#323,.T.) ;
#345=FACE_OUTER_BOUND('',#340,.T.) ;
#426=FACE_OUTER_BOUND('',#409,.T.) ;
#443=FACE_OUTER_BOUND('',#438,.T.) ;
#460=FACE_OUTER_BOUND('',#455,.T.) ;
#477=FACE_OUTER_BOUND('',#472,.T.) ;
#494=FACE_OUTER_BOUND('',#489,.T.) ;
#504=FACE_OUTER_BOUND('',#501,.T.) ;
#509=FACE_OUTER_BOUND('',#506,.T.) ;
#514=FACE_OUTER_BOUND('',#511,.T.) ;
#519=FACE_OUTER_BOUND('',#516,.T.) ;
#524=FACE_OUTER_BOUND('',#521,.T.) ;
#529=FACE_OUTER_BOUND('',#526,.T.) ;
#539=FACE_OUTER_BOUND('',#536,.T.) ;
#40=LINE('Line',#37,#39) ;
#56=LINE('Line',#53,#55) ;
#89=LINE('Line',#86,#88) ;
#103=LINE('Line',#100,#102) ;
#124=LINE('Line',#121,#123) ;
#138=LINE('Line',#135,#137) ;
#152=LINE('Line',#149,#151) ;
#173=LINE('Line',#170,#172) ;
#221=LINE('Line',#218,#220) ;
#235=LINE('Line',#232,#234) ;
#240=LINE('Line',#237,#239) ;
#254=LINE('Line',#251,#253) ;
#259=LINE('Line',#256,#258) ;
#273=LINE('Line',#270,#272) ;
#278=LINE('Line',#275,#277) ;
#292=LINE('Line',#289,#291) ;
#321=LINE('Line',#318,#320) ;
#338=LINE('Line',#335,#337) ;
#350=LINE('Line',#347,#349) ;
#364=LINE('Line',#361,#363) ;
#369=LINE('Line',#366,#368) ;
#383=LINE('Line',#380,#382) ;
#393=LINE('Line',#390,#392) ;
#407=LINE('Line',#404,#406) ;
#436=LINE('Line',#433,#435) ;
#453=LINE('Line',#450,#452) ;
#470=LINE('Line',#467,#469) ;
#487=LINE('Line',#484,#486) ;
#76=PLANE('',#75) ;
#317=PLANE('',#316) ;
#334=PLANE('',#333) ;
#432=PLANE('',#431) ;
#449=PLANE('',#448) ;
#466=PLANE('',#465) ;
#483=PLANE('',#482) ;
#500=PLANE('',#499) ;
#535=PLANE('',#534) ;
#9=PRODUCT_CATEGORY_RELATIONSHIP(' ',' ',#7,#8) ;
#6=PRODUCT_DEFINITION_FORMATION_WITH_SPECIFIED_SOURCE('',' ',#5,.NOT_KNOWN.) ;
#20=SHAPE_DEFINITION_REPRESENTATION(#11,#19) ;
#42=VERTEX_POINT('',#41) ;
#44=VERTEX_POINT('',#43) ;
#51=VERTEX_POINT('',#50) ;
#58=VERTEX_POINT('',#57) ;
#82=VERTEX_POINT('',#81) ;
#84=VERTEX_POINT('',#83) ;
#91=VERTEX_POINT('',#90) ;
#98=VERTEX_POINT('',#97) ;
#105=VERTEX_POINT('',#104) ;
#112=VERTEX_POINT('',#111) ;
#119=VERTEX_POINT('',#118) ;
#126=VERTEX_POINT('',#125) ;
#133=VERTEX_POINT('',#132) ;
#140=VERTEX_POINT('',#139) ;
#147=VERTEX_POINT('',#146) ;
#154=VERTEX_POINT('',#153) ;
#161=VERTEX_POINT('',#160) ;
#168=VERTEX_POINT('',#167) ;
#223=VERTEX_POINT('',#222) ;
#230=VERTEX_POINT('',#229) ;
#242=VERTEX_POINT('',#241) ;
#249=VERTEX_POINT('',#248) ;
#261=VERTEX_POINT('',#260) ;
#268=VERTEX_POINT('',#267) ;
#280=VERTEX_POINT('',#279) ;
#287=VERTEX_POINT('',#286) ;
#352=VERTEX_POINT('',#351) ;
#359=VERTEX_POINT('',#358) ;
#371=VERTEX_POINT('',#370) ;
#378=VERTEX_POINT('',#377) ;
#395=VERTEX_POINT('',#394) ;
#402=VERTEX_POINT('',#401) ;
#12=(LENGTH_UNIT()NAMED_UNIT(*)SI_UNIT(.MILLI.,.METRE.)) ;
#13=(NAMED_UNIT(*)PLANE_ANGLE_UNIT()SI_UNIT($,.RADIAN.)) ;
#14=(NAMED_UNIT(*)SI_UNIT($,.STERADIAN.)SOLID_ANGLE_UNIT()) ;
#16=(GEOMETRIC_REPRESENTATION_CONTEXT(3)GLOBAL_UNCERTAINTY_ASSIGNED_CONTEXT((#15))GLOBAL_UNIT_ASSIGNED_CONTEXT((#12,#13,#14))REPRESENTATION_CONTEXT(' ',' ')) ;
ENDSEC;
END-ISO-10303-21;
