ISO-10303-21;
HEADER;
FILE_DESCRIPTION(('CATIA V5R19 STEP'),'2;1');

FILE_NAME ('D1450996_0', '2015-02-20T08:31:34+00:00', ('Weidmueller Interface'), ('Weidmueller'), 'CATIA Version 5 Release 20 SP 5 (IN-10)', 'CATIA V5 STEP AP214', 'none');

FILE_SCHEMA(('AUTOMOTIVE_DESIGN { 1 0 10303 214 1 1 1 1 }'));

ENDSEC;
/* file written by CATIA V5R20 */
DATA;
#5=PRODUCT('SM 44/44-21','','<Q-CHECKER_SEAL> Q-Checker Version 2.14.8  \X2\000A\X0\CATIA-Version         : Catia V5 R20 SP5 Build Date 01-14-2011.22.00\X2\000A\X0\Model size (in KByte) : 0\X2\000A\X0\Checking date         : 2011-12-12 08:23:48\X2\000A\X0\Checking profile      : ADMIN / Release_2D-3D [CATPart]\X2\000A\X0\Model assessment      : In Ordnung (IO)\X2\000A\X0\Total weight sum      : 0\X2\000A\X0\<CROSS_CHECK_SUM>\X2\000A\X0\  <CHKSUM_DATE> -1469966049 </CHKSUM_DATE>\X2\000A\X0\  <CHKSUM_ENTITIES> -2033142504 </CHKSUM_ENTITIES>\X2\000A\X0\  <CHKSUM_PROFILE> 1594213346 </CHKSUM_PROFILE>\X2\000A\X0\  <CHKSUM_DIMENSION> -186917087 </CHKSUM_DIMENSION>\X2\000A\X0\  <CHKSUM_PROJINTERSEC> -896974048 </CHKSUM_PROJINTERSEC>\X2\000A\X0\  <CHKSUM_IDENTCRV> -896974048 </CHKSUM_IDENTCRV>\X2\000A\X0\  <CHKSUM_INFINITY> 138018827 </CHKSUM_INFINITY>\X2\000A\X0\</CROSS_CHECK_SUM>\X2\000A\X0\</Q-CHECKER_SEAL> \X2\000A\X0\ \X2\000D\X0\\X2\000A\X0\ \X2\000D\X0\\X2\000A\X0\',(#2)) ;
#2=PRODUCT_CONTEXT(' ',#1,'mechanical') ;
#1=APPLICATION_CONTEXT('automotive design') ;
#10=PRODUCT_DEFINITION('54702',' ',#6,#3) ;
#3=PRODUCT_DEFINITION_CONTEXT('part definition',#1,' ') ;
#11=PRODUCT_DEFINITION_SHAPE(' ',' ',#10) ;
#380=MECHANICAL_DESIGN_GEOMETRIC_PRESENTATION_REPRESENTATION(' ',(#30),#17) ;
#20=SHAPE_REPRESENTATION(' ',(#19),#17) ;
#19=AXIS2_PLACEMENT_3D(' ',#18,$,$) ;
#36=AXIS2_PLACEMENT_3D('Cylinder Axis2P3D',#33,#34,#35) ;
#49=AXIS2_PLACEMENT_3D('Circle Axis2P3D',#47,#48,$) ;
#63=AXIS2_PLACEMENT_3D('Circle Axis2P3D',#61,#62,$) ;
#76=AXIS2_PLACEMENT_3D('Plane Axis2P3D',#73,#74,#75) ;
#107=AXIS2_PLACEMENT_3D('Cylinder Axis2P3D',#104,#105,#106) ;
#111=AXIS2_PLACEMENT_3D('Circle Axis2P3D',#109,#110,$) ;
#125=AXIS2_PLACEMENT_3D('Circle Axis2P3D',#123,#124,$) ;
#138=AXIS2_PLACEMENT_3D('Plane Axis2P3D',#135,#136,#137) ;
#169=AXIS2_PLACEMENT_3D('Cylinder Axis2P3D',#166,#167,#168) ;
#173=AXIS2_PLACEMENT_3D('Circle Axis2P3D',#171,#172,$) ;
#187=AXIS2_PLACEMENT_3D('Circle Axis2P3D',#185,#186,$) ;
#200=AXIS2_PLACEMENT_3D('Plane Axis2P3D',#197,#198,#199) ;
#231=AXIS2_PLACEMENT_3D('Cylinder Axis2P3D',#228,#229,#230) ;
#235=AXIS2_PLACEMENT_3D('Circle Axis2P3D',#233,#234,$) ;
#249=AXIS2_PLACEMENT_3D('Circle Axis2P3D',#247,#248,$) ;
#262=AXIS2_PLACEMENT_3D('Plane Axis2P3D',#259,#260,#261) ;
#284=AXIS2_PLACEMENT_3D('Cylinder Axis2P3D',#281,#282,#283) ;
#288=AXIS2_PLACEMENT_3D('Circle Axis2P3D',#286,#287,$) ;
#304=AXIS2_PLACEMENT_3D('Circle Axis2P3D',#302,#303,$) ;
#323=AXIS2_PLACEMENT_3D('Circle Axis2P3D',#321,#322,$) ;
#328=AXIS2_PLACEMENT_3D('Circle Axis2P3D',#326,#327,$) ;
#341=AXIS2_PLACEMENT_3D('Plane Axis2P3D',#338,#339,#340) ;
#361=AXIS2_PLACEMENT_3D('Plane Axis2P3D',#358,#359,#360) ;
#18=CARTESIAN_POINT(' ',(0.,0.,0.)) ;
#33=CARTESIAN_POINT('Axis2P3D Location',(41.3,2.5,0.6)) ;
#38=CARTESIAN_POINT('Line Origine',(41.3,0.,0.6)) ;
#42=CARTESIAN_POINT('Vertex',(41.3,0.,1.37432617698E-015)) ;
#44=CARTESIAN_POINT('Vertex',(41.3,0.,1.2)) ;
#47=CARTESIAN_POINT('Axis2P3D Location',(41.3,2.5,1.22124532709E-015)) ;
#51=CARTESIAN_POINT('Vertex',(43.8,2.5,1.22124532709E-015)) ;
#54=CARTESIAN_POINT('Line Origine',(43.8,2.5,0.6)) ;
#58=CARTESIAN_POINT('Vertex',(43.8,2.5,1.2)) ;
#61=CARTESIAN_POINT('Axis2P3D Location',(41.3,2.5,1.2)) ;
#73=CARTESIAN_POINT('Axis2P3D Location',(43.8,2.5,1.18790739517E-015)) ;
#78=CARTESIAN_POINT('Line Origine',(43.8,21.9,0.)) ;
#82=CARTESIAN_POINT('Vertex',(43.8,41.3,-1.18790739517E-015)) ;
#85=CARTESIAN_POINT('Line Origine',(43.8,41.3,0.6)) ;
#89=CARTESIAN_POINT('Vertex',(43.8,41.3,1.2)) ;
#92=CARTESIAN_POINT('Line Origine',(43.8,21.9,1.2)) ;
#104=CARTESIAN_POINT('Axis2P3D Location',(41.3,41.3,0.6)) ;
#109=CARTESIAN_POINT('Axis2P3D Location',(41.3,41.3,-1.22124532709E-015)) ;
#113=CARTESIAN_POINT('Vertex',(41.3,43.8,-1.37432617698E-015)) ;
#116=CARTESIAN_POINT('Line Origine',(41.3,43.8,0.6)) ;
#120=CARTESIAN_POINT('Vertex',(41.3,43.8,1.2)) ;
#123=CARTESIAN_POINT('Axis2P3D Location',(41.3,41.3,1.2)) ;
#135=CARTESIAN_POINT('Axis2P3D Location',(2.5,43.8,-1.34098824507E-015)) ;
#140=CARTESIAN_POINT('Line Origine',(21.9,43.8,-1.34098824507E-015)) ;
#144=CARTESIAN_POINT('Vertex',(2.5,43.8,-1.34098824507E-015)) ;
#147=CARTESIAN_POINT('Line Origine',(2.5,43.8,0.6)) ;
#151=CARTESIAN_POINT('Vertex',(2.5,43.8,1.2)) ;
#154=CARTESIAN_POINT('Line Origine',(21.9,43.8,1.2)) ;
#166=CARTESIAN_POINT('Axis2P3D Location',(2.5,41.3,0.6)) ;
#171=CARTESIAN_POINT('Axis2P3D Location',(2.5,41.3,-1.22124532709E-015)) ;
#175=CARTESIAN_POINT('Vertex',(0.,41.3,-1.22124532709E-015)) ;
#178=CARTESIAN_POINT('Line Origine',(0.,41.3,0.6)) ;
#182=CARTESIAN_POINT('Vertex',(0.,41.3,1.2)) ;
#185=CARTESIAN_POINT('Axis2P3D Location',(2.5,41.3,1.2)) ;
#197=CARTESIAN_POINT('Axis2P3D Location',(0.,41.3,-1.18790739517E-015)) ;
#202=CARTESIAN_POINT('Line Origine',(0.,21.9,0.)) ;
#206=CARTESIAN_POINT('Vertex',(0.,2.5,1.18790739517E-015)) ;
#209=CARTESIAN_POINT('Line Origine',(0.,2.5,0.6)) ;
#213=CARTESIAN_POINT('Vertex',(0.,2.5,1.2)) ;
#216=CARTESIAN_POINT('Line Origine',(0.,21.9,1.2)) ;
#228=CARTESIAN_POINT('Axis2P3D Location',(2.5,2.5,0.6)) ;
#233=CARTESIAN_POINT('Axis2P3D Location',(2.5,2.5,1.22124532709E-015)) ;
#237=CARTESIAN_POINT('Vertex',(2.5,0.,1.37432617698E-015)) ;
#240=CARTESIAN_POINT('Line Origine',(2.5,0.,0.6)) ;
#244=CARTESIAN_POINT('Vertex',(2.5,0.,1.2)) ;
#247=CARTESIAN_POINT('Axis2P3D Location',(2.5,2.5,1.2)) ;
#259=CARTESIAN_POINT('Axis2P3D Location',(41.3,0.,1.34098824507E-015)) ;
#264=CARTESIAN_POINT('Line Origine',(21.9,0.,1.34098824507E-015)) ;
#269=CARTESIAN_POINT('Line Origine',(21.9,7.34788079488E-017,1.2)) ;
#281=CARTESIAN_POINT('Axis2P3D Location',(21.9,21.9,0.6)) ;
#286=CARTESIAN_POINT('Axis2P3D Location',(21.9,21.9,1.2)) ;
#290=CARTESIAN_POINT('Vertex',(32.4,21.9,1.2)) ;
#292=CARTESIAN_POINT('Vertex',(11.4,21.9,1.2)) ;
#295=CARTESIAN_POINT('Line Origine',(11.4,21.9,0.6)) ;
#299=CARTESIAN_POINT('Vertex',(11.4,21.9,0.)) ;
#302=CARTESIAN_POINT('Axis2P3D Location',(21.9,21.9,0.)) ;
#306=CARTESIAN_POINT('Vertex',(32.4,21.9,7.87373885897E-032)) ;
#309=CARTESIAN_POINT('Line Origine',(32.4,21.9,0.6)) ;
#321=CARTESIAN_POINT('Axis2P3D Location',(21.9,21.9,1.2)) ;
#326=CARTESIAN_POINT('Axis2P3D Location',(21.9,21.9,0.)) ;
#338=CARTESIAN_POINT('Axis2P3D Location',(21.9,21.9,0.)) ;
#358=CARTESIAN_POINT('Axis2P3D Location',(21.9,21.9,1.2)) ;
#34=DIRECTION('Axis2P3D Direction',(0.,6.12323399574E-017,1.)) ;
#35=DIRECTION('Axis2P3D XDirection',(-6.12323399574E-017,-1.,6.12323399574E-017)) ;
#39=DIRECTION('Vector Direction',(0.,0.,1.)) ;
#48=DIRECTION('Axis2P3D Direction',(0.,6.12323399574E-017,1.)) ;
#55=DIRECTION('Vector Direction',(0.,0.,1.)) ;
#62=DIRECTION('Axis2P3D Direction',(0.,6.12323399574E-017,1.)) ;
#74=DIRECTION('Axis2P3D Direction',(1.,-0.,0.)) ;
#75=DIRECTION('Axis2P3D XDirection',(0.,1.,-6.12323399574E-017)) ;
#79=DIRECTION('Vector Direction',(0.,1.,-6.12323399574E-017)) ;
#86=DIRECTION('Vector Direction',(0.,0.,1.)) ;
#93=DIRECTION('Vector Direction',(0.,1.,-5.72279909601E-017)) ;
#105=DIRECTION('Axis2P3D Direction',(0.,6.12323399574E-017,1.)) ;
#106=DIRECTION('Axis2P3D XDirection',(1.,-1.22464679915E-016,7.49879891331E-033)) ;
#110=DIRECTION('Axis2P3D Direction',(0.,6.12323399574E-017,1.)) ;
#117=DIRECTION('Vector Direction',(0.,0.,1.)) ;
#124=DIRECTION('Axis2P3D Direction',(0.,6.12323399574E-017,1.)) ;
#136=DIRECTION('Axis2P3D Direction',(0.,-1.,6.12323399574E-017)) ;
#137=DIRECTION('Axis2P3D XDirection',(1.,0.,0.)) ;
#141=DIRECTION('Vector Direction',(1.,0.,0.)) ;
#148=DIRECTION('Vector Direction',(0.,0.,1.)) ;
#155=DIRECTION('Vector Direction',(1.,0.,0.)) ;
#167=DIRECTION('Axis2P3D Direction',(0.,6.12323399574E-017,1.)) ;
#168=DIRECTION('Axis2P3D XDirection',(1.83697019872E-016,1.,-6.12323399574E-017)) ;
#172=DIRECTION('Axis2P3D Direction',(0.,6.12323399574E-017,1.)) ;
#179=DIRECTION('Vector Direction',(0.,0.,1.)) ;
#186=DIRECTION('Axis2P3D Direction',(0.,6.12323399574E-017,1.)) ;
#198=DIRECTION('Axis2P3D Direction',(-1.,0.,0.)) ;
#199=DIRECTION('Axis2P3D XDirection',(0.,-1.,6.12323399574E-017)) ;
#203=DIRECTION('Vector Direction',(0.,-1.,6.12323399574E-017)) ;
#210=DIRECTION('Vector Direction',(0.,0.,1.)) ;
#217=DIRECTION('Vector Direction',(0.,-1.,5.72279909601E-017)) ;
#229=DIRECTION('Axis2P3D Direction',(0.,6.12323399574E-017,1.)) ;
#230=DIRECTION('Axis2P3D XDirection',(-1.,0.,0.)) ;
#234=DIRECTION('Axis2P3D Direction',(0.,6.12323399574E-017,1.)) ;
#241=DIRECTION('Vector Direction',(0.,0.,1.)) ;
#248=DIRECTION('Axis2P3D Direction',(0.,6.12323399574E-017,1.)) ;
#260=DIRECTION('Axis2P3D Direction',(0.,1.,-6.12323399574E-017)) ;
#261=DIRECTION('Axis2P3D XDirection',(-1.,0.,0.)) ;
#265=DIRECTION('Vector Direction',(-1.,0.,0.)) ;
#270=DIRECTION('Vector Direction',(-1.,0.,0.)) ;
#282=DIRECTION('Axis2P3D Direction',(0.,6.12323399574E-017,1.)) ;
#283=DIRECTION('Axis2P3D XDirection',(-1.,0.,0.)) ;
#287=DIRECTION('Axis2P3D Direction',(0.,6.12323399574E-017,1.)) ;
#296=DIRECTION('Vector Direction',(0.,0.,1.)) ;
#303=DIRECTION('Axis2P3D Direction',(0.,6.12323399574E-017,1.)) ;
#310=DIRECTION('Vector Direction',(0.,0.,1.)) ;
#322=DIRECTION('Axis2P3D Direction',(0.,6.12323399574E-017,1.)) ;
#327=DIRECTION('Axis2P3D Direction',(0.,6.12323399574E-017,1.)) ;
#339=DIRECTION('Axis2P3D Direction',(0.,6.12323399574E-017,1.)) ;
#340=DIRECTION('Axis2P3D XDirection',(-1.,0.,0.)) ;
#359=DIRECTION('Axis2P3D Direction',(0.,6.12323399574E-017,1.)) ;
#360=DIRECTION('Axis2P3D XDirection',(-1.,0.,0.)) ;
#31=PRESENTATION_LAYER_ASSIGNMENT('1',' ',(#22)) ;
#8=PRODUCT_RELATED_PRODUCT_CATEGORY('part',$,(#5)) ;
#7=PRODUCT_CATEGORY('part','specification') ;
#30=STYLED_ITEM(' ',(#29),#22) ;
#29=PRESENTATION_STYLE_ASSIGNMENT((#28)) ;
#28=SURFACE_STYLE_USAGE(.BOTH.,#27) ;
#27=SURFACE_SIDE_STYLE(' ',(#26)) ;
#26=SURFACE_STYLE_FILL_AREA(#25) ;
#25=FILL_AREA_STYLE(' ',(#24)) ;
#24=FILL_AREA_STYLE_COLOUR(' ',#23) ;
#40=VECTOR('Line Direction',#39,1.) ;
#56=VECTOR('Line Direction',#55,1.) ;
#80=VECTOR('Line Direction',#79,1.) ;
#87=VECTOR('Line Direction',#86,1.) ;
#94=VECTOR('Line Direction',#93,1.) ;
#118=VECTOR('Line Direction',#117,1.) ;
#142=VECTOR('Line Direction',#141,1.) ;
#149=VECTOR('Line Direction',#148,1.) ;
#156=VECTOR('Line Direction',#155,1.) ;
#180=VECTOR('Line Direction',#179,1.) ;
#204=VECTOR('Line Direction',#203,1.) ;
#211=VECTOR('Line Direction',#210,1.) ;
#218=VECTOR('Line Direction',#217,1.) ;
#242=VECTOR('Line Direction',#241,1.) ;
#266=VECTOR('Line Direction',#265,1.) ;
#271=VECTOR('Line Direction',#270,1.) ;
#297=VECTOR('Line Direction',#296,1.) ;
#311=VECTOR('Line Direction',#310,1.) ;
#16=UNCERTAINTY_MEASURE_WITH_UNIT(LENGTH_MEASURE(0.005),#12,'distance_accuracy_value','CONFUSED CURVE UNCERTAINTY') ;
#379=SHAPE_REPRESENTATION_RELATIONSHIP(' ',' ',#20,#378) ;
#67=ORIENTED_EDGE('',*,*,#46,.F.) ;
#68=ORIENTED_EDGE('',*,*,#53,.T.) ;
#69=ORIENTED_EDGE('',*,*,#60,.T.) ;
#70=ORIENTED_EDGE('',*,*,#65,.F.) ;
#98=ORIENTED_EDGE('',*,*,#60,.F.) ;
#99=ORIENTED_EDGE('',*,*,#84,.T.) ;
#100=ORIENTED_EDGE('',*,*,#91,.T.) ;
#101=ORIENTED_EDGE('',*,*,#96,.F.) ;
#129=ORIENTED_EDGE('',*,*,#91,.F.) ;
#130=ORIENTED_EDGE('',*,*,#115,.T.) ;
#131=ORIENTED_EDGE('',*,*,#122,.T.) ;
#132=ORIENTED_EDGE('',*,*,#127,.F.) ;
#160=ORIENTED_EDGE('',*,*,#122,.F.) ;
#161=ORIENTED_EDGE('',*,*,#146,.T.) ;
#162=ORIENTED_EDGE('',*,*,#153,.T.) ;
#163=ORIENTED_EDGE('',*,*,#158,.F.) ;
#191=ORIENTED_EDGE('',*,*,#153,.F.) ;
#192=ORIENTED_EDGE('',*,*,#177,.T.) ;
#193=ORIENTED_EDGE('',*,*,#184,.T.) ;
#194=ORIENTED_EDGE('',*,*,#189,.F.) ;
#222=ORIENTED_EDGE('',*,*,#184,.F.) ;
#223=ORIENTED_EDGE('',*,*,#208,.T.) ;
#224=ORIENTED_EDGE('',*,*,#215,.T.) ;
#225=ORIENTED_EDGE('',*,*,#220,.F.) ;
#253=ORIENTED_EDGE('',*,*,#215,.F.) ;
#254=ORIENTED_EDGE('',*,*,#239,.T.) ;
#255=ORIENTED_EDGE('',*,*,#246,.T.) ;
#256=ORIENTED_EDGE('',*,*,#251,.F.) ;
#275=ORIENTED_EDGE('',*,*,#246,.F.) ;
#276=ORIENTED_EDGE('',*,*,#268,.T.) ;
#277=ORIENTED_EDGE('',*,*,#46,.T.) ;
#278=ORIENTED_EDGE('',*,*,#273,.F.) ;
#315=ORIENTED_EDGE('',*,*,#294,.T.) ;
#316=ORIENTED_EDGE('',*,*,#301,.F.) ;
#317=ORIENTED_EDGE('',*,*,#308,.F.) ;
#318=ORIENTED_EDGE('',*,*,#313,.T.) ;
#332=ORIENTED_EDGE('',*,*,#325,.T.) ;
#333=ORIENTED_EDGE('',*,*,#313,.F.) ;
#334=ORIENTED_EDGE('',*,*,#330,.F.) ;
#335=ORIENTED_EDGE('',*,*,#301,.T.) ;
#344=ORIENTED_EDGE('',*,*,#268,.F.) ;
#345=ORIENTED_EDGE('',*,*,#239,.F.) ;
#346=ORIENTED_EDGE('',*,*,#208,.F.) ;
#347=ORIENTED_EDGE('',*,*,#177,.F.) ;
#348=ORIENTED_EDGE('',*,*,#146,.F.) ;
#349=ORIENTED_EDGE('',*,*,#115,.F.) ;
#350=ORIENTED_EDGE('',*,*,#84,.F.) ;
#351=ORIENTED_EDGE('',*,*,#53,.F.) ;
#354=ORIENTED_EDGE('',*,*,#330,.T.) ;
#355=ORIENTED_EDGE('',*,*,#308,.T.) ;
#364=ORIENTED_EDGE('',*,*,#65,.T.) ;
#365=ORIENTED_EDGE('',*,*,#96,.T.) ;
#366=ORIENTED_EDGE('',*,*,#127,.T.) ;
#367=ORIENTED_EDGE('',*,*,#158,.T.) ;
#368=ORIENTED_EDGE('',*,*,#189,.T.) ;
#369=ORIENTED_EDGE('',*,*,#220,.T.) ;
#370=ORIENTED_EDGE('',*,*,#251,.T.) ;
#371=ORIENTED_EDGE('',*,*,#273,.T.) ;
#374=ORIENTED_EDGE('',*,*,#294,.F.) ;
#375=ORIENTED_EDGE('',*,*,#325,.F.) ;
#356=FACE_BOUND('',#353,.T.) ;
#376=FACE_BOUND('',#373,.T.) ;
#32=CLOSED_SHELL('Closed Shell',(#72,#103,#134,#165,#196,#227,#258,#280,#320,#337,#357,#377)) ;
#378=ADVANCED_BREP_SHAPE_REPRESENTATION('NONE',(#22),#17) ;
#72=ADVANCED_FACE('S3D gedreht',(#71),#37,.T.) ;
#103=ADVANCED_FACE('S3D gedreht',(#102),#77,.T.) ;
#134=ADVANCED_FACE('S3D gedreht',(#133),#108,.T.) ;
#165=ADVANCED_FACE('S3D gedreht',(#164),#139,.F.) ;
#196=ADVANCED_FACE('S3D gedreht',(#195),#170,.T.) ;
#227=ADVANCED_FACE('S3D gedreht',(#226),#201,.T.) ;
#258=ADVANCED_FACE('S3D gedreht',(#257),#232,.T.) ;
#280=ADVANCED_FACE('S3D gedreht',(#279),#263,.F.) ;
#320=ADVANCED_FACE('S3D gedreht',(#319),#285,.F.) ;
#337=ADVANCED_FACE('S3D gedreht',(#336),#285,.F.) ;
#357=ADVANCED_FACE('S3D gedreht',(#352,#356),#342,.F.) ;
#377=ADVANCED_FACE('S3D gedreht',(#372,#376),#362,.T.) ;
#4=APPLICATION_PROTOCOL_DEFINITION('international standard','automotive_design',2001,#1) ;
#22=MANIFOLD_SOLID_BREP('S3D gedreht',#32) ;
#50=CIRCLE('generated circle',#49,2.5) ;
#64=CIRCLE('generated circle',#63,2.5) ;
#112=CIRCLE('generated circle',#111,2.5) ;
#126=CIRCLE('generated circle',#125,2.5) ;
#174=CIRCLE('generated circle',#173,2.5) ;
#188=CIRCLE('generated circle',#187,2.5) ;
#236=CIRCLE('generated circle',#235,2.5) ;
#250=CIRCLE('generated circle',#249,2.5) ;
#289=CIRCLE('generated circle',#288,10.5) ;
#305=CIRCLE('generated circle',#304,10.5) ;
#324=CIRCLE('generated circle',#323,10.5) ;
#329=CIRCLE('generated circle',#328,10.5) ;
#37=CYLINDRICAL_SURFACE('generated cylinder',#36,2.5) ;
#108=CYLINDRICAL_SURFACE('generated cylinder',#107,2.5) ;
#170=CYLINDRICAL_SURFACE('generated cylinder',#169,2.5) ;
#232=CYLINDRICAL_SURFACE('generated cylinder',#231,2.5) ;
#285=CYLINDRICAL_SURFACE('generated cylinder',#284,10.5) ;
#23=DRAUGHTING_PRE_DEFINED_COLOUR('white') ;
#46=EDGE_CURVE('',#43,#45,#41,.T.) ;
#53=EDGE_CURVE('',#43,#52,#50,.T.) ;
#60=EDGE_CURVE('',#52,#59,#57,.T.) ;
#65=EDGE_CURVE('',#45,#59,#64,.T.) ;
#84=EDGE_CURVE('',#52,#83,#81,.T.) ;
#91=EDGE_CURVE('',#83,#90,#88,.T.) ;
#96=EDGE_CURVE('',#59,#90,#95,.T.) ;
#115=EDGE_CURVE('',#83,#114,#112,.T.) ;
#122=EDGE_CURVE('',#114,#121,#119,.T.) ;
#127=EDGE_CURVE('',#90,#121,#126,.T.) ;
#146=EDGE_CURVE('',#114,#145,#143,.F.) ;
#153=EDGE_CURVE('',#145,#152,#150,.T.) ;
#158=EDGE_CURVE('',#121,#152,#157,.F.) ;
#177=EDGE_CURVE('',#145,#176,#174,.T.) ;
#184=EDGE_CURVE('',#176,#183,#181,.T.) ;
#189=EDGE_CURVE('',#152,#183,#188,.T.) ;
#208=EDGE_CURVE('',#176,#207,#205,.T.) ;
#215=EDGE_CURVE('',#207,#214,#212,.T.) ;
#220=EDGE_CURVE('',#183,#214,#219,.T.) ;
#239=EDGE_CURVE('',#207,#238,#236,.T.) ;
#246=EDGE_CURVE('',#238,#245,#243,.T.) ;
#251=EDGE_CURVE('',#214,#245,#250,.T.) ;
#268=EDGE_CURVE('',#238,#43,#267,.F.) ;
#273=EDGE_CURVE('',#245,#45,#272,.F.) ;
#294=EDGE_CURVE('',#291,#293,#289,.T.) ;
#301=EDGE_CURVE('',#300,#293,#298,.T.) ;
#308=EDGE_CURVE('',#307,#300,#305,.T.) ;
#313=EDGE_CURVE('',#307,#291,#312,.T.) ;
#325=EDGE_CURVE('',#293,#291,#324,.T.) ;
#330=EDGE_CURVE('',#300,#307,#329,.T.) ;
#66=EDGE_LOOP('',(#67,#68,#69,#70)) ;
#97=EDGE_LOOP('',(#98,#99,#100,#101)) ;
#128=EDGE_LOOP('',(#129,#130,#131,#132)) ;
#159=EDGE_LOOP('',(#160,#161,#162,#163)) ;
#190=EDGE_LOOP('',(#191,#192,#193,#194)) ;
#221=EDGE_LOOP('',(#222,#223,#224,#225)) ;
#252=EDGE_LOOP('',(#253,#254,#255,#256)) ;
#274=EDGE_LOOP('',(#275,#276,#277,#278)) ;
#314=EDGE_LOOP('',(#315,#316,#317,#318)) ;
#331=EDGE_LOOP('',(#332,#333,#334,#335)) ;
#343=EDGE_LOOP('',(#344,#345,#346,#347,#348,#349,#350,#351)) ;
#353=EDGE_LOOP('',(#354,#355)) ;
#363=EDGE_LOOP('',(#364,#365,#366,#367,#368,#369,#370,#371)) ;
#373=EDGE_LOOP('',(#374,#375)) ;
#71=FACE_OUTER_BOUND('',#66,.T.) ;
#102=FACE_OUTER_BOUND('',#97,.T.) ;
#133=FACE_OUTER_BOUND('',#128,.T.) ;
#164=FACE_OUTER_BOUND('',#159,.T.) ;
#195=FACE_OUTER_BOUND('',#190,.T.) ;
#226=FACE_OUTER_BOUND('',#221,.T.) ;
#257=FACE_OUTER_BOUND('',#252,.T.) ;
#279=FACE_OUTER_BOUND('',#274,.T.) ;
#319=FACE_OUTER_BOUND('',#314,.T.) ;
#336=FACE_OUTER_BOUND('',#331,.T.) ;
#352=FACE_OUTER_BOUND('',#343,.T.) ;
#372=FACE_OUTER_BOUND('',#363,.T.) ;
#41=LINE('Line',#38,#40) ;
#57=LINE('Line',#54,#56) ;
#81=LINE('Line',#78,#80) ;
#88=LINE('Line',#85,#87) ;
#95=LINE('Line',#92,#94) ;
#119=LINE('Line',#116,#118) ;
#143=LINE('Line',#140,#142) ;
#150=LINE('Line',#147,#149) ;
#157=LINE('Line',#154,#156) ;
#181=LINE('Line',#178,#180) ;
#205=LINE('Line',#202,#204) ;
#212=LINE('Line',#209,#211) ;
#219=LINE('Line',#216,#218) ;
#243=LINE('Line',#240,#242) ;
#267=LINE('Line',#264,#266) ;
#272=LINE('Line',#269,#271) ;
#298=LINE('Line',#295,#297) ;
#312=LINE('Line',#309,#311) ;
#77=PLANE('',#76) ;
#139=PLANE('',#138) ;
#201=PLANE('',#200) ;
#263=PLANE('',#262) ;
#342=PLANE('',#341) ;
#362=PLANE('',#361) ;
#14=PLANE_ANGLE_MEASURE_WITH_UNIT(PLANE_ANGLE_MEASURE(0.0174532925199),#13) ;
#9=PRODUCT_CATEGORY_RELATIONSHIP(' ',' ',#7,#8) ;
#6=PRODUCT_DEFINITION_FORMATION_WITH_SPECIFIED_SOURCE('',' ',#5,.NOT_KNOWN.) ;
#21=SHAPE_DEFINITION_REPRESENTATION(#11,#20) ;
#43=VERTEX_POINT('',#42) ;
#45=VERTEX_POINT('',#44) ;
#52=VERTEX_POINT('',#51) ;
#59=VERTEX_POINT('',#58) ;
#83=VERTEX_POINT('',#82) ;
#90=VERTEX_POINT('',#89) ;
#114=VERTEX_POINT('',#113) ;
#121=VERTEX_POINT('',#120) ;
#145=VERTEX_POINT('',#144) ;
#152=VERTEX_POINT('',#151) ;
#176=VERTEX_POINT('',#175) ;
#183=VERTEX_POINT('',#182) ;
#207=VERTEX_POINT('',#206) ;
#214=VERTEX_POINT('',#213) ;
#238=VERTEX_POINT('',#237) ;
#245=VERTEX_POINT('',#244) ;
#291=VERTEX_POINT('',#290) ;
#293=VERTEX_POINT('',#292) ;
#300=VERTEX_POINT('',#299) ;
#307=VERTEX_POINT('',#306) ;
#12=(LENGTH_UNIT()NAMED_UNIT(*)SI_UNIT(.MILLI.,.METRE.)) ;
#13=(NAMED_UNIT(*)PLANE_ANGLE_UNIT()SI_UNIT($,.RADIAN.)) ;
#15=(NAMED_UNIT(*)SI_UNIT($,.STERADIAN.)SOLID_ANGLE_UNIT()) ;
#17=(GEOMETRIC_REPRESENTATION_CONTEXT(3)GLOBAL_UNCERTAINTY_ASSIGNED_CONTEXT((#16))GLOBAL_UNIT_ASSIGNED_CONTEXT((#12,#13,#15))REPRESENTATION_CONTEXT(' ',' ')) ;
ENDSEC;
END-ISO-10303-21;
