ISO-10303-21;
HEADER;
FILE_DESCRIPTION(('CATIA V5R20 STEP214'),'2;1');

FILE_NAME ('6657792_2', '2014-12-10T12:04:34+00:00', ('Weidmueller Interface'), ('Weidmueller'), 'CATIA Version 5 Release 20 SP 5 (IN-10)', 'CATIA V5 STEP AP214', 'none');

FILE_SCHEMA(('AUTOMOTIVE_DESIGN { 1 0 10303 214 1 1 1 1 }'));

ENDSEC;
/* file written by CATIA V5R20 */
DATA;
#5=PRODUCT('1865410000_RAHE_LN_WDT1-5','','',(#2)) ;
#2=PRODUCT_CONTEXT(' ',#1,'mechanical') ;
#1=APPLICATION_CONTEXT('automotive design') ;
#10=PRODUCT_DEFINITION('',' ',#6,#3) ;
#3=PRODUCT_DEFINITION_CONTEXT('part definition',#1,' ') ;
#11=PRODUCT_DEFINITION_SHAPE(' ',' ',#10) ;
#562=MECHANICAL_DESIGN_GEOMETRIC_PRESENTATION_REPRESENTATION(' ',(#30),#17) ;
#20=SHAPE_REPRESENTATION(' ',(#19),#17) ;
#19=AXIS2_PLACEMENT_3D(' ',#18,$,$) ;
#36=AXIS2_PLACEMENT_3D('Cylinder Axis2P3D',#33,#34,#35) ;
#40=AXIS2_PLACEMENT_3D('Circle Axis2P3D',#38,#39,$) ;
#56=AXIS2_PLACEMENT_3D('Circle Axis2P3D',#54,#55,$) ;
#75=AXIS2_PLACEMENT_3D('Circle Axis2P3D',#73,#74,$) ;
#80=AXIS2_PLACEMENT_3D('Circle Axis2P3D',#78,#79,$) ;
#93=AXIS2_PLACEMENT_3D('Plane Axis2P3D',#90,#91,#92) ;
#103=AXIS2_PLACEMENT_3D('Plane Axis2P3D',#100,#101,#102) ;
#123=AXIS2_PLACEMENT_3D('Circle Axis2P3D',#121,#122,$) ;
#130=AXIS2_PLACEMENT_3D('Circle Axis2P3D',#128,#129,$) ;
#137=AXIS2_PLACEMENT_3D('Circle Axis2P3D',#135,#136,$) ;
#171=AXIS2_PLACEMENT_3D('Plane Axis2P3D',#168,#169,#170) ;
#203=AXIS2_PLACEMENT_3D('Circle Axis2P3D',#201,#202,$) ;
#210=AXIS2_PLACEMENT_3D('Circle Axis2P3D',#208,#209,$) ;
#226=AXIS2_PLACEMENT_3D('Plane Axis2P3D',#223,#224,#225) ;
#250=AXIS2_PLACEMENT_3D('Cylinder Axis2P3D',#247,#248,#249) ;
#261=AXIS2_PLACEMENT_3D('Circle Axis2P3D',#259,#260,$) ;
#274=AXIS2_PLACEMENT_3D('Cylinder Axis2P3D',#271,#272,#273) ;
#285=AXIS2_PLACEMENT_3D('Circle Axis2P3D',#283,#284,$) ;
#298=AXIS2_PLACEMENT_3D('Cylinder Axis2P3D',#295,#296,#297) ;
#309=AXIS2_PLACEMENT_3D('Circle Axis2P3D',#307,#308,$) ;
#322=AXIS2_PLACEMENT_3D('Plane Axis2P3D',#319,#320,#321) ;
#350=AXIS2_PLACEMENT_3D('Circle Axis2P3D',#348,#349,$) ;
#357=AXIS2_PLACEMENT_3D('Circle Axis2P3D',#355,#356,$) ;
#373=AXIS2_PLACEMENT_3D('Plane Axis2P3D',#370,#371,#372) ;
#386=AXIS2_PLACEMENT_3D('Circle Axis2P3D',#384,#385,$) ;
#395=AXIS2_PLACEMENT_3D('Circle Axis2P3D',#393,#394,$) ;
#406=AXIS2_PLACEMENT_3D('Cylinder Axis2P3D',#403,#404,#405) ;
#424=AXIS2_PLACEMENT_3D('Circle Axis2P3D',#422,#423,$) ;
#437=AXIS2_PLACEMENT_3D('Circle Axis2P3D',#435,#436,$) ;
#451=AXIS2_PLACEMENT_3D('Cylinder Axis2P3D',#448,#449,#450) ;
#462=AXIS2_PLACEMENT_3D('Circle Axis2P3D',#460,#461,$) ;
#481=AXIS2_PLACEMENT_3D('Circle Axis2P3D',#479,#480,$) ;
#494=AXIS2_PLACEMENT_3D('Plane Axis2P3D',#491,#492,#493) ;
#504=AXIS2_PLACEMENT_3D('Plane Axis2P3D',#501,#502,#503) ;
#508=AXIS2_PLACEMENT_3D('Circle Axis2P3D',#506,#507,$) ;
#517=AXIS2_PLACEMENT_3D('Circle Axis2P3D',#515,#516,$) ;
#528=AXIS2_PLACEMENT_3D('Cone Axis2P3D',#525,#526,#527) ;
#559=AXIS2_PLACEMENT_3D('Achsensystem.2',#556,#557,#558) ;
#18=CARTESIAN_POINT(' ',(0.,0.,0.)) ;
#33=CARTESIAN_POINT('Axis2P3D Location',(1.1,2.5,25.5)) ;
#38=CARTESIAN_POINT('Axis2P3D Location',(2.22044604925E-015,2.5,25.5)) ;
#42=CARTESIAN_POINT('Vertex',(2.51675916334E-015,1.78086169209,26.8163738428)) ;
#44=CARTESIAN_POINT('Vertex',(1.92413293516E-015,3.21913830791,24.1836261572)) ;
#47=CARTESIAN_POINT('Line Origine',(1.1,1.78086169209,26.8163738428)) ;
#51=CARTESIAN_POINT('Vertex',(2.2,1.78086169209,26.8163738428)) ;
#54=CARTESIAN_POINT('Axis2P3D Location',(2.2,2.5,25.5)) ;
#58=CARTESIAN_POINT('Vertex',(2.2,3.21913830791,24.1836261572)) ;
#61=CARTESIAN_POINT('Line Origine',(1.1,3.21913830791,24.1836261572)) ;
#73=CARTESIAN_POINT('Axis2P3D Location',(2.22044604925E-015,2.5,25.5)) ;
#78=CARTESIAN_POINT('Axis2P3D Location',(2.2,2.5,25.5)) ;
#90=CARTESIAN_POINT('Axis2P3D Location',(2.2,2.5,25.5)) ;
#100=CARTESIAN_POINT('Axis2P3D Location',(-1.03009779493E-015,2.5,7.5)) ;
#105=CARTESIAN_POINT('Line Origine',(-5.15048897467E-016,1.25,7.5)) ;
#109=CARTESIAN_POINT('Vertex',(-5.91645678916E-031,1.7763568394E-015,7.5)) ;
#111=CARTESIAN_POINT('Vertex',(-1.03009779493E-015,2.5,7.5)) ;
#114=CARTESIAN_POINT('Line Origine',(-5.91645678916E-031,1.7763568394E-015,9.68646407266)) ;
#118=CARTESIAN_POINT('Vertex',(1.57772181044E-030,-3.5527136788E-015,11.8729281453)) ;
#121=CARTESIAN_POINT('Axis2P3D Location',(5.56252809264E-015,-13.5,18.4112765606)) ;
#125=CARTESIAN_POINT('Vertex',(-8.82940967086E-017,0.214285714286,24.4873252229)) ;
#128=CARTESIAN_POINT('Axis2P3D Location',(-1.03009779493E-015,2.5,25.5)) ;
#132=CARTESIAN_POINT('Vertex',(-1.97190149316E-015,4.78571428571,24.4873252229)) ;
#135=CARTESIAN_POINT('Axis2P3D Location',(-7.62272368251E-015,18.5,18.4112765606)) ;
#139=CARTESIAN_POINT('Vertex',(-2.06019558987E-015,5.,11.8729281453)) ;
#142=CARTESIAN_POINT('Line Origine',(-2.06019558987E-015,5.,9.68646407266)) ;
#146=CARTESIAN_POINT('Vertex',(-2.06019558987E-015,5.,7.5)) ;
#149=CARTESIAN_POINT('Line Origine',(-1.5451466924E-015,3.75,7.5)) ;
#168=CARTESIAN_POINT('Axis2P3D Location',(3.2,0.6,7.5)) ;
#173=CARTESIAN_POINT('Line Origine',(0.65,2.5,7.5)) ;
#177=CARTESIAN_POINT('Vertex',(1.3,2.5,7.5)) ;
#180=CARTESIAN_POINT('Line Origine',(3.2,5.,7.5)) ;
#184=CARTESIAN_POINT('Vertex',(6.4,5.,7.5)) ;
#187=CARTESIAN_POINT('Line Origine',(6.4,3.75,7.5)) ;
#191=CARTESIAN_POINT('Vertex',(6.4,2.5,7.5)) ;
#194=CARTESIAN_POINT('Line Origine',(5.75,2.5,7.5)) ;
#198=CARTESIAN_POINT('Vertex',(5.1,2.5,7.5)) ;
#201=CARTESIAN_POINT('Axis2P3D Location',(3.2,2.5,7.5)) ;
#205=CARTESIAN_POINT('Vertex',(4.11090852335,4.16740686759,7.5)) ;
#208=CARTESIAN_POINT('Axis2P3D Location',(3.2,2.5,7.5)) ;
#223=CARTESIAN_POINT('Axis2P3D Location',(3.2,5.,7.5)) ;
#228=CARTESIAN_POINT('Line Origine',(3.2,5.,11.8729281453)) ;
#232=CARTESIAN_POINT('Vertex',(6.4,5.,11.8729281453)) ;
#235=CARTESIAN_POINT('Line Origine',(6.4,5.,9.68646407266)) ;
#247=CARTESIAN_POINT('Axis2P3D Location',(3.2,18.5,18.4112765606)) ;
#252=CARTESIAN_POINT('Line Origine',(3.2,4.78571428571,24.4873252229)) ;
#256=CARTESIAN_POINT('Vertex',(6.4,4.78571428571,24.4873252229)) ;
#259=CARTESIAN_POINT('Axis2P3D Location',(6.4,18.5,18.4112765606)) ;
#271=CARTESIAN_POINT('Axis2P3D Location',(3.2,2.5,25.5)) ;
#276=CARTESIAN_POINT('Line Origine',(3.2,0.214285714286,24.4873252229)) ;
#280=CARTESIAN_POINT('Vertex',(6.4,0.214285714286,24.4873252229)) ;
#283=CARTESIAN_POINT('Axis2P3D Location',(6.4,2.5,25.5)) ;
#295=CARTESIAN_POINT('Axis2P3D Location',(3.2,-13.5,18.4112765606)) ;
#300=CARTESIAN_POINT('Line Origine',(3.2,-8.881784197E-015,11.8729281453)) ;
#304=CARTESIAN_POINT('Vertex',(6.4,-3.5527136788E-015,11.8729281453)) ;
#307=CARTESIAN_POINT('Axis2P3D Location',(6.4,-13.5,18.4112765606)) ;
#319=CARTESIAN_POINT('Axis2P3D Location',(3.2,3.34923731227E-033,7.5)) ;
#324=CARTESIAN_POINT('Line Origine',(3.2,3.34923731227E-033,7.5)) ;
#328=CARTESIAN_POINT('Vertex',(6.4,1.7763568394E-015,7.5)) ;
#331=CARTESIAN_POINT('Line Origine',(6.4,6.69847462454E-033,9.68646407266)) ;
#343=CARTESIAN_POINT('Line Origine',(6.4,1.25,7.5)) ;
#348=CARTESIAN_POINT('Axis2P3D Location',(3.2,2.5,7.5)) ;
#352=CARTESIAN_POINT('Vertex',(2.28909147665,0.832593132408,7.5)) ;
#355=CARTESIAN_POINT('Axis2P3D Location',(3.2,2.5,7.5)) ;
#370=CARTESIAN_POINT('Axis2P3D Location',(6.4,2.5,7.5)) ;
#384=CARTESIAN_POINT('Axis2P3D Location',(6.4,2.5,25.5)) ;
#388=CARTESIAN_POINT('Vertex',(6.4,1.78086169209,26.8163738428)) ;
#390=CARTESIAN_POINT('Vertex',(6.4,3.21913830791,24.1836261572)) ;
#393=CARTESIAN_POINT('Axis2P3D Location',(6.4,2.5,25.5)) ;
#403=CARTESIAN_POINT('Axis2P3D Location',(3.2,2.5,3.75)) ;
#408=CARTESIAN_POINT('Line Origine',(4.11090852335,4.16740686759,3.75)) ;
#412=CARTESIAN_POINT('Vertex',(4.11090852335,4.16740686759,1.29089653438)) ;
#415=CARTESIAN_POINT('Line Origine',(2.28909147665,0.832593132408,3.75)) ;
#419=CARTESIAN_POINT('Vertex',(2.28909147665,0.832593132408,1.29089653438)) ;
#422=CARTESIAN_POINT('Axis2P3D Location',(3.2,2.5,1.29089653438)) ;
#435=CARTESIAN_POINT('Axis2P3D Location',(3.2,2.5,1.29089653438)) ;
#448=CARTESIAN_POINT('Axis2P3D Location',(7.4,2.5,25.5)) ;
#453=CARTESIAN_POINT('Line Origine',(7.4,3.21913830791,24.1836261572)) ;
#457=CARTESIAN_POINT('Vertex',(8.4,3.21913830791,24.1836261572)) ;
#460=CARTESIAN_POINT('Axis2P3D Location',(8.4,2.5,25.5)) ;
#464=CARTESIAN_POINT('Vertex',(8.4,1.78086169209,26.8163738428)) ;
#467=CARTESIAN_POINT('Line Origine',(7.4,1.78086169209,26.8163738428)) ;
#479=CARTESIAN_POINT('Axis2P3D Location',(8.4,2.5,25.5)) ;
#491=CARTESIAN_POINT('Axis2P3D Location',(8.4,2.5,25.5)) ;
#501=CARTESIAN_POINT('Axis2P3D Location',(3.2,0.6,0.)) ;
#506=CARTESIAN_POINT('Axis2P3D Location',(3.2,2.5,-6.52005858861E-018)) ;
#510=CARTESIAN_POINT('Vertex',(2.64640707246,1.48665494331,-1.99840144433E-015)) ;
#512=CARTESIAN_POINT('Vertex',(3.75359292754,3.51334505669,-2.22044604925E-015)) ;
#515=CARTESIAN_POINT('Axis2P3D Location',(3.2,2.5,-6.52005858861E-018)) ;
#525=CARTESIAN_POINT('Axis2P3D Location',(3.2,2.5,-2.)) ;
#530=CARTESIAN_POINT('Line Origine',(2.38551623291,1.00909746481,0.942536750638)) ;
#535=CARTESIAN_POINT('Line Origine',(4.01448376709,3.99090253519,0.942536750638)) ;
#556=CARTESIAN_POINT('Axis2P3D Location',(0.,0.,0.)) ;
#34=DIRECTION('Axis2P3D Direction',(1.,4.12039117974E-016,-0.)) ;
#35=DIRECTION('Axis2P3D XDirection',(1.9754207606E-016,-0.479425538604,0.87758256189)) ;
#39=DIRECTION('Axis2P3D Direction',(1.,4.12039117974E-016,-0.)) ;
#48=DIRECTION('Vector Direction',(1.,4.037174635E-016,0.)) ;
#55=DIRECTION('Axis2P3D Direction',(1.,4.12039117974E-016,-0.)) ;
#62=DIRECTION('Vector Direction',(1.,4.037174635E-016,0.)) ;
#74=DIRECTION('Axis2P3D Direction',(1.,4.12039117974E-016,-0.)) ;
#79=DIRECTION('Axis2P3D Direction',(1.,4.12039117974E-016,-0.)) ;
#91=DIRECTION('Axis2P3D Direction',(1.,4.12039117974E-016,-0.)) ;
#92=DIRECTION('Axis2P3D XDirection',(-4.12039117974E-016,1.,-3.43160978348E-018)) ;
#101=DIRECTION('Axis2P3D Direction',(1.,4.12039117974E-016,-0.)) ;
#102=DIRECTION('Axis2P3D XDirection',(-4.12039117974E-016,1.,-3.43160978348E-018)) ;
#106=DIRECTION('Vector Direction',(4.12039117974E-016,-1.,0.)) ;
#115=DIRECTION('Vector Direction',(0.,0.,1.)) ;
#122=DIRECTION('Axis2P3D Direction',(1.,4.12039117974E-016,-0.)) ;
#129=DIRECTION('Axis2P3D Direction',(1.,4.12039117974E-016,-0.)) ;
#136=DIRECTION('Axis2P3D Direction',(1.,4.12039117974E-016,-0.)) ;
#143=DIRECTION('Vector Direction',(0.,0.,1.)) ;
#150=DIRECTION('Vector Direction',(-4.12039117974E-016,1.,0.)) ;
#169=DIRECTION('Axis2P3D Direction',(3.69983991361E-018,-3.43160978348E-018,-1.)) ;
#170=DIRECTION('Axis2P3D XDirection',(-4.12039117974E-016,1.,-3.43160978348E-018)) ;
#174=DIRECTION('Vector Direction',(1.,0.,0.)) ;
#181=DIRECTION('Vector Direction',(1.,0.,0.)) ;
#188=DIRECTION('Vector Direction',(-7.1054273576E-016,1.,0.)) ;
#195=DIRECTION('Vector Direction',(1.,0.,0.)) ;
#202=DIRECTION('Axis2P3D Direction',(3.69983991361E-018,-3.43160978348E-018,-1.)) ;
#209=DIRECTION('Axis2P3D Direction',(3.69983991361E-018,-3.43160978348E-018,-1.)) ;
#224=DIRECTION('Axis2P3D Direction',(-1.04663666009E-033,1.,0.)) ;
#225=DIRECTION('Axis2P3D XDirection',(0.,0.,1.)) ;
#229=DIRECTION('Vector Direction',(1.,0.,0.)) ;
#236=DIRECTION('Vector Direction',(0.,0.,1.)) ;
#248=DIRECTION('Axis2P3D Direction',(1.,4.12039117974E-016,-0.)) ;
#249=DIRECTION('Axis2P3D XDirection',(3.7672147929E-016,-0.914285714286,0.405069910822)) ;
#253=DIRECTION('Vector Direction',(1.,0.,0.)) ;
#260=DIRECTION('Axis2P3D Direction',(1.,4.12039117974E-016,-0.)) ;
#272=DIRECTION('Axis2P3D Direction',(1.,4.12039117974E-016,-0.)) ;
#273=DIRECTION('Axis2P3D XDirection',(-3.7672147929E-016,0.914285714286,-0.405069910822)) ;
#277=DIRECTION('Vector Direction',(1.,4.16333634234E-016,0.)) ;
#284=DIRECTION('Axis2P3D Direction',(1.,4.12039117974E-016,-0.)) ;
#296=DIRECTION('Axis2P3D Direction',(1.,4.12039117974E-016,-0.)) ;
#297=DIRECTION('Axis2P3D XDirection',(-3.70835206176E-016,0.9,-0.435889894354)) ;
#301=DIRECTION('Vector Direction',(1.,5.55111512313E-016,0.)) ;
#308=DIRECTION('Axis2P3D Direction',(1.,4.12039117974E-016,-0.)) ;
#320=DIRECTION('Axis2P3D Direction',(-1.04663666009E-033,1.,0.)) ;
#321=DIRECTION('Axis2P3D XDirection',(0.,0.,1.)) ;
#325=DIRECTION('Vector Direction',(1.,1.04663666009E-033,0.)) ;
#332=DIRECTION('Vector Direction',(0.,0.,1.)) ;
#344=DIRECTION('Vector Direction',(3.5527136788E-016,-1.,0.)) ;
#349=DIRECTION('Axis2P3D Direction',(3.69983991361E-018,-3.43160978348E-018,-1.)) ;
#356=DIRECTION('Axis2P3D Direction',(3.69983991361E-018,-3.43160978348E-018,-1.)) ;
#371=DIRECTION('Axis2P3D Direction',(1.,4.12039117974E-016,-0.)) ;
#372=DIRECTION('Axis2P3D XDirection',(-4.12039117974E-016,1.,-3.43160978348E-018)) ;
#385=DIRECTION('Axis2P3D Direction',(1.,4.12039117974E-016,-0.)) ;
#394=DIRECTION('Axis2P3D Direction',(1.,4.12039117974E-016,-0.)) ;
#404=DIRECTION('Axis2P3D Direction',(3.69983991361E-018,-3.43160978348E-018,-1.)) ;
#405=DIRECTION('Axis2P3D XDirection',(-0.479425538604,-0.87758256189,1.23772316186E-018)) ;
#409=DIRECTION('Vector Direction',(0.,0.,-1.)) ;
#416=DIRECTION('Vector Direction',(0.,0.,-1.)) ;
#423=DIRECTION('Axis2P3D Direction',(3.69983991361E-018,-3.43160978348E-018,-1.)) ;
#436=DIRECTION('Axis2P3D Direction',(3.69983991361E-018,-3.43160978348E-018,-1.)) ;
#449=DIRECTION('Axis2P3D Direction',(1.,4.12039117974E-016,-0.)) ;
#450=DIRECTION('Axis2P3D XDirection',(1.9754207606E-016,-0.479425538604,0.87758256189)) ;
#454=DIRECTION('Vector Direction',(1.,4.4408920985E-016,0.)) ;
#461=DIRECTION('Axis2P3D Direction',(1.,4.12039117974E-016,-0.)) ;
#468=DIRECTION('Vector Direction',(1.,4.4408920985E-016,0.)) ;
#480=DIRECTION('Axis2P3D Direction',(1.,4.12039117974E-016,-0.)) ;
#492=DIRECTION('Axis2P3D Direction',(1.,4.12039117974E-016,-0.)) ;
#493=DIRECTION('Axis2P3D XDirection',(-4.12039117974E-016,1.,-3.43160978348E-018)) ;
#502=DIRECTION('Axis2P3D Direction',(3.69983991361E-018,-3.43160978348E-018,-1.)) ;
#503=DIRECTION('Axis2P3D XDirection',(-4.12039117974E-016,1.,-3.43160978348E-018)) ;
#507=DIRECTION('Axis2P3D Direction',(3.69983991361E-018,-3.43160978348E-018,-1.)) ;
#516=DIRECTION('Axis2P3D Direction',(3.69983991361E-018,-3.43160978348E-018,-1.)) ;
#526=DIRECTION('Axis2P3D Direction',(0.,0.,1.)) ;
#527=DIRECTION('Axis2P3D XDirection',(0.479425538604,0.87758256189,0.)) ;
#531=DIRECTION('Vector Direction',(-0.239712769302,-0.438791280945,0.866025403784)) ;
#536=DIRECTION('Vector Direction',(0.239712769302,0.438791280945,0.866025403784)) ;
#557=DIRECTION('Axis2P3D Direction',(0.,0.,1.)) ;
#558=DIRECTION('Axis2P3D XDirection',(1.,0.,0.)) ;
#31=PRESENTATION_LAYER_ASSIGNMENT('1',' ',(#22)) ;
#8=PRODUCT_RELATED_PRODUCT_CATEGORY('part',$,(#5)) ;
#7=PRODUCT_CATEGORY('part','specification') ;
#30=STYLED_ITEM(' ',(#29),#22) ;
#29=PRESENTATION_STYLE_ASSIGNMENT((#28)) ;
#28=SURFACE_STYLE_USAGE(.BOTH.,#27) ;
#27=SURFACE_SIDE_STYLE(' ',(#26)) ;
#26=SURFACE_STYLE_FILL_AREA(#25) ;
#25=FILL_AREA_STYLE(' ',(#24)) ;
#24=FILL_AREA_STYLE_COLOUR(' ',#23) ;
#49=VECTOR('Line Direction',#48,1.) ;
#63=VECTOR('Line Direction',#62,1.) ;
#107=VECTOR('Line Direction',#106,1.) ;
#116=VECTOR('Line Direction',#115,1.) ;
#144=VECTOR('Line Direction',#143,1.) ;
#151=VECTOR('Line Direction',#150,1.) ;
#175=VECTOR('Line Direction',#174,1.) ;
#182=VECTOR('Line Direction',#181,1.) ;
#189=VECTOR('Line Direction',#188,1.) ;
#196=VECTOR('Line Direction',#195,1.) ;
#230=VECTOR('Line Direction',#229,1.) ;
#237=VECTOR('Line Direction',#236,1.) ;
#254=VECTOR('Line Direction',#253,1.) ;
#278=VECTOR('Line Direction',#277,1.) ;
#302=VECTOR('Line Direction',#301,1.) ;
#326=VECTOR('Line Direction',#325,1.) ;
#333=VECTOR('Line Direction',#332,1.) ;
#345=VECTOR('Line Direction',#344,1.) ;
#410=VECTOR('Line Direction',#409,1.) ;
#417=VECTOR('Line Direction',#416,1.) ;
#455=VECTOR('Line Direction',#454,1.) ;
#469=VECTOR('Line Direction',#468,1.) ;
#532=VECTOR('Line Direction',#531,1.) ;
#537=VECTOR('Line Direction',#536,1.) ;
#16=UNCERTAINTY_MEASURE_WITH_UNIT(LENGTH_MEASURE(0.005),#12,'distance_accuracy_value','CONFUSED CURVE UNCERTAINTY') ;
#555=SHAPE_REPRESENTATION_RELATIONSHIP(' ',' ',#20,#554) ;
#67=ORIENTED_EDGE('',*,*,#46,.F.) ;
#68=ORIENTED_EDGE('',*,*,#53,.T.) ;
#69=ORIENTED_EDGE('',*,*,#60,.T.) ;
#70=ORIENTED_EDGE('',*,*,#65,.F.) ;
#84=ORIENTED_EDGE('',*,*,#77,.F.) ;
#85=ORIENTED_EDGE('',*,*,#65,.T.) ;
#86=ORIENTED_EDGE('',*,*,#82,.T.) ;
#87=ORIENTED_EDGE('',*,*,#53,.F.) ;
#96=ORIENTED_EDGE('',*,*,#60,.F.) ;
#97=ORIENTED_EDGE('',*,*,#82,.F.) ;
#155=ORIENTED_EDGE('',*,*,#113,.F.) ;
#156=ORIENTED_EDGE('',*,*,#120,.F.) ;
#157=ORIENTED_EDGE('',*,*,#127,.F.) ;
#158=ORIENTED_EDGE('',*,*,#134,.F.) ;
#159=ORIENTED_EDGE('',*,*,#141,.F.) ;
#160=ORIENTED_EDGE('',*,*,#148,.F.) ;
#161=ORIENTED_EDGE('',*,*,#153,.F.) ;
#164=ORIENTED_EDGE('',*,*,#77,.T.) ;
#165=ORIENTED_EDGE('',*,*,#46,.T.) ;
#214=ORIENTED_EDGE('',*,*,#179,.F.) ;
#215=ORIENTED_EDGE('',*,*,#153,.T.) ;
#216=ORIENTED_EDGE('',*,*,#186,.T.) ;
#217=ORIENTED_EDGE('',*,*,#193,.F.) ;
#218=ORIENTED_EDGE('',*,*,#200,.F.) ;
#219=ORIENTED_EDGE('',*,*,#207,.F.) ;
#220=ORIENTED_EDGE('',*,*,#212,.F.) ;
#241=ORIENTED_EDGE('',*,*,#186,.F.) ;
#242=ORIENTED_EDGE('',*,*,#148,.T.) ;
#243=ORIENTED_EDGE('',*,*,#234,.T.) ;
#244=ORIENTED_EDGE('',*,*,#239,.F.) ;
#265=ORIENTED_EDGE('',*,*,#234,.F.) ;
#266=ORIENTED_EDGE('',*,*,#141,.T.) ;
#267=ORIENTED_EDGE('',*,*,#258,.T.) ;
#268=ORIENTED_EDGE('',*,*,#263,.F.) ;
#289=ORIENTED_EDGE('',*,*,#258,.F.) ;
#290=ORIENTED_EDGE('',*,*,#134,.T.) ;
#291=ORIENTED_EDGE('',*,*,#282,.T.) ;
#292=ORIENTED_EDGE('',*,*,#287,.F.) ;
#313=ORIENTED_EDGE('',*,*,#282,.F.) ;
#314=ORIENTED_EDGE('',*,*,#127,.T.) ;
#315=ORIENTED_EDGE('',*,*,#306,.T.) ;
#316=ORIENTED_EDGE('',*,*,#311,.F.) ;
#337=ORIENTED_EDGE('',*,*,#306,.F.) ;
#338=ORIENTED_EDGE('',*,*,#120,.T.) ;
#339=ORIENTED_EDGE('',*,*,#330,.T.) ;
#340=ORIENTED_EDGE('',*,*,#335,.F.) ;
#361=ORIENTED_EDGE('',*,*,#200,.T.) ;
#362=ORIENTED_EDGE('',*,*,#347,.F.) ;
#363=ORIENTED_EDGE('',*,*,#330,.F.) ;
#364=ORIENTED_EDGE('',*,*,#113,.T.) ;
#365=ORIENTED_EDGE('',*,*,#179,.T.) ;
#366=ORIENTED_EDGE('',*,*,#354,.F.) ;
#367=ORIENTED_EDGE('',*,*,#359,.F.) ;
#376=ORIENTED_EDGE('',*,*,#193,.T.) ;
#377=ORIENTED_EDGE('',*,*,#239,.T.) ;
#378=ORIENTED_EDGE('',*,*,#263,.T.) ;
#379=ORIENTED_EDGE('',*,*,#287,.T.) ;
#380=ORIENTED_EDGE('',*,*,#311,.T.) ;
#381=ORIENTED_EDGE('',*,*,#335,.T.) ;
#382=ORIENTED_EDGE('',*,*,#347,.T.) ;
#399=ORIENTED_EDGE('',*,*,#392,.F.) ;
#400=ORIENTED_EDGE('',*,*,#397,.F.) ;
#428=ORIENTED_EDGE('',*,*,#414,.F.) ;
#429=ORIENTED_EDGE('',*,*,#207,.T.) ;
#430=ORIENTED_EDGE('',*,*,#359,.T.) ;
#431=ORIENTED_EDGE('',*,*,#421,.T.) ;
#432=ORIENTED_EDGE('',*,*,#426,.T.) ;
#441=ORIENTED_EDGE('',*,*,#421,.F.) ;
#442=ORIENTED_EDGE('',*,*,#354,.T.) ;
#443=ORIENTED_EDGE('',*,*,#212,.T.) ;
#444=ORIENTED_EDGE('',*,*,#414,.T.) ;
#445=ORIENTED_EDGE('',*,*,#439,.F.) ;
#473=ORIENTED_EDGE('',*,*,#459,.T.) ;
#474=ORIENTED_EDGE('',*,*,#466,.F.) ;
#475=ORIENTED_EDGE('',*,*,#471,.F.) ;
#476=ORIENTED_EDGE('',*,*,#392,.T.) ;
#485=ORIENTED_EDGE('',*,*,#471,.T.) ;
#486=ORIENTED_EDGE('',*,*,#483,.F.) ;
#487=ORIENTED_EDGE('',*,*,#459,.F.) ;
#488=ORIENTED_EDGE('',*,*,#397,.T.) ;
#497=ORIENTED_EDGE('',*,*,#483,.T.) ;
#498=ORIENTED_EDGE('',*,*,#466,.T.) ;
#521=ORIENTED_EDGE('',*,*,#514,.T.) ;
#522=ORIENTED_EDGE('',*,*,#519,.T.) ;
#541=ORIENTED_EDGE('',*,*,#514,.F.) ;
#542=ORIENTED_EDGE('',*,*,#534,.F.) ;
#543=ORIENTED_EDGE('',*,*,#439,.T.) ;
#544=ORIENTED_EDGE('',*,*,#539,.T.) ;
#548=ORIENTED_EDGE('',*,*,#519,.F.) ;
#549=ORIENTED_EDGE('',*,*,#539,.F.) ;
#550=ORIENTED_EDGE('',*,*,#426,.F.) ;
#551=ORIENTED_EDGE('',*,*,#534,.T.) ;
#166=FACE_BOUND('',#163,.T.) ;
#401=FACE_BOUND('',#398,.T.) ;
#32=CLOSED_SHELL('Closed Shell',(#72,#89,#99,#167,#222,#246,#270,#294,#318,#342,#369,#402,#434,#447,#478,#490,#500,#524,#546,#553)) ;
#554=ADVANCED_BREP_SHAPE_REPRESENTATION('NONE',(#22),#17) ;
#72=ADVANCED_FACE('RAHE_LN_WDT1-5',(#71),#37,.F.) ;
#89=ADVANCED_FACE('RAHE_LN_WDT1-5',(#88),#37,.F.) ;
#99=ADVANCED_FACE('RAHE_LN_WDT1-5',(#98),#94,.F.) ;
#167=ADVANCED_FACE('RAHE_LN_WDT1-5',(#162,#166),#104,.F.) ;
#222=ADVANCED_FACE('RAHE_LN_WDT1-5',(#221),#172,.T.) ;
#246=ADVANCED_FACE('RAHE_LN_WDT1-5',(#245),#227,.T.) ;
#270=ADVANCED_FACE('RAHE_LN_WDT1-5',(#269),#251,.F.) ;
#294=ADVANCED_FACE('RAHE_LN_WDT1-5',(#293),#275,.T.) ;
#318=ADVANCED_FACE('RAHE_LN_WDT1-5',(#317),#299,.F.) ;
#342=ADVANCED_FACE('RAHE_LN_WDT1-5',(#341),#323,.F.) ;
#369=ADVANCED_FACE('RAHE_LN_WDT1-5',(#368),#172,.T.) ;
#402=ADVANCED_FACE('RAHE_LN_WDT1-5',(#383,#401),#374,.T.) ;
#434=ADVANCED_FACE('RAHE_LN_WDT1-5',(#433),#407,.T.) ;
#447=ADVANCED_FACE('RAHE_LN_WDT1-5',(#446),#407,.T.) ;
#478=ADVANCED_FACE('RAHE_LN_WDT1-5',(#477),#452,.T.) ;
#490=ADVANCED_FACE('RAHE_LN_WDT1-5',(#489),#452,.T.) ;
#500=ADVANCED_FACE('RAHE_LN_WDT1-5',(#499),#495,.T.) ;
#524=ADVANCED_FACE('RAHE_LN_WDT1-5',(#523),#505,.T.) ;
#546=ADVANCED_FACE('RAHE_LN_WDT1-5',(#545),#529,.T.) ;
#553=ADVANCED_FACE('RAHE_LN_WDT1-5',(#552),#529,.T.) ;
#4=APPLICATION_PROTOCOL_DEFINITION('international standard','automotive_design',2001,#1) ;
#22=MANIFOLD_SOLID_BREP('RAHE_LN_WDT1-5',#32) ;
#41=CIRCLE('generated circle',#40,1.5) ;
#57=CIRCLE('generated circle',#56,1.5) ;
#76=CIRCLE('generated circle',#75,1.5) ;
#81=CIRCLE('generated circle',#80,1.5) ;
#124=CIRCLE('generated circle',#123,15.) ;
#131=CIRCLE('generated circle',#130,2.5) ;
#138=CIRCLE('generated circle',#137,15.) ;
#204=CIRCLE('generated circle',#203,1.9) ;
#211=CIRCLE('generated circle',#210,1.9) ;
#262=CIRCLE('generated circle',#261,15.) ;
#286=CIRCLE('generated circle',#285,2.5) ;
#310=CIRCLE('generated circle',#309,15.) ;
#351=CIRCLE('generated circle',#350,1.9) ;
#358=CIRCLE('generated circle',#357,1.9) ;
#387=CIRCLE('generated circle',#386,1.5) ;
#396=CIRCLE('generated circle',#395,1.5) ;
#425=CIRCLE('generated circle',#424,1.9) ;
#438=CIRCLE('generated circle',#437,1.9) ;
#463=CIRCLE('generated circle',#462,1.5) ;
#482=CIRCLE('generated circle',#481,1.5) ;
#509=CIRCLE('generated circle',#508,1.15470053838) ;
#518=CIRCLE('generated circle',#517,1.15470053838) ;
#23=COLOUR_RGB('Colour',0.274509803922,0.235294117647,0.270588235294) ;
#529=CONICAL_SURFACE('Cone',#528,1.7763568394E-015,0.523598775598) ;
#560=CONSTRUCTIVE_GEOMETRY_REPRESENTATION('supplemental geometry',(#559),#17) ;
#561=CONSTRUCTIVE_GEOMETRY_REPRESENTATION_RELATIONSHIP('supplemental geometry','',#20,#560) ;
#37=CYLINDRICAL_SURFACE('generated cylinder',#36,1.5) ;
#251=CYLINDRICAL_SURFACE('generated cylinder',#250,15.) ;
#275=CYLINDRICAL_SURFACE('generated cylinder',#274,2.5) ;
#299=CYLINDRICAL_SURFACE('generated cylinder',#298,15.) ;
#407=CYLINDRICAL_SURFACE('generated cylinder',#406,1.9) ;
#452=CYLINDRICAL_SURFACE('generated cylinder',#451,1.5) ;
#46=EDGE_CURVE('',#43,#45,#41,.T.) ;
#53=EDGE_CURVE('',#43,#52,#50,.T.) ;
#60=EDGE_CURVE('',#52,#59,#57,.T.) ;
#65=EDGE_CURVE('',#45,#59,#64,.T.) ;
#77=EDGE_CURVE('',#45,#43,#76,.T.) ;
#82=EDGE_CURVE('',#59,#52,#81,.T.) ;
#113=EDGE_CURVE('',#110,#112,#108,.F.) ;
#120=EDGE_CURVE('',#119,#110,#117,.F.) ;
#127=EDGE_CURVE('',#126,#119,#124,.F.) ;
#134=EDGE_CURVE('',#133,#126,#131,.T.) ;
#141=EDGE_CURVE('',#140,#133,#138,.F.) ;
#148=EDGE_CURVE('',#147,#140,#145,.T.) ;
#153=EDGE_CURVE('',#112,#147,#152,.T.) ;
#179=EDGE_CURVE('',#112,#178,#176,.T.) ;
#186=EDGE_CURVE('',#147,#185,#183,.T.) ;
#193=EDGE_CURVE('',#192,#185,#190,.T.) ;
#200=EDGE_CURVE('',#199,#192,#197,.T.) ;
#207=EDGE_CURVE('',#206,#199,#204,.T.) ;
#212=EDGE_CURVE('',#178,#206,#211,.T.) ;
#234=EDGE_CURVE('',#140,#233,#231,.T.) ;
#239=EDGE_CURVE('',#185,#233,#238,.T.) ;
#258=EDGE_CURVE('',#133,#257,#255,.T.) ;
#263=EDGE_CURVE('',#233,#257,#262,.F.) ;
#282=EDGE_CURVE('',#126,#281,#279,.T.) ;
#287=EDGE_CURVE('',#257,#281,#286,.T.) ;
#306=EDGE_CURVE('',#119,#305,#303,.T.) ;
#311=EDGE_CURVE('',#281,#305,#310,.F.) ;
#330=EDGE_CURVE('',#110,#329,#327,.T.) ;
#335=EDGE_CURVE('',#305,#329,#334,.F.) ;
#347=EDGE_CURVE('',#329,#192,#346,.F.) ;
#354=EDGE_CURVE('',#353,#178,#351,.T.) ;
#359=EDGE_CURVE('',#199,#353,#358,.T.) ;
#392=EDGE_CURVE('',#389,#391,#387,.T.) ;
#397=EDGE_CURVE('',#391,#389,#396,.T.) ;
#414=EDGE_CURVE('',#206,#413,#411,.T.) ;
#421=EDGE_CURVE('',#353,#420,#418,.T.) ;
#426=EDGE_CURVE('',#420,#413,#425,.F.) ;
#439=EDGE_CURVE('',#420,#413,#438,.T.) ;
#459=EDGE_CURVE('',#391,#458,#456,.T.) ;
#466=EDGE_CURVE('',#465,#458,#463,.T.) ;
#471=EDGE_CURVE('',#389,#465,#470,.T.) ;
#483=EDGE_CURVE('',#458,#465,#482,.T.) ;
#514=EDGE_CURVE('',#511,#513,#509,.T.) ;
#519=EDGE_CURVE('',#513,#511,#518,.T.) ;
#534=EDGE_CURVE('',#420,#511,#533,.F.) ;
#539=EDGE_CURVE('',#413,#513,#538,.F.) ;
#66=EDGE_LOOP('',(#67,#68,#69,#70)) ;
#83=EDGE_LOOP('',(#84,#85,#86,#87)) ;
#95=EDGE_LOOP('',(#96,#97)) ;
#154=EDGE_LOOP('',(#155,#156,#157,#158,#159,#160,#161)) ;
#163=EDGE_LOOP('',(#164,#165)) ;
#213=EDGE_LOOP('',(#214,#215,#216,#217,#218,#219,#220)) ;
#240=EDGE_LOOP('',(#241,#242,#243,#244)) ;
#264=EDGE_LOOP('',(#265,#266,#267,#268)) ;
#288=EDGE_LOOP('',(#289,#290,#291,#292)) ;
#312=EDGE_LOOP('',(#313,#314,#315,#316)) ;
#336=EDGE_LOOP('',(#337,#338,#339,#340)) ;
#360=EDGE_LOOP('',(#361,#362,#363,#364,#365,#366,#367)) ;
#375=EDGE_LOOP('',(#376,#377,#378,#379,#380,#381,#382)) ;
#398=EDGE_LOOP('',(#399,#400)) ;
#427=EDGE_LOOP('',(#428,#429,#430,#431,#432)) ;
#440=EDGE_LOOP('',(#441,#442,#443,#444,#445)) ;
#472=EDGE_LOOP('',(#473,#474,#475,#476)) ;
#484=EDGE_LOOP('',(#485,#486,#487,#488)) ;
#496=EDGE_LOOP('',(#497,#498)) ;
#520=EDGE_LOOP('',(#521,#522)) ;
#540=EDGE_LOOP('',(#541,#542,#543,#544)) ;
#547=EDGE_LOOP('',(#548,#549,#550,#551)) ;
#71=FACE_OUTER_BOUND('',#66,.T.) ;
#88=FACE_OUTER_BOUND('',#83,.T.) ;
#98=FACE_OUTER_BOUND('',#95,.T.) ;
#162=FACE_OUTER_BOUND('',#154,.T.) ;
#221=FACE_OUTER_BOUND('',#213,.T.) ;
#245=FACE_OUTER_BOUND('',#240,.T.) ;
#269=FACE_OUTER_BOUND('',#264,.T.) ;
#293=FACE_OUTER_BOUND('',#288,.T.) ;
#317=FACE_OUTER_BOUND('',#312,.T.) ;
#341=FACE_OUTER_BOUND('',#336,.T.) ;
#368=FACE_OUTER_BOUND('',#360,.T.) ;
#383=FACE_OUTER_BOUND('',#375,.T.) ;
#433=FACE_OUTER_BOUND('',#427,.T.) ;
#446=FACE_OUTER_BOUND('',#440,.T.) ;
#477=FACE_OUTER_BOUND('',#472,.T.) ;
#489=FACE_OUTER_BOUND('',#484,.T.) ;
#499=FACE_OUTER_BOUND('',#496,.T.) ;
#523=FACE_OUTER_BOUND('',#520,.T.) ;
#545=FACE_OUTER_BOUND('',#540,.T.) ;
#552=FACE_OUTER_BOUND('',#547,.T.) ;
#50=LINE('Line',#47,#49) ;
#64=LINE('Line',#61,#63) ;
#108=LINE('Line',#105,#107) ;
#117=LINE('Line',#114,#116) ;
#145=LINE('Line',#142,#144) ;
#152=LINE('Line',#149,#151) ;
#176=LINE('Line',#173,#175) ;
#183=LINE('Line',#180,#182) ;
#190=LINE('Line',#187,#189) ;
#197=LINE('Line',#194,#196) ;
#231=LINE('Line',#228,#230) ;
#238=LINE('Line',#235,#237) ;
#255=LINE('Line',#252,#254) ;
#279=LINE('Line',#276,#278) ;
#303=LINE('Line',#300,#302) ;
#327=LINE('Line',#324,#326) ;
#334=LINE('Line',#331,#333) ;
#346=LINE('Line',#343,#345) ;
#411=LINE('Line',#408,#410) ;
#418=LINE('Line',#415,#417) ;
#456=LINE('Line',#453,#455) ;
#470=LINE('Line',#467,#469) ;
#533=LINE('Line',#530,#532) ;
#538=LINE('Line',#535,#537) ;
#94=PLANE('',#93) ;
#104=PLANE('',#103) ;
#172=PLANE('',#171) ;
#227=PLANE('',#226) ;
#323=PLANE('',#322) ;
#374=PLANE('',#373) ;
#495=PLANE('',#494) ;
#505=PLANE('',#504) ;
#14=PLANE_ANGLE_MEASURE_WITH_UNIT(PLANE_ANGLE_MEASURE(0.0174532925199),#13) ;
#9=PRODUCT_CATEGORY_RELATIONSHIP(' ',' ',#7,#8) ;
#6=PRODUCT_DEFINITION_FORMATION_WITH_SPECIFIED_SOURCE('',' ',#5,.NOT_KNOWN.) ;
#21=SHAPE_DEFINITION_REPRESENTATION(#11,#20) ;
#43=VERTEX_POINT('',#42) ;
#45=VERTEX_POINT('',#44) ;
#52=VERTEX_POINT('',#51) ;
#59=VERTEX_POINT('',#58) ;
#110=VERTEX_POINT('',#109) ;
#112=VERTEX_POINT('',#111) ;
#119=VERTEX_POINT('',#118) ;
#126=VERTEX_POINT('',#125) ;
#133=VERTEX_POINT('',#132) ;
#140=VERTEX_POINT('',#139) ;
#147=VERTEX_POINT('',#146) ;
#178=VERTEX_POINT('',#177) ;
#185=VERTEX_POINT('',#184) ;
#192=VERTEX_POINT('',#191) ;
#199=VERTEX_POINT('',#198) ;
#206=VERTEX_POINT('',#205) ;
#233=VERTEX_POINT('',#232) ;
#257=VERTEX_POINT('',#256) ;
#281=VERTEX_POINT('',#280) ;
#305=VERTEX_POINT('',#304) ;
#329=VERTEX_POINT('',#328) ;
#353=VERTEX_POINT('',#352) ;
#389=VERTEX_POINT('',#388) ;
#391=VERTEX_POINT('',#390) ;
#413=VERTEX_POINT('',#412) ;
#420=VERTEX_POINT('',#419) ;
#458=VERTEX_POINT('',#457) ;
#465=VERTEX_POINT('',#464) ;
#511=VERTEX_POINT('',#510) ;
#513=VERTEX_POINT('',#512) ;
#12=(LENGTH_UNIT()NAMED_UNIT(*)SI_UNIT(.MILLI.,.METRE.)) ;
#13=(NAMED_UNIT(*)PLANE_ANGLE_UNIT()SI_UNIT($,.RADIAN.)) ;
#15=(NAMED_UNIT(*)SI_UNIT($,.STERADIAN.)SOLID_ANGLE_UNIT()) ;
#17=(GEOMETRIC_REPRESENTATION_CONTEXT(3)GLOBAL_UNCERTAINTY_ASSIGNED_CONTEXT((#16))GLOBAL_UNIT_ASSIGNED_CONTEXT((#12,#13,#15))REPRESENTATION_CONTEXT(' ',' ')) ;
ENDSEC;
END-ISO-10303-21;
