ISO-10303-21;
HEADER;
FILE_DESCRIPTION(('CATIA V5R19 STEP'),'2;1');

FILE_NAME ('D1458690_0_1889800000_1889800000.stp','2015-03-02T08:33:12+00:00',('none'),('Weidmueller'),'CATIA Version 5 Release 20 SP 5 (IN-10)','CATIA V5 STEP AP214','none');

FILE_SCHEMA(('AUTOMOTIVE_DESIGN { 1 0 10303 214 1 1 1 1 }'));

ENDSEC;
/* file written by CATIA V5R20 */
DATA;
#5=PRODUCT('MF-SI 10/5-6.5','','MARKIERER MF-SI 10/5-6,5 FUER SIEMENS \X2\000D\X0\\X2\000A\X0\MIT AUSSEN RASTENDEN FUSS',(#2)) ;
#2=PRODUCT_CONTEXT(' ',#1,'mechanical') ;
#1=APPLICATION_CONTEXT('automotive design') ;
#10=PRODUCT_DEFINITION('',' ',#6,#3) ;
#3=PRODUCT_DEFINITION_CONTEXT('part definition',#1,' ') ;
#11=PRODUCT_DEFINITION_SHAPE(' ',' ',#10) ;
#579=MECHANICAL_DESIGN_GEOMETRIC_PRESENTATION_REPRESENTATION(' ',(#30),#17) ;
#20=SHAPE_REPRESENTATION(' ',(#19),#17) ;
#19=AXIS2_PLACEMENT_3D(' ',#18,$,$) ;
#36=AXIS2_PLACEMENT_3D('Plane Axis2P3D',#33,#34,#35) ;
#76=AXIS2_PLACEMENT_3D('Plane Axis2P3D',#73,#74,#75) ;
#175=AXIS2_PLACEMENT_3D('Plane Axis2P3D',#172,#173,#174) ;
#199=AXIS2_PLACEMENT_3D('Plane Axis2P3D',#196,#197,#198) ;
#223=AXIS2_PLACEMENT_3D('Plane Axis2P3D',#220,#221,#222) ;
#240=AXIS2_PLACEMENT_3D('Plane Axis2P3D',#237,#238,#239) ;
#303=AXIS2_PLACEMENT_3D('Plane Axis2P3D',#300,#301,#302) ;
#366=AXIS2_PLACEMENT_3D('Plane Axis2P3D',#363,#364,#365) ;
#378=AXIS2_PLACEMENT_3D('Plane Axis2P3D',#375,#376,#377) ;
#428=AXIS2_PLACEMENT_3D('Plane Axis2P3D',#425,#426,#427) ;
#464=AXIS2_PLACEMENT_3D('Plane Axis2P3D',#461,#462,#463) ;
#486=AXIS2_PLACEMENT_3D('Plane Axis2P3D',#483,#484,#485) ;
#503=AXIS2_PLACEMENT_3D('Plane Axis2P3D',#500,#501,#502) ;
#527=AXIS2_PLACEMENT_3D('Plane Axis2P3D',#524,#525,#526) ;
#544=AXIS2_PLACEMENT_3D('Plane Axis2P3D',#541,#542,#543) ;
#568=AXIS2_PLACEMENT_3D('Plane Axis2P3D',#565,#566,#567) ;
#18=CARTESIAN_POINT(' ',(0.,0.,0.)) ;
#33=CARTESIAN_POINT('Axis2P3D Location',(2.4,7.19379093084,1.47296821)) ;
#38=CARTESIAN_POINT('Line Origine',(2.4,7.19379093084,1.47296821)) ;
#42=CARTESIAN_POINT('Vertex',(0.9,7.19379093084,1.47296821)) ;
#44=CARTESIAN_POINT('Vertex',(3.9,7.19379093084,1.47296821)) ;
#47=CARTESIAN_POINT('Line Origine',(0.9,7.21950952255,0.736484103763)) ;
#51=CARTESIAN_POINT('Vertex',(0.9,7.24522811426,-2.47469889025E-009)) ;
#54=CARTESIAN_POINT('Line Origine',(2.4,7.24522811426,-2.47469889025E-009)) ;
#58=CARTESIAN_POINT('Vertex',(3.9,7.24522811426,-2.47469889025E-009)) ;
#61=CARTESIAN_POINT('Line Origine',(3.9,7.21950952255,0.736484103763)) ;
#73=CARTESIAN_POINT('Axis2P3D Location',(2.4,5.,1.47296821)) ;
#78=CARTESIAN_POINT('Line Origine',(4.8,5.,1.47296821)) ;
#82=CARTESIAN_POINT('Vertex',(4.8,2.25,1.47296821)) ;
#84=CARTESIAN_POINT('Vertex',(4.8,7.75,1.47296821)) ;
#87=CARTESIAN_POINT('Line Origine',(2.4,2.25,1.47296821)) ;
#91=CARTESIAN_POINT('Vertex',(-4.4408920985E-016,2.25,1.47296821)) ;
#94=CARTESIAN_POINT('Line Origine',(0.,5.,1.47296821)) ;
#98=CARTESIAN_POINT('Vertex',(-4.4408920985E-016,7.75,1.47296821)) ;
#101=CARTESIAN_POINT('Line Origine',(2.4,7.75,1.47296821)) ;
#112=CARTESIAN_POINT('Line Origine',(0.9,7.41842523106,1.47296821)) ;
#116=CARTESIAN_POINT('Vertex',(0.9,7.64305953129,1.47296821)) ;
#119=CARTESIAN_POINT('Line Origine',(3.9,7.41842523106,1.47296821)) ;
#123=CARTESIAN_POINT('Vertex',(3.9,7.64305953129,1.47296821)) ;
#126=CARTESIAN_POINT('Line Origine',(2.4,7.64305953129,1.47296821)) ;
#137=CARTESIAN_POINT('Line Origine',(3.9,2.58157476894,1.47296821)) ;
#141=CARTESIAN_POINT('Vertex',(3.9,2.80620906916,1.47296821)) ;
#143=CARTESIAN_POINT('Vertex',(3.9,2.35694046872,1.47296821)) ;
#146=CARTESIAN_POINT('Line Origine',(2.4,2.80620906916,1.47296821)) ;
#150=CARTESIAN_POINT('Vertex',(0.9,2.80620906916,1.47296821)) ;
#153=CARTESIAN_POINT('Line Origine',(0.9,2.58157476894,1.47296821)) ;
#157=CARTESIAN_POINT('Vertex',(0.9,2.35694046872,1.47296821)) ;
#160=CARTESIAN_POINT('Line Origine',(2.4,2.35694046871,1.47296821)) ;
#172=CARTESIAN_POINT('Axis2P3D Location',(0.9,5.,1.47296821)) ;
#177=CARTESIAN_POINT('Line Origine',(0.9,7.64305953128,0.736484103763)) ;
#181=CARTESIAN_POINT('Vertex',(0.9,7.64305953128,-2.47471398929E-009)) ;
#184=CARTESIAN_POINT('Line Origine',(0.9,7.44414382277,-2.47471398929E-009)) ;
#196=CARTESIAN_POINT('Axis2P3D Location',(2.4,7.64305953128,-2.47471398929E-009)) ;
#201=CARTESIAN_POINT('Line Origine',(2.4,7.64305953128,-2.47471398929E-009)) ;
#205=CARTESIAN_POINT('Vertex',(3.9,7.64305953128,-2.47471398929E-009)) ;
#208=CARTESIAN_POINT('Line Origine',(3.9,7.44414382277,-2.47471397711E-009)) ;
#220=CARTESIAN_POINT('Axis2P3D Location',(3.9,5.,1.47296821)) ;
#225=CARTESIAN_POINT('Line Origine',(3.9,7.64305953128,0.736484103763)) ;
#237=CARTESIAN_POINT('Axis2P3D Location',(0.,10.,1.47296821)) ;
#242=CARTESIAN_POINT('Line Origine',(0.,1.875,1.62296821)) ;
#246=CARTESIAN_POINT('Vertex',(-4.4408920985E-016,1.5,1.77296821)) ;
#249=CARTESIAN_POINT('Line Origine',(0.,0.75,1.77296821)) ;
#253=CARTESIAN_POINT('Vertex',(-4.4408920985E-016,-2.6645352591E-015,1.77296821)) ;
#256=CARTESIAN_POINT('Line Origine',(0.,3.98010209723E-017,2.12296821)) ;
#260=CARTESIAN_POINT('Vertex',(0.,0.,2.47296821)) ;
#263=CARTESIAN_POINT('Line Origine',(0.,5.,2.47296821)) ;
#267=CARTESIAN_POINT('Vertex',(1.33226762955E-015,10.,2.47296821)) ;
#270=CARTESIAN_POINT('Line Origine',(0.,10.,2.12296821)) ;
#274=CARTESIAN_POINT('Vertex',(1.33226762955E-015,10.,1.77296821)) ;
#277=CARTESIAN_POINT('Line Origine',(0.,9.25,1.77296821)) ;
#281=CARTESIAN_POINT('Vertex',(-4.4408920985E-016,8.5,1.77296821)) ;
#284=CARTESIAN_POINT('Line Origine',(0.,8.125,1.62296821)) ;
#300=CARTESIAN_POINT('Axis2P3D Location',(4.8,-2.6645352591E-015,1.47296821)) ;
#305=CARTESIAN_POINT('Line Origine',(4.8,8.125,1.62296821)) ;
#309=CARTESIAN_POINT('Vertex',(4.8,8.5,1.77296821)) ;
#312=CARTESIAN_POINT('Line Origine',(4.8,9.25,1.77296821)) ;
#316=CARTESIAN_POINT('Vertex',(4.8,10.,1.77296821)) ;
#319=CARTESIAN_POINT('Line Origine',(4.8,10.,2.12296821)) ;
#323=CARTESIAN_POINT('Vertex',(4.8,10.,2.47296821)) ;
#326=CARTESIAN_POINT('Line Origine',(4.8,5.,2.47296821)) ;
#330=CARTESIAN_POINT('Vertex',(4.8,-2.6645352591E-015,2.47296821)) ;
#333=CARTESIAN_POINT('Line Origine',(4.8,-2.62473423813E-015,2.12296821)) ;
#337=CARTESIAN_POINT('Vertex',(4.8,-2.6645352591E-015,1.77296821)) ;
#340=CARTESIAN_POINT('Line Origine',(4.8,0.75,1.77296821)) ;
#344=CARTESIAN_POINT('Vertex',(4.8,1.5,1.77296821)) ;
#347=CARTESIAN_POINT('Line Origine',(4.8,1.875,1.62296821)) ;
#363=CARTESIAN_POINT('Axis2P3D Location',(2.4,7.64305953128,1.47296821)) ;
#375=CARTESIAN_POINT('Axis2P3D Location',(2.4,2.35694046872,1.47296821)) ;
#380=CARTESIAN_POINT('Line Origine',(0.9,2.35694046872,0.736484103763)) ;
#384=CARTESIAN_POINT('Vertex',(0.9,2.35694046872,-2.47465670178E-009)) ;
#387=CARTESIAN_POINT('Line Origine',(2.4,2.35694046872,-2.47465670178E-009)) ;
#391=CARTESIAN_POINT('Vertex',(3.9,2.35694046872,-2.47465670178E-009)) ;
#394=CARTESIAN_POINT('Line Origine',(3.9,2.35694046872,0.736484103763)) ;
#406=CARTESIAN_POINT('Line Origine',(0.9,2.78049047745,0.736484103763)) ;
#410=CARTESIAN_POINT('Vertex',(0.9,2.75477188574,-2.4747135452E-009)) ;
#413=CARTESIAN_POINT('Line Origine',(0.9,2.55585617723,-2.4747135452E-009)) ;
#425=CARTESIAN_POINT('Axis2P3D Location',(2.4,2.80620906916,1.47296821)) ;
#430=CARTESIAN_POINT('Line Origine',(2.4,2.75477188574,-2.47471398929E-009)) ;
#434=CARTESIAN_POINT('Vertex',(3.9,2.75477188574,-2.4747135452E-009)) ;
#437=CARTESIAN_POINT('Line Origine',(3.9,2.78049047745,0.736484103763)) ;
#449=CARTESIAN_POINT('Line Origine',(3.9,2.55585617723,-2.4747135452E-009)) ;
#461=CARTESIAN_POINT('Axis2P3D Location',(4.8,-2.6645352591E-015,1.47296821)) ;
#466=CARTESIAN_POINT('Line Origine',(2.4,-2.64616555711E-015,1.77296821)) ;
#471=CARTESIAN_POINT('Line Origine',(2.4,-2.60330291914E-015,2.47296821)) ;
#483=CARTESIAN_POINT('Axis2P3D Location',(2.4,5.,2.47296821)) ;
#488=CARTESIAN_POINT('Line Origine',(2.4,10.,2.47296821)) ;
#500=CARTESIAN_POINT('Axis2P3D Location',(1.33226762955E-015,10.,1.47296821)) ;
#505=CARTESIAN_POINT('Line Origine',(2.4,10.,1.77296821)) ;
#524=CARTESIAN_POINT('Axis2P3D Location',(2.4,8.5,1.77296821)) ;
#529=CARTESIAN_POINT('Line Origine',(2.4,8.5,1.77296821)) ;
#541=CARTESIAN_POINT('Axis2P3D Location',(2.4,-2.6645352591E-015,1.77296821)) ;
#553=CARTESIAN_POINT('Line Origine',(2.4,1.5,1.77296821)) ;
#565=CARTESIAN_POINT('Axis2P3D Location',(2.4,1.5,1.77296821)) ;
#34=DIRECTION('Axis2P3D Direction',(-6.1193017836E-017,-0.999390827019,-0.0348994967025)) ;
#35=DIRECTION('Axis2P3D XDirection',(2.13690727035E-018,0.0348994967025,-0.999390827019)) ;
#39=DIRECTION('Vector Direction',(1.,0.,0.)) ;
#48=DIRECTION('Vector Direction',(0.,0.0348994967025,-0.999390827019)) ;
#55=DIRECTION('Vector Direction',(1.,0.,0.)) ;
#62=DIRECTION('Vector Direction',(0.,0.0348994967025,-0.999390827019)) ;
#74=DIRECTION('Axis2P3D Direction',(0.,6.12323399574E-017,1.)) ;
#75=DIRECTION('Axis2P3D XDirection',(-1.,0.,0.)) ;
#79=DIRECTION('Vector Direction',(0.,1.,-8.07434927E-017)) ;
#88=DIRECTION('Vector Direction',(-1.,0.,0.)) ;
#95=DIRECTION('Vector Direction',(0.,-1.,8.07434927E-017)) ;
#102=DIRECTION('Vector Direction',(-1.,0.,0.)) ;
#113=DIRECTION('Vector Direction',(0.,1.,0.)) ;
#120=DIRECTION('Vector Direction',(0.,1.,0.)) ;
#127=DIRECTION('Vector Direction',(1.,0.,0.)) ;
#138=DIRECTION('Vector Direction',(0.,-1.,0.)) ;
#147=DIRECTION('Vector Direction',(1.,0.,0.)) ;
#154=DIRECTION('Vector Direction',(0.,-1.,0.)) ;
#161=DIRECTION('Vector Direction',(1.,0.,0.)) ;
#173=DIRECTION('Axis2P3D Direction',(1.,-6.12303176911E-017,3.74927562856E-033)) ;
#174=DIRECTION('Axis2P3D XDirection',(6.12303176911E-017,1.,-6.12323399574E-017)) ;
#178=DIRECTION('Vector Direction',(0.,0.,-1.)) ;
#185=DIRECTION('Vector Direction',(0.,-1.,0.)) ;
#197=DIRECTION('Axis2P3D Direction',(0.,6.12323399574E-017,1.)) ;
#198=DIRECTION('Axis2P3D XDirection',(-6.12303176911E-017,-1.,6.12323399574E-017)) ;
#202=DIRECTION('Vector Direction',(1.,0.,0.)) ;
#209=DIRECTION('Vector Direction',(0.,-1.,6.12323397918E-017)) ;
#221=DIRECTION('Axis2P3D Direction',(1.,-6.12303176911E-017,3.74927562856E-033)) ;
#222=DIRECTION('Axis2P3D XDirection',(6.12303176911E-017,1.,-6.12323399574E-017)) ;
#226=DIRECTION('Vector Direction',(0.,0.,-1.)) ;
#238=DIRECTION('Axis2P3D Direction',(-1.,0.,0.)) ;
#239=DIRECTION('Axis2P3D XDirection',(0.,-1.,6.12323399574E-017)) ;
#243=DIRECTION('Vector Direction',(0.,-0.928476690885,0.371390676354)) ;
#250=DIRECTION('Vector Direction',(0.,1.,0.)) ;
#257=DIRECTION('Vector Direction',(0.,6.12323399574E-017,1.)) ;
#264=DIRECTION('Vector Direction',(0.,-1.,8.881784197E-017)) ;
#271=DIRECTION('Vector Direction',(0.,0.,1.)) ;
#278=DIRECTION('Vector Direction',(0.,-1.,0.)) ;
#285=DIRECTION('Vector Direction',(0.,0.928476690885,0.371390676354)) ;
#301=DIRECTION('Axis2P3D Direction',(1.,-0.,0.)) ;
#302=DIRECTION('Axis2P3D XDirection',(0.,1.,-6.12323399574E-017)) ;
#306=DIRECTION('Vector Direction',(0.,0.928476690885,0.371390676354)) ;
#313=DIRECTION('Vector Direction',(0.,-1.,2.96059473233E-016)) ;
#320=DIRECTION('Vector Direction',(0.,0.,1.)) ;
#327=DIRECTION('Vector Direction',(0.,1.,-8.881784197E-017)) ;
#334=DIRECTION('Vector Direction',(0.,6.12323399574E-017,1.)) ;
#341=DIRECTION('Vector Direction',(0.,1.,0.)) ;
#348=DIRECTION('Vector Direction',(0.,-0.928476690885,0.371390676354)) ;
#364=DIRECTION('Axis2P3D Direction',(-6.12303176911E-017,-1.,6.12323399574E-017)) ;
#365=DIRECTION('Axis2P3D XDirection',(0.,-6.12323399574E-017,-1.)) ;
#376=DIRECTION('Axis2P3D Direction',(-6.12303176911E-017,-1.,6.12323399574E-017)) ;
#377=DIRECTION('Axis2P3D XDirection',(0.,-6.12323399574E-017,-1.)) ;
#381=DIRECTION('Vector Direction',(0.,0.,-1.)) ;
#388=DIRECTION('Vector Direction',(1.,0.,0.)) ;
#395=DIRECTION('Vector Direction',(0.,0.,-1.)) ;
#407=DIRECTION('Vector Direction',(0.,-0.0348994967025,-0.999390827019)) ;
#414=DIRECTION('Vector Direction',(0.,1.,0.)) ;
#426=DIRECTION('Axis2P3D Direction',(-6.1193017836E-017,-0.999390827019,0.0348994967025)) ;
#427=DIRECTION('Axis2P3D XDirection',(-2.13690727035E-018,-0.0348994967025,-0.999390827019)) ;
#431=DIRECTION('Vector Direction',(1.,0.,0.)) ;
#438=DIRECTION('Vector Direction',(0.,-0.0348994967025,-0.999390827019)) ;
#450=DIRECTION('Vector Direction',(0.,1.,0.)) ;
#462=DIRECTION('Axis2P3D Direction',(0.,1.,-6.12323399574E-017)) ;
#463=DIRECTION('Axis2P3D XDirection',(-1.,0.,0.)) ;
#467=DIRECTION('Vector Direction',(-1.,0.,0.)) ;
#472=DIRECTION('Vector Direction',(-1.,0.,0.)) ;
#484=DIRECTION('Axis2P3D Direction',(0.,6.12323399574E-017,1.)) ;
#485=DIRECTION('Axis2P3D XDirection',(-1.,0.,0.)) ;
#489=DIRECTION('Vector Direction',(1.,0.,0.)) ;
#501=DIRECTION('Axis2P3D Direction',(0.,-1.,6.12323399574E-017)) ;
#502=DIRECTION('Axis2P3D XDirection',(1.,0.,0.)) ;
#506=DIRECTION('Vector Direction',(-1.,0.,0.)) ;
#525=DIRECTION('Axis2P3D Direction',(0.,0.371390676354,-0.928476690885)) ;
#526=DIRECTION('Axis2P3D XDirection',(0.,-0.928476690885,-0.371390676354)) ;
#530=DIRECTION('Vector Direction',(-1.,0.,0.)) ;
#542=DIRECTION('Axis2P3D Direction',(0.,6.12323399574E-017,1.)) ;
#543=DIRECTION('Axis2P3D XDirection',(0.,1.,-6.12323399574E-017)) ;
#554=DIRECTION('Vector Direction',(-1.,0.,0.)) ;
#566=DIRECTION('Axis2P3D Direction',(0.,0.371390676354,0.928476690885)) ;
#567=DIRECTION('Axis2P3D XDirection',(-0.,0.928476690885,-0.371390676354)) ;
#31=PRESENTATION_LAYER_ASSIGNMENT('100',' ',(#22)) ;
#8=PRODUCT_RELATED_PRODUCT_CATEGORY('part',$,(#5)) ;
#7=PRODUCT_CATEGORY('part','specification') ;
#30=STYLED_ITEM(' ',(#29),#22) ;
#29=PRESENTATION_STYLE_ASSIGNMENT((#28)) ;
#28=SURFACE_STYLE_USAGE(.BOTH.,#27) ;
#27=SURFACE_SIDE_STYLE(' ',(#26)) ;
#26=SURFACE_STYLE_FILL_AREA(#25) ;
#25=FILL_AREA_STYLE(' ',(#24)) ;
#24=FILL_AREA_STYLE_COLOUR(' ',#23) ;
#40=VECTOR('Line Direction',#39,1.) ;
#49=VECTOR('Line Direction',#48,1.) ;
#56=VECTOR('Line Direction',#55,1.) ;
#63=VECTOR('Line Direction',#62,1.) ;
#80=VECTOR('Line Direction',#79,1.) ;
#89=VECTOR('Line Direction',#88,1.) ;
#96=VECTOR('Line Direction',#95,1.) ;
#103=VECTOR('Line Direction',#102,1.) ;
#114=VECTOR('Line Direction',#113,1.) ;
#121=VECTOR('Line Direction',#120,1.) ;
#128=VECTOR('Line Direction',#127,1.) ;
#139=VECTOR('Line Direction',#138,1.) ;
#148=VECTOR('Line Direction',#147,1.) ;
#155=VECTOR('Line Direction',#154,1.) ;
#162=VECTOR('Line Direction',#161,1.) ;
#179=VECTOR('Line Direction',#178,1.) ;
#186=VECTOR('Line Direction',#185,1.) ;
#203=VECTOR('Line Direction',#202,1.) ;
#210=VECTOR('Line Direction',#209,1.) ;
#227=VECTOR('Line Direction',#226,1.) ;
#244=VECTOR('Line Direction',#243,1.) ;
#251=VECTOR('Line Direction',#250,1.) ;
#258=VECTOR('Line Direction',#257,1.) ;
#265=VECTOR('Line Direction',#264,1.) ;
#272=VECTOR('Line Direction',#271,1.) ;
#279=VECTOR('Line Direction',#278,1.) ;
#286=VECTOR('Line Direction',#285,1.) ;
#307=VECTOR('Line Direction',#306,1.) ;
#314=VECTOR('Line Direction',#313,1.) ;
#321=VECTOR('Line Direction',#320,1.) ;
#328=VECTOR('Line Direction',#327,1.) ;
#335=VECTOR('Line Direction',#334,1.) ;
#342=VECTOR('Line Direction',#341,1.) ;
#349=VECTOR('Line Direction',#348,1.) ;
#382=VECTOR('Line Direction',#381,1.) ;
#389=VECTOR('Line Direction',#388,1.) ;
#396=VECTOR('Line Direction',#395,1.) ;
#408=VECTOR('Line Direction',#407,1.) ;
#415=VECTOR('Line Direction',#414,1.) ;
#432=VECTOR('Line Direction',#431,1.) ;
#439=VECTOR('Line Direction',#438,1.) ;
#451=VECTOR('Line Direction',#450,1.) ;
#468=VECTOR('Line Direction',#467,1.) ;
#473=VECTOR('Line Direction',#472,1.) ;
#490=VECTOR('Line Direction',#489,1.) ;
#507=VECTOR('Line Direction',#506,1.) ;
#531=VECTOR('Line Direction',#530,1.) ;
#555=VECTOR('Line Direction',#554,1.) ;
#16=UNCERTAINTY_MEASURE_WITH_UNIT(LENGTH_MEASURE(0.005),#12,'distance_accuracy_value','CONFUSED CURVE UNCERTAINTY') ;
#578=SHAPE_REPRESENTATION_RELATIONSHIP(' ',' ',#20,#577) ;
#67=ORIENTED_EDGE('',*,*,#46,.F.) ;
#68=ORIENTED_EDGE('',*,*,#53,.T.) ;
#69=ORIENTED_EDGE('',*,*,#60,.T.) ;
#70=ORIENTED_EDGE('',*,*,#65,.F.) ;
#107=ORIENTED_EDGE('',*,*,#86,.F.) ;
#108=ORIENTED_EDGE('',*,*,#93,.T.) ;
#109=ORIENTED_EDGE('',*,*,#100,.F.) ;
#110=ORIENTED_EDGE('',*,*,#105,.F.) ;
#132=ORIENTED_EDGE('',*,*,#118,.T.) ;
#133=ORIENTED_EDGE('',*,*,#46,.T.) ;
#134=ORIENTED_EDGE('',*,*,#125,.F.) ;
#135=ORIENTED_EDGE('',*,*,#130,.F.) ;
#166=ORIENTED_EDGE('',*,*,#145,.F.) ;
#167=ORIENTED_EDGE('',*,*,#152,.F.) ;
#168=ORIENTED_EDGE('',*,*,#159,.T.) ;
#169=ORIENTED_EDGE('',*,*,#164,.T.) ;
#190=ORIENTED_EDGE('',*,*,#183,.F.) ;
#191=ORIENTED_EDGE('',*,*,#188,.F.) ;
#192=ORIENTED_EDGE('',*,*,#53,.F.) ;
#193=ORIENTED_EDGE('',*,*,#118,.F.) ;
#214=ORIENTED_EDGE('',*,*,#60,.F.) ;
#215=ORIENTED_EDGE('',*,*,#188,.T.) ;
#216=ORIENTED_EDGE('',*,*,#207,.T.) ;
#217=ORIENTED_EDGE('',*,*,#212,.F.) ;
#231=ORIENTED_EDGE('',*,*,#125,.T.) ;
#232=ORIENTED_EDGE('',*,*,#65,.T.) ;
#233=ORIENTED_EDGE('',*,*,#212,.T.) ;
#234=ORIENTED_EDGE('',*,*,#229,.T.) ;
#290=ORIENTED_EDGE('',*,*,#100,.T.) ;
#291=ORIENTED_EDGE('',*,*,#248,.T.) ;
#292=ORIENTED_EDGE('',*,*,#255,.F.) ;
#293=ORIENTED_EDGE('',*,*,#262,.T.) ;
#294=ORIENTED_EDGE('',*,*,#269,.F.) ;
#295=ORIENTED_EDGE('',*,*,#276,.F.) ;
#296=ORIENTED_EDGE('',*,*,#283,.T.) ;
#297=ORIENTED_EDGE('',*,*,#288,.F.) ;
#353=ORIENTED_EDGE('',*,*,#86,.T.) ;
#354=ORIENTED_EDGE('',*,*,#311,.T.) ;
#355=ORIENTED_EDGE('',*,*,#318,.F.) ;
#356=ORIENTED_EDGE('',*,*,#325,.T.) ;
#357=ORIENTED_EDGE('',*,*,#332,.F.) ;
#358=ORIENTED_EDGE('',*,*,#339,.F.) ;
#359=ORIENTED_EDGE('',*,*,#346,.T.) ;
#360=ORIENTED_EDGE('',*,*,#351,.F.) ;
#369=ORIENTED_EDGE('',*,*,#207,.F.) ;
#370=ORIENTED_EDGE('',*,*,#183,.T.) ;
#371=ORIENTED_EDGE('',*,*,#130,.T.) ;
#372=ORIENTED_EDGE('',*,*,#229,.F.) ;
#400=ORIENTED_EDGE('',*,*,#164,.F.) ;
#401=ORIENTED_EDGE('',*,*,#386,.T.) ;
#402=ORIENTED_EDGE('',*,*,#393,.T.) ;
#403=ORIENTED_EDGE('',*,*,#398,.F.) ;
#419=ORIENTED_EDGE('',*,*,#159,.F.) ;
#420=ORIENTED_EDGE('',*,*,#412,.F.) ;
#421=ORIENTED_EDGE('',*,*,#417,.F.) ;
#422=ORIENTED_EDGE('',*,*,#386,.F.) ;
#443=ORIENTED_EDGE('',*,*,#436,.F.) ;
#444=ORIENTED_EDGE('',*,*,#412,.T.) ;
#445=ORIENTED_EDGE('',*,*,#152,.T.) ;
#446=ORIENTED_EDGE('',*,*,#441,.F.) ;
#455=ORIENTED_EDGE('',*,*,#398,.T.) ;
#456=ORIENTED_EDGE('',*,*,#453,.T.) ;
#457=ORIENTED_EDGE('',*,*,#441,.T.) ;
#458=ORIENTED_EDGE('',*,*,#145,.T.) ;
#477=ORIENTED_EDGE('',*,*,#470,.F.) ;
#478=ORIENTED_EDGE('',*,*,#339,.T.) ;
#479=ORIENTED_EDGE('',*,*,#475,.F.) ;
#480=ORIENTED_EDGE('',*,*,#262,.F.) ;
#494=ORIENTED_EDGE('',*,*,#332,.T.) ;
#495=ORIENTED_EDGE('',*,*,#492,.T.) ;
#496=ORIENTED_EDGE('',*,*,#269,.T.) ;
#497=ORIENTED_EDGE('',*,*,#475,.T.) ;
#511=ORIENTED_EDGE('',*,*,#509,.T.) ;
#512=ORIENTED_EDGE('',*,*,#276,.T.) ;
#513=ORIENTED_EDGE('',*,*,#492,.F.) ;
#514=ORIENTED_EDGE('',*,*,#325,.F.) ;
#518=ORIENTED_EDGE('',*,*,#393,.F.) ;
#519=ORIENTED_EDGE('',*,*,#417,.T.) ;
#520=ORIENTED_EDGE('',*,*,#436,.T.) ;
#521=ORIENTED_EDGE('',*,*,#453,.F.) ;
#535=ORIENTED_EDGE('',*,*,#311,.F.) ;
#536=ORIENTED_EDGE('',*,*,#105,.T.) ;
#537=ORIENTED_EDGE('',*,*,#288,.T.) ;
#538=ORIENTED_EDGE('',*,*,#533,.F.) ;
#547=ORIENTED_EDGE('',*,*,#533,.T.) ;
#548=ORIENTED_EDGE('',*,*,#283,.F.) ;
#549=ORIENTED_EDGE('',*,*,#509,.F.) ;
#550=ORIENTED_EDGE('',*,*,#318,.T.) ;
#559=ORIENTED_EDGE('',*,*,#470,.T.) ;
#560=ORIENTED_EDGE('',*,*,#255,.T.) ;
#561=ORIENTED_EDGE('',*,*,#557,.F.) ;
#562=ORIENTED_EDGE('',*,*,#346,.F.) ;
#571=ORIENTED_EDGE('',*,*,#557,.T.) ;
#572=ORIENTED_EDGE('',*,*,#248,.F.) ;
#573=ORIENTED_EDGE('',*,*,#93,.F.) ;
#574=ORIENTED_EDGE('',*,*,#351,.T.) ;
#136=FACE_BOUND('',#131,.T.) ;
#170=FACE_BOUND('',#165,.T.) ;
#32=CLOSED_SHELL('Closed Shell',(#72,#171,#195,#219,#236,#299,#362,#374,#405,#424,#448,#460,#482,#499,#516,#523,#540,#552,#564,#576)) ;
#577=ADVANCED_BREP_SHAPE_REPRESENTATION('NONE',(#22),#17) ;
#72=ADVANCED_FACE('S3D gedreht',(#71),#37,.T.) ;
#171=ADVANCED_FACE('S3D gedreht',(#111,#136,#170),#77,.F.) ;
#195=ADVANCED_FACE('S3D gedreht',(#194),#176,.F.) ;
#219=ADVANCED_FACE('S3D gedreht',(#218),#200,.F.) ;
#236=ADVANCED_FACE('S3D gedreht',(#235),#224,.T.) ;
#299=ADVANCED_FACE('S3D gedreht',(#298),#241,.T.) ;
#362=ADVANCED_FACE('S3D gedreht',(#361),#304,.T.) ;
#374=ADVANCED_FACE('S3D gedreht',(#373),#367,.F.) ;
#405=ADVANCED_FACE('S3D gedreht',(#404),#379,.T.) ;
#424=ADVANCED_FACE('S3D gedreht',(#423),#176,.F.) ;
#448=ADVANCED_FACE('S3D gedreht',(#447),#429,.F.) ;
#460=ADVANCED_FACE('S3D gedreht',(#459),#224,.T.) ;
#482=ADVANCED_FACE('S3D gedreht',(#481),#465,.F.) ;
#499=ADVANCED_FACE('S3D gedreht',(#498),#487,.T.) ;
#516=ADVANCED_FACE('S3D gedreht',(#515),#504,.F.) ;
#523=ADVANCED_FACE('S3D gedreht',(#522),#200,.F.) ;
#540=ADVANCED_FACE('S3D gedreht',(#539),#528,.T.) ;
#552=ADVANCED_FACE('S3D gedreht',(#551),#545,.F.) ;
#564=ADVANCED_FACE('S3D gedreht',(#563),#545,.F.) ;
#576=ADVANCED_FACE('S3D gedreht',(#575),#569,.F.) ;
#4=APPLICATION_PROTOCOL_DEFINITION('international standard','automotive_design',2001,#1) ;
#22=MANIFOLD_SOLID_BREP('S3D gedreht',#32) ;
#23=DRAUGHTING_PRE_DEFINED_COLOUR('white') ;
#46=EDGE_CURVE('',#43,#45,#41,.T.) ;
#53=EDGE_CURVE('',#43,#52,#50,.T.) ;
#60=EDGE_CURVE('',#52,#59,#57,.T.) ;
#65=EDGE_CURVE('',#45,#59,#64,.T.) ;
#86=EDGE_CURVE('',#83,#85,#81,.T.) ;
#93=EDGE_CURVE('',#83,#92,#90,.T.) ;
#100=EDGE_CURVE('',#99,#92,#97,.T.) ;
#105=EDGE_CURVE('',#85,#99,#104,.T.) ;
#118=EDGE_CURVE('',#117,#43,#115,.F.) ;
#125=EDGE_CURVE('',#124,#45,#122,.F.) ;
#130=EDGE_CURVE('',#117,#124,#129,.T.) ;
#145=EDGE_CURVE('',#142,#144,#140,.T.) ;
#152=EDGE_CURVE('',#151,#142,#149,.T.) ;
#159=EDGE_CURVE('',#151,#158,#156,.T.) ;
#164=EDGE_CURVE('',#158,#144,#163,.T.) ;
#183=EDGE_CURVE('',#182,#117,#180,.F.) ;
#188=EDGE_CURVE('',#52,#182,#187,.F.) ;
#207=EDGE_CURVE('',#182,#206,#204,.T.) ;
#212=EDGE_CURVE('',#59,#206,#211,.F.) ;
#229=EDGE_CURVE('',#206,#124,#228,.F.) ;
#248=EDGE_CURVE('',#92,#247,#245,.T.) ;
#255=EDGE_CURVE('',#254,#247,#252,.T.) ;
#262=EDGE_CURVE('',#254,#261,#259,.T.) ;
#269=EDGE_CURVE('',#268,#261,#266,.T.) ;
#276=EDGE_CURVE('',#275,#268,#273,.T.) ;
#283=EDGE_CURVE('',#275,#282,#280,.T.) ;
#288=EDGE_CURVE('',#99,#282,#287,.T.) ;
#311=EDGE_CURVE('',#85,#310,#308,.T.) ;
#318=EDGE_CURVE('',#317,#310,#315,.T.) ;
#325=EDGE_CURVE('',#317,#324,#322,.T.) ;
#332=EDGE_CURVE('',#331,#324,#329,.T.) ;
#339=EDGE_CURVE('',#338,#331,#336,.T.) ;
#346=EDGE_CURVE('',#338,#345,#343,.T.) ;
#351=EDGE_CURVE('',#83,#345,#350,.T.) ;
#386=EDGE_CURVE('',#158,#385,#383,.T.) ;
#393=EDGE_CURVE('',#385,#392,#390,.T.) ;
#398=EDGE_CURVE('',#144,#392,#397,.T.) ;
#412=EDGE_CURVE('',#411,#151,#409,.F.) ;
#417=EDGE_CURVE('',#385,#411,#416,.T.) ;
#436=EDGE_CURVE('',#411,#435,#433,.T.) ;
#441=EDGE_CURVE('',#435,#142,#440,.F.) ;
#453=EDGE_CURVE('',#392,#435,#452,.T.) ;
#470=EDGE_CURVE('',#338,#254,#469,.T.) ;
#475=EDGE_CURVE('',#261,#331,#474,.F.) ;
#492=EDGE_CURVE('',#324,#268,#491,.F.) ;
#509=EDGE_CURVE('',#317,#275,#508,.T.) ;
#533=EDGE_CURVE('',#310,#282,#532,.T.) ;
#557=EDGE_CURVE('',#345,#247,#556,.T.) ;
#66=EDGE_LOOP('',(#67,#68,#69,#70)) ;
#106=EDGE_LOOP('',(#107,#108,#109,#110)) ;
#131=EDGE_LOOP('',(#132,#133,#134,#135)) ;
#165=EDGE_LOOP('',(#166,#167,#168,#169)) ;
#189=EDGE_LOOP('',(#190,#191,#192,#193)) ;
#213=EDGE_LOOP('',(#214,#215,#216,#217)) ;
#230=EDGE_LOOP('',(#231,#232,#233,#234)) ;
#289=EDGE_LOOP('',(#290,#291,#292,#293,#294,#295,#296,#297)) ;
#352=EDGE_LOOP('',(#353,#354,#355,#356,#357,#358,#359,#360)) ;
#368=EDGE_LOOP('',(#369,#370,#371,#372)) ;
#399=EDGE_LOOP('',(#400,#401,#402,#403)) ;
#418=EDGE_LOOP('',(#419,#420,#421,#422)) ;
#442=EDGE_LOOP('',(#443,#444,#445,#446)) ;
#454=EDGE_LOOP('',(#455,#456,#457,#458)) ;
#476=EDGE_LOOP('',(#477,#478,#479,#480)) ;
#493=EDGE_LOOP('',(#494,#495,#496,#497)) ;
#510=EDGE_LOOP('',(#511,#512,#513,#514)) ;
#517=EDGE_LOOP('',(#518,#519,#520,#521)) ;
#534=EDGE_LOOP('',(#535,#536,#537,#538)) ;
#546=EDGE_LOOP('',(#547,#548,#549,#550)) ;
#558=EDGE_LOOP('',(#559,#560,#561,#562)) ;
#570=EDGE_LOOP('',(#571,#572,#573,#574)) ;
#71=FACE_OUTER_BOUND('',#66,.T.) ;
#111=FACE_OUTER_BOUND('',#106,.T.) ;
#194=FACE_OUTER_BOUND('',#189,.T.) ;
#218=FACE_OUTER_BOUND('',#213,.T.) ;
#235=FACE_OUTER_BOUND('',#230,.T.) ;
#298=FACE_OUTER_BOUND('',#289,.T.) ;
#361=FACE_OUTER_BOUND('',#352,.T.) ;
#373=FACE_OUTER_BOUND('',#368,.T.) ;
#404=FACE_OUTER_BOUND('',#399,.T.) ;
#423=FACE_OUTER_BOUND('',#418,.T.) ;
#447=FACE_OUTER_BOUND('',#442,.T.) ;
#459=FACE_OUTER_BOUND('',#454,.T.) ;
#481=FACE_OUTER_BOUND('',#476,.T.) ;
#498=FACE_OUTER_BOUND('',#493,.T.) ;
#515=FACE_OUTER_BOUND('',#510,.T.) ;
#522=FACE_OUTER_BOUND('',#517,.T.) ;
#539=FACE_OUTER_BOUND('',#534,.T.) ;
#551=FACE_OUTER_BOUND('',#546,.T.) ;
#563=FACE_OUTER_BOUND('',#558,.T.) ;
#575=FACE_OUTER_BOUND('',#570,.T.) ;
#41=LINE('Line',#38,#40) ;
#50=LINE('Line',#47,#49) ;
#57=LINE('Line',#54,#56) ;
#64=LINE('Line',#61,#63) ;
#81=LINE('Line',#78,#80) ;
#90=LINE('Line',#87,#89) ;
#97=LINE('Line',#94,#96) ;
#104=LINE('Line',#101,#103) ;
#115=LINE('Line',#112,#114) ;
#122=LINE('Line',#119,#121) ;
#129=LINE('Line',#126,#128) ;
#140=LINE('Line',#137,#139) ;
#149=LINE('Line',#146,#148) ;
#156=LINE('Line',#153,#155) ;
#163=LINE('Line',#160,#162) ;
#180=LINE('Line',#177,#179) ;
#187=LINE('Line',#184,#186) ;
#204=LINE('Line',#201,#203) ;
#211=LINE('Line',#208,#210) ;
#228=LINE('Line',#225,#227) ;
#245=LINE('Line',#242,#244) ;
#252=LINE('Line',#249,#251) ;
#259=LINE('Line',#256,#258) ;
#266=LINE('Line',#263,#265) ;
#273=LINE('Line',#270,#272) ;
#280=LINE('Line',#277,#279) ;
#287=LINE('Line',#284,#286) ;
#308=LINE('Line',#305,#307) ;
#315=LINE('Line',#312,#314) ;
#322=LINE('Line',#319,#321) ;
#329=LINE('Line',#326,#328) ;
#336=LINE('Line',#333,#335) ;
#343=LINE('Line',#340,#342) ;
#350=LINE('Line',#347,#349) ;
#383=LINE('Line',#380,#382) ;
#390=LINE('Line',#387,#389) ;
#397=LINE('Line',#394,#396) ;
#409=LINE('Line',#406,#408) ;
#416=LINE('Line',#413,#415) ;
#433=LINE('Line',#430,#432) ;
#440=LINE('Line',#437,#439) ;
#452=LINE('Line',#449,#451) ;
#469=LINE('Line',#466,#468) ;
#474=LINE('Line',#471,#473) ;
#491=LINE('Line',#488,#490) ;
#508=LINE('Line',#505,#507) ;
#532=LINE('Line',#529,#531) ;
#556=LINE('Line',#553,#555) ;
#37=PLANE('',#36) ;
#77=PLANE('',#76) ;
#176=PLANE('',#175) ;
#200=PLANE('',#199) ;
#224=PLANE('',#223) ;
#241=PLANE('',#240) ;
#304=PLANE('',#303) ;
#367=PLANE('',#366) ;
#379=PLANE('',#378) ;
#429=PLANE('',#428) ;
#465=PLANE('',#464) ;
#487=PLANE('',#486) ;
#504=PLANE('',#503) ;
#528=PLANE('',#527) ;
#545=PLANE('',#544) ;
#569=PLANE('',#568) ;
#14=PLANE_ANGLE_MEASURE_WITH_UNIT(PLANE_ANGLE_MEASURE(0.0174532925199),#13) ;
#9=PRODUCT_CATEGORY_RELATIONSHIP(' ',' ',#7,#8) ;
#6=PRODUCT_DEFINITION_FORMATION_WITH_SPECIFIED_SOURCE('',' ',#5,.NOT_KNOWN.) ;
#21=SHAPE_DEFINITION_REPRESENTATION(#11,#20) ;
#43=VERTEX_POINT('',#42) ;
#45=VERTEX_POINT('',#44) ;
#52=VERTEX_POINT('',#51) ;
#59=VERTEX_POINT('',#58) ;
#83=VERTEX_POINT('',#82) ;
#85=VERTEX_POINT('',#84) ;
#92=VERTEX_POINT('',#91) ;
#99=VERTEX_POINT('',#98) ;
#117=VERTEX_POINT('',#116) ;
#124=VERTEX_POINT('',#123) ;
#142=VERTEX_POINT('',#141) ;
#144=VERTEX_POINT('',#143) ;
#151=VERTEX_POINT('',#150) ;
#158=VERTEX_POINT('',#157) ;
#182=VERTEX_POINT('',#181) ;
#206=VERTEX_POINT('',#205) ;
#247=VERTEX_POINT('',#246) ;
#254=VERTEX_POINT('',#253) ;
#261=VERTEX_POINT('',#260) ;
#268=VERTEX_POINT('',#267) ;
#275=VERTEX_POINT('',#274) ;
#282=VERTEX_POINT('',#281) ;
#310=VERTEX_POINT('',#309) ;
#317=VERTEX_POINT('',#316) ;
#324=VERTEX_POINT('',#323) ;
#331=VERTEX_POINT('',#330) ;
#338=VERTEX_POINT('',#337) ;
#345=VERTEX_POINT('',#344) ;
#385=VERTEX_POINT('',#384) ;
#392=VERTEX_POINT('',#391) ;
#411=VERTEX_POINT('',#410) ;
#435=VERTEX_POINT('',#434) ;
#12=(LENGTH_UNIT()NAMED_UNIT(*)SI_UNIT(.MILLI.,.METRE.)) ;
#13=(NAMED_UNIT(*)PLANE_ANGLE_UNIT()SI_UNIT($,.RADIAN.)) ;
#15=(NAMED_UNIT(*)SI_UNIT($,.STERADIAN.)SOLID_ANGLE_UNIT()) ;
#17=(GEOMETRIC_REPRESENTATION_CONTEXT(3)GLOBAL_UNCERTAINTY_ASSIGNED_CONTEXT((#16))GLOBAL_UNIT_ASSIGNED_CONTEXT((#12,#13,#15))REPRESENTATION_CONTEXT(' ',' ')) ;
ENDSEC;
END-ISO-10303-21;
