ISO-10303-21;
HEADER;
FILE_DESCRIPTION(('CATIA V5 STEP Exchange','CAx-IF Rec.Pracs.--- Model Styling and Organization---1.2---2011-12-15'),'2;1');

FILE_NAME ('D1449761_0_1193970000_1193970000.stp','2018-07-28T09:49:52+00:00',('none'),('Weidmueller'),'CATIA Version 5-6 Release 2014','CATIA V5 STEP AP214','none');

FILE_SCHEMA(('AUTOMOTIVE_DESIGN { 1 0 10303 214 1 1 1 1 }'));

ENDSEC;
DATA;
#5=PRODUCT('1193970000','','',(#2)) ;
#2=PRODUCT_CONTEXT(' ',#1,'mechanical') ;
#1=APPLICATION_CONTEXT('automotive design') ;
#10=PRODUCT_DEFINITION('',' ',#6,#3) ;
#3=PRODUCT_DEFINITION_CONTEXT('part definition',#1,' ') ;
#11=PRODUCT_DEFINITION_SHAPE(' ',' ',#10) ;
#580=MECHANICAL_DESIGN_GEOMETRIC_PRESENTATION_REPRESENTATION(' ',(#29),#16) ;
#19=SHAPE_REPRESENTATION(' ',(#18),#16) ;
#18=AXIS2_PLACEMENT_3D(' ',#17,$,$) ;
#35=AXIS2_PLACEMENT_3D('Cylinder Axis2P3D',#32,#33,#34) ;
#48=AXIS2_PLACEMENT_3D('Circle Axis2P3D',#46,#47,$) ;
#62=AXIS2_PLACEMENT_3D('Circle Axis2P3D',#60,#61,$) ;
#75=AXIS2_PLACEMENT_3D('Plane Axis2P3D',#72,#73,#74) ;
#88=AXIS2_PLACEMENT_3D('Circle Axis2P3D',#86,#87,$) ;
#102=AXIS2_PLACEMENT_3D('Circle Axis2P3D',#100,#101,$) ;
#116=AXIS2_PLACEMENT_3D('Circle Axis2P3D',#114,#115,$) ;
#130=AXIS2_PLACEMENT_3D('Circle Axis2P3D',#128,#129,$) ;
#145=AXIS2_PLACEMENT_3D('Circle Axis2P3D',#143,#144,$) ;
#154=AXIS2_PLACEMENT_3D('Circle Axis2P3D',#152,#153,$) ;
#163=AXIS2_PLACEMENT_3D('Circle Axis2P3D',#161,#162,$) ;
#172=AXIS2_PLACEMENT_3D('Circle Axis2P3D',#170,#171,$) ;
#181=AXIS2_PLACEMENT_3D('Circle Axis2P3D',#179,#180,$) ;
#190=AXIS2_PLACEMENT_3D('Circle Axis2P3D',#188,#189,$) ;
#199=AXIS2_PLACEMENT_3D('Circle Axis2P3D',#197,#198,$) ;
#209=AXIS2_PLACEMENT_3D('Circle Axis2P3D',#207,#208,$) ;
#222=AXIS2_PLACEMENT_3D('Plane Axis2P3D',#219,#220,#221) ;
#253=AXIS2_PLACEMENT_3D('Cylinder Axis2P3D',#250,#251,#252) ;
#257=AXIS2_PLACEMENT_3D('Circle Axis2P3D',#255,#256,$) ;
#277=AXIS2_PLACEMENT_3D('Cylinder Axis2P3D',#274,#275,#276) ;
#288=AXIS2_PLACEMENT_3D('Circle Axis2P3D',#286,#287,$) ;
#301=AXIS2_PLACEMENT_3D('Plane Axis2P3D',#298,#299,#300) ;
#325=AXIS2_PLACEMENT_3D('Cylinder Axis2P3D',#322,#323,#324) ;
#329=AXIS2_PLACEMENT_3D('Circle Axis2P3D',#327,#328,$) ;
#349=AXIS2_PLACEMENT_3D('Plane Axis2P3D',#346,#347,#348) ;
#373=AXIS2_PLACEMENT_3D('Cylinder Axis2P3D',#370,#371,#372) ;
#377=AXIS2_PLACEMENT_3D('Circle Axis2P3D',#375,#376,$) ;
#397=AXIS2_PLACEMENT_3D('Plane Axis2P3D',#394,#395,#396) ;
#414=AXIS2_PLACEMENT_3D('Plane Axis2P3D',#411,#412,#413) ;
#432=AXIS2_PLACEMENT_3D('Circle Axis2P3D',#430,#431,$) ;
#441=AXIS2_PLACEMENT_3D('Circle Axis2P3D',#439,#440,$) ;
#450=AXIS2_PLACEMENT_3D('Circle Axis2P3D',#448,#449,$) ;
#459=AXIS2_PLACEMENT_3D('Circle Axis2P3D',#457,#458,$) ;
#468=AXIS2_PLACEMENT_3D('Circle Axis2P3D',#466,#467,$) ;
#477=AXIS2_PLACEMENT_3D('Circle Axis2P3D',#475,#476,$) ;
#488=AXIS2_PLACEMENT_3D('Cylinder Axis2P3D',#485,#486,#487) ;
#517=AXIS2_PLACEMENT_3D('Cylinder Axis2P3D',#514,#515,#516) ;
#546=AXIS2_PLACEMENT_3D('Cylinder Axis2P3D',#543,#544,#545) ;
#577=AXIS2_PLACEMENT_3D('Axis System.3',#574,#575,#576) ;
#17=CARTESIAN_POINT(' ',(0.,0.,0.)) ;
#32=CARTESIAN_POINT('Axis2P3D Location',(8.,287.,1.5)) ;
#37=CARTESIAN_POINT('Line Origine',(4.92846103338,288.677989385,0.655000011921)) ;
#41=CARTESIAN_POINT('Vertex',(4.92846103338,288.677989385,0.)) ;
#43=CARTESIAN_POINT('Vertex',(4.92846103338,288.677989385,1.5)) ;
#46=CARTESIAN_POINT('Axis2P3D Location',(8.,287.,0.)) ;
#50=CARTESIAN_POINT('Vertex',(11.0715389666,285.322010615,0.)) ;
#53=CARTESIAN_POINT('Line Origine',(11.0715389666,285.322010615,0.655000011921)) ;
#57=CARTESIAN_POINT('Vertex',(11.0715389666,285.322010615,1.5)) ;
#60=CARTESIAN_POINT('Axis2P3D Location',(8.,287.,1.5)) ;
#72=CARTESIAN_POINT('Axis2P3D Location',(0.,0.,1.5)) ;
#77=CARTESIAN_POINT('Line Origine',(99.5,0.,1.5)) ;
#81=CARTESIAN_POINT('Vertex',(5.,0.,1.5)) ;
#83=CARTESIAN_POINT('Vertex',(194.,0.,1.5)) ;
#86=CARTESIAN_POINT('Axis2P3D Location',(194.,5.,1.5)) ;
#90=CARTESIAN_POINT('Vertex',(199.,5.,1.5)) ;
#93=CARTESIAN_POINT('Line Origine',(199.,147.5,1.5)) ;
#97=CARTESIAN_POINT('Vertex',(199.,290.,1.5)) ;
#100=CARTESIAN_POINT('Axis2P3D Location',(194.,290.,1.5)) ;
#104=CARTESIAN_POINT('Vertex',(194.,295.,1.5)) ;
#107=CARTESIAN_POINT('Line Origine',(99.5,295.,1.5)) ;
#111=CARTESIAN_POINT('Vertex',(5.,295.,1.5)) ;
#114=CARTESIAN_POINT('Axis2P3D Location',(5.,290.,1.5)) ;
#118=CARTESIAN_POINT('Vertex',(0.,290.,1.5)) ;
#121=CARTESIAN_POINT('Line Origine',(0.,147.5,1.5)) ;
#125=CARTESIAN_POINT('Vertex',(0.,5.,1.5)) ;
#128=CARTESIAN_POINT('Axis2P3D Location',(5.,5.,1.5)) ;
#143=CARTESIAN_POINT('Axis2P3D Location',(8.,287.,1.5)) ;
#152=CARTESIAN_POINT('Axis2P3D Location',(191.,287.,1.5)) ;
#156=CARTESIAN_POINT('Vertex',(194.071538967,285.322010615,1.5)) ;
#158=CARTESIAN_POINT('Vertex',(187.928461033,288.677989385,1.5)) ;
#161=CARTESIAN_POINT('Axis2P3D Location',(191.,287.,1.5)) ;
#170=CARTESIAN_POINT('Axis2P3D Location',(8.,8.,1.5)) ;
#174=CARTESIAN_POINT('Vertex',(11.0715389666,6.32201061489,1.5)) ;
#176=CARTESIAN_POINT('Vertex',(4.92846103338,9.67798938511,1.5)) ;
#179=CARTESIAN_POINT('Axis2P3D Location',(8.,8.,1.5)) ;
#188=CARTESIAN_POINT('Axis2P3D Location',(191.,8.,1.5)) ;
#192=CARTESIAN_POINT('Vertex',(194.071538967,6.32201061489,1.5)) ;
#194=CARTESIAN_POINT('Vertex',(187.928461033,9.67798938511,1.5)) ;
#197=CARTESIAN_POINT('Axis2P3D Location',(191.,8.,1.5)) ;
#207=CARTESIAN_POINT('Axis2P3D Location',(8.,287.,0.)) ;
#219=CARTESIAN_POINT('Axis2P3D Location',(0.,0.,0.)) ;
#224=CARTESIAN_POINT('Line Origine',(99.5,0.,0.)) ;
#228=CARTESIAN_POINT('Vertex',(5.,0.,0.)) ;
#230=CARTESIAN_POINT('Vertex',(194.,0.,0.)) ;
#233=CARTESIAN_POINT('Line Origine',(194.,0.,0.75)) ;
#238=CARTESIAN_POINT('Line Origine',(5.,0.,0.75)) ;
#250=CARTESIAN_POINT('Axis2P3D Location',(194.,5.,0.75)) ;
#255=CARTESIAN_POINT('Axis2P3D Location',(194.,5.,0.)) ;
#259=CARTESIAN_POINT('Vertex',(199.,5.,0.)) ;
#262=CARTESIAN_POINT('Line Origine',(199.,5.,0.75)) ;
#274=CARTESIAN_POINT('Axis2P3D Location',(5.,5.,0.75)) ;
#279=CARTESIAN_POINT('Line Origine',(0.,5.,0.75)) ;
#283=CARTESIAN_POINT('Vertex',(0.,5.,0.)) ;
#286=CARTESIAN_POINT('Axis2P3D Location',(5.,5.,0.)) ;
#298=CARTESIAN_POINT('Axis2P3D Location',(199.,0.,0.)) ;
#303=CARTESIAN_POINT('Line Origine',(199.,147.5,0.)) ;
#307=CARTESIAN_POINT('Vertex',(199.,290.,0.)) ;
#310=CARTESIAN_POINT('Line Origine',(199.,290.,0.75)) ;
#322=CARTESIAN_POINT('Axis2P3D Location',(194.,290.,0.75)) ;
#327=CARTESIAN_POINT('Axis2P3D Location',(194.,290.,0.)) ;
#331=CARTESIAN_POINT('Vertex',(194.,295.,0.)) ;
#334=CARTESIAN_POINT('Line Origine',(194.,295.,0.75)) ;
#346=CARTESIAN_POINT('Axis2P3D Location',(199.,295.,0.)) ;
#351=CARTESIAN_POINT('Line Origine',(99.5,295.,0.)) ;
#355=CARTESIAN_POINT('Vertex',(5.,295.,0.)) ;
#358=CARTESIAN_POINT('Line Origine',(5.,295.,0.75)) ;
#370=CARTESIAN_POINT('Axis2P3D Location',(5.,290.,0.75)) ;
#375=CARTESIAN_POINT('Axis2P3D Location',(5.,290.,0.)) ;
#379=CARTESIAN_POINT('Vertex',(0.,290.,0.)) ;
#382=CARTESIAN_POINT('Line Origine',(0.,290.,0.75)) ;
#394=CARTESIAN_POINT('Axis2P3D Location',(0.,295.,0.)) ;
#399=CARTESIAN_POINT('Line Origine',(0.,147.5,0.)) ;
#411=CARTESIAN_POINT('Axis2P3D Location',(0.,0.,0.)) ;
#430=CARTESIAN_POINT('Axis2P3D Location',(191.,287.,0.)) ;
#434=CARTESIAN_POINT('Vertex',(187.928461033,288.677989385,0.)) ;
#436=CARTESIAN_POINT('Vertex',(194.071538967,285.322010615,0.)) ;
#439=CARTESIAN_POINT('Axis2P3D Location',(191.,287.,0.)) ;
#448=CARTESIAN_POINT('Axis2P3D Location',(8.,8.,0.)) ;
#452=CARTESIAN_POINT('Vertex',(4.92846103338,9.67798938511,0.)) ;
#454=CARTESIAN_POINT('Vertex',(11.0715389666,6.32201061489,0.)) ;
#457=CARTESIAN_POINT('Axis2P3D Location',(8.,8.,0.)) ;
#466=CARTESIAN_POINT('Axis2P3D Location',(191.,8.,0.)) ;
#470=CARTESIAN_POINT('Vertex',(187.928461033,9.67798938511,0.)) ;
#472=CARTESIAN_POINT('Vertex',(194.071538967,6.32201061489,0.)) ;
#475=CARTESIAN_POINT('Axis2P3D Location',(191.,8.,0.)) ;
#485=CARTESIAN_POINT('Axis2P3D Location',(191.,287.,1.5)) ;
#490=CARTESIAN_POINT('Line Origine',(187.928461033,288.677989385,0.655000011921)) ;
#495=CARTESIAN_POINT('Line Origine',(194.071538967,285.322010615,0.655000011921)) ;
#514=CARTESIAN_POINT('Axis2P3D Location',(8.,8.,1.5)) ;
#519=CARTESIAN_POINT('Line Origine',(4.92846103338,9.67798938511,0.655000011921)) ;
#524=CARTESIAN_POINT('Line Origine',(11.0715389666,6.32201061489,0.655000011921)) ;
#543=CARTESIAN_POINT('Axis2P3D Location',(191.,8.,1.5)) ;
#548=CARTESIAN_POINT('Line Origine',(187.928461033,9.67798938511,0.655000011921)) ;
#553=CARTESIAN_POINT('Line Origine',(194.071538967,6.32201061489,0.655000011921)) ;
#574=CARTESIAN_POINT('Axis2P3D Location',(0.,0.,0.)) ;
#33=DIRECTION('Axis2P3D Direction',(0.,-0.,-1.)) ;
#34=DIRECTION('Axis2P3D XDirection',(0.87758256189,-0.479425538604,0.)) ;
#38=DIRECTION('Vector Direction',(0.,0.,-1.)) ;
#47=DIRECTION('Axis2P3D Direction',(0.,-0.,-1.)) ;
#54=DIRECTION('Vector Direction',(0.,0.,-1.)) ;
#61=DIRECTION('Axis2P3D Direction',(0.,-0.,-1.)) ;
#73=DIRECTION('Axis2P3D Direction',(0.,0.,1.)) ;
#74=DIRECTION('Axis2P3D XDirection',(1.,0.,0.)) ;
#78=DIRECTION('Vector Direction',(1.,0.,0.)) ;
#87=DIRECTION('Axis2P3D Direction',(0.,0.,1.)) ;
#94=DIRECTION('Vector Direction',(0.,1.,0.)) ;
#101=DIRECTION('Axis2P3D Direction',(0.,0.,1.)) ;
#108=DIRECTION('Vector Direction',(-1.,0.,0.)) ;
#115=DIRECTION('Axis2P3D Direction',(0.,0.,1.)) ;
#122=DIRECTION('Vector Direction',(0.,-1.,0.)) ;
#129=DIRECTION('Axis2P3D Direction',(0.,0.,1.)) ;
#144=DIRECTION('Axis2P3D Direction',(0.,0.,1.)) ;
#153=DIRECTION('Axis2P3D Direction',(0.,0.,1.)) ;
#162=DIRECTION('Axis2P3D Direction',(0.,0.,1.)) ;
#171=DIRECTION('Axis2P3D Direction',(0.,0.,1.)) ;
#180=DIRECTION('Axis2P3D Direction',(0.,0.,1.)) ;
#189=DIRECTION('Axis2P3D Direction',(0.,0.,1.)) ;
#198=DIRECTION('Axis2P3D Direction',(0.,0.,1.)) ;
#208=DIRECTION('Axis2P3D Direction',(0.,-0.,-1.)) ;
#220=DIRECTION('Axis2P3D Direction',(0.,-1.,0.)) ;
#221=DIRECTION('Axis2P3D XDirection',(1.,0.,0.)) ;
#225=DIRECTION('Vector Direction',(1.,0.,0.)) ;
#234=DIRECTION('Vector Direction',(0.,0.,1.)) ;
#239=DIRECTION('Vector Direction',(0.,0.,1.)) ;
#251=DIRECTION('Axis2P3D Direction',(0.,0.,1.)) ;
#252=DIRECTION('Axis2P3D XDirection',(-1.83697019872E-016,-1.,-0.)) ;
#256=DIRECTION('Axis2P3D Direction',(0.,0.,1.)) ;
#263=DIRECTION('Vector Direction',(0.,0.,1.)) ;
#275=DIRECTION('Axis2P3D Direction',(0.,0.,1.)) ;
#276=DIRECTION('Axis2P3D XDirection',(-1.,1.83697019872E-016,0.)) ;
#280=DIRECTION('Vector Direction',(0.,0.,1.)) ;
#287=DIRECTION('Axis2P3D Direction',(0.,0.,1.)) ;
#299=DIRECTION('Axis2P3D Direction',(1.,0.,0.)) ;
#300=DIRECTION('Axis2P3D XDirection',(0.,1.,0.)) ;
#304=DIRECTION('Vector Direction',(0.,1.,0.)) ;
#311=DIRECTION('Vector Direction',(0.,0.,1.)) ;
#323=DIRECTION('Axis2P3D Direction',(0.,-0.,1.)) ;
#324=DIRECTION('Axis2P3D XDirection',(1.,-1.83697019872E-016,-0.)) ;
#328=DIRECTION('Axis2P3D Direction',(0.,-0.,1.)) ;
#335=DIRECTION('Vector Direction',(0.,0.,1.)) ;
#347=DIRECTION('Axis2P3D Direction',(0.,1.,-0.)) ;
#348=DIRECTION('Axis2P3D XDirection',(-1.,0.,0.)) ;
#352=DIRECTION('Vector Direction',(-1.,0.,0.)) ;
#359=DIRECTION('Vector Direction',(0.,0.,1.)) ;
#371=DIRECTION('Axis2P3D Direction',(0.,0.,1.)) ;
#372=DIRECTION('Axis2P3D XDirection',(1.83697019872E-016,1.,-0.)) ;
#376=DIRECTION('Axis2P3D Direction',(0.,0.,1.)) ;
#383=DIRECTION('Vector Direction',(0.,0.,1.)) ;
#395=DIRECTION('Axis2P3D Direction',(-1.,0.,0.)) ;
#396=DIRECTION('Axis2P3D XDirection',(0.,-1.,0.)) ;
#400=DIRECTION('Vector Direction',(0.,-1.,0.)) ;
#412=DIRECTION('Axis2P3D Direction',(0.,0.,1.)) ;
#413=DIRECTION('Axis2P3D XDirection',(1.,0.,0.)) ;
#431=DIRECTION('Axis2P3D Direction',(0.,0.,1.)) ;
#440=DIRECTION('Axis2P3D Direction',(0.,0.,1.)) ;
#449=DIRECTION('Axis2P3D Direction',(0.,0.,1.)) ;
#458=DIRECTION('Axis2P3D Direction',(0.,0.,1.)) ;
#467=DIRECTION('Axis2P3D Direction',(0.,0.,1.)) ;
#476=DIRECTION('Axis2P3D Direction',(0.,0.,1.)) ;
#486=DIRECTION('Axis2P3D Direction',(0.,-0.,-1.)) ;
#487=DIRECTION('Axis2P3D XDirection',(0.87758256189,-0.479425538604,0.)) ;
#491=DIRECTION('Vector Direction',(0.,0.,-1.)) ;
#496=DIRECTION('Vector Direction',(0.,0.,-1.)) ;
#515=DIRECTION('Axis2P3D Direction',(0.,-0.,-1.)) ;
#516=DIRECTION('Axis2P3D XDirection',(0.87758256189,-0.479425538604,0.)) ;
#520=DIRECTION('Vector Direction',(0.,0.,-1.)) ;
#525=DIRECTION('Vector Direction',(0.,0.,-1.)) ;
#544=DIRECTION('Axis2P3D Direction',(0.,-0.,-1.)) ;
#545=DIRECTION('Axis2P3D XDirection',(0.87758256189,-0.479425538604,0.)) ;
#549=DIRECTION('Vector Direction',(0.,0.,-1.)) ;
#554=DIRECTION('Vector Direction',(0.,0.,-1.)) ;
#575=DIRECTION('Axis2P3D Direction',(0.,0.,1.)) ;
#576=DIRECTION('Axis2P3D XDirection',(1.,0.,0.)) ;
#30=PRESENTATION_LAYER_ASSIGNMENT('1',' ',(#21)) ;
#8=PRODUCT_RELATED_PRODUCT_CATEGORY('part',$,(#5)) ;
#7=PRODUCT_CATEGORY('part','specification') ;
#29=STYLED_ITEM(' ',(#28),#21) ;
#28=PRESENTATION_STYLE_ASSIGNMENT((#27)) ;
#27=SURFACE_STYLE_USAGE(.BOTH.,#26) ;
#26=SURFACE_SIDE_STYLE(' ',(#25)) ;
#25=SURFACE_STYLE_FILL_AREA(#24) ;
#24=FILL_AREA_STYLE(' ',(#23)) ;
#23=FILL_AREA_STYLE_COLOUR(' ',#22) ;
#39=VECTOR('Line Direction',#38,1.) ;
#55=VECTOR('Line Direction',#54,1.) ;
#79=VECTOR('Line Direction',#78,1.) ;
#95=VECTOR('Line Direction',#94,1.) ;
#109=VECTOR('Line Direction',#108,1.) ;
#123=VECTOR('Line Direction',#122,1.) ;
#226=VECTOR('Line Direction',#225,1.) ;
#235=VECTOR('Line Direction',#234,1.) ;
#240=VECTOR('Line Direction',#239,1.) ;
#264=VECTOR('Line Direction',#263,1.) ;
#281=VECTOR('Line Direction',#280,1.) ;
#305=VECTOR('Line Direction',#304,1.) ;
#312=VECTOR('Line Direction',#311,1.) ;
#336=VECTOR('Line Direction',#335,1.) ;
#353=VECTOR('Line Direction',#352,1.) ;
#360=VECTOR('Line Direction',#359,1.) ;
#384=VECTOR('Line Direction',#383,1.) ;
#401=VECTOR('Line Direction',#400,1.) ;
#492=VECTOR('Line Direction',#491,1.) ;
#497=VECTOR('Line Direction',#496,1.) ;
#521=VECTOR('Line Direction',#520,1.) ;
#526=VECTOR('Line Direction',#525,1.) ;
#550=VECTOR('Line Direction',#549,1.) ;
#555=VECTOR('Line Direction',#554,1.) ;
#15=UNCERTAINTY_MEASURE_WITH_UNIT(LENGTH_MEASURE(0.005),#12,'distance_accuracy_value','CONFUSED CURVE UNCERTAINTY') ;
#573=SHAPE_REPRESENTATION_RELATIONSHIP(' ',' ',#19,#572) ;
#66=ORIENTED_EDGE('',*,*,#45,.F.) ;
#67=ORIENTED_EDGE('',*,*,#52,.F.) ;
#68=ORIENTED_EDGE('',*,*,#59,.T.) ;
#69=ORIENTED_EDGE('',*,*,#64,.T.) ;
#134=ORIENTED_EDGE('',*,*,#85,.T.) ;
#135=ORIENTED_EDGE('',*,*,#92,.F.) ;
#136=ORIENTED_EDGE('',*,*,#99,.T.) ;
#137=ORIENTED_EDGE('',*,*,#106,.F.) ;
#138=ORIENTED_EDGE('',*,*,#113,.T.) ;
#139=ORIENTED_EDGE('',*,*,#120,.F.) ;
#140=ORIENTED_EDGE('',*,*,#127,.T.) ;
#141=ORIENTED_EDGE('',*,*,#132,.F.) ;
#149=ORIENTED_EDGE('',*,*,#147,.F.) ;
#150=ORIENTED_EDGE('',*,*,#64,.F.) ;
#167=ORIENTED_EDGE('',*,*,#160,.F.) ;
#168=ORIENTED_EDGE('',*,*,#165,.F.) ;
#185=ORIENTED_EDGE('',*,*,#178,.F.) ;
#186=ORIENTED_EDGE('',*,*,#183,.F.) ;
#203=ORIENTED_EDGE('',*,*,#196,.F.) ;
#204=ORIENTED_EDGE('',*,*,#201,.F.) ;
#213=ORIENTED_EDGE('',*,*,#59,.F.) ;
#214=ORIENTED_EDGE('',*,*,#211,.F.) ;
#215=ORIENTED_EDGE('',*,*,#45,.T.) ;
#216=ORIENTED_EDGE('',*,*,#147,.T.) ;
#244=ORIENTED_EDGE('',*,*,#232,.T.) ;
#245=ORIENTED_EDGE('',*,*,#237,.T.) ;
#246=ORIENTED_EDGE('',*,*,#85,.F.) ;
#247=ORIENTED_EDGE('',*,*,#242,.F.) ;
#268=ORIENTED_EDGE('',*,*,#92,.T.) ;
#269=ORIENTED_EDGE('',*,*,#237,.F.) ;
#270=ORIENTED_EDGE('',*,*,#261,.T.) ;
#271=ORIENTED_EDGE('',*,*,#266,.T.) ;
#292=ORIENTED_EDGE('',*,*,#132,.T.) ;
#293=ORIENTED_EDGE('',*,*,#285,.F.) ;
#294=ORIENTED_EDGE('',*,*,#290,.T.) ;
#295=ORIENTED_EDGE('',*,*,#242,.T.) ;
#316=ORIENTED_EDGE('',*,*,#309,.T.) ;
#317=ORIENTED_EDGE('',*,*,#314,.T.) ;
#318=ORIENTED_EDGE('',*,*,#99,.F.) ;
#319=ORIENTED_EDGE('',*,*,#266,.F.) ;
#340=ORIENTED_EDGE('',*,*,#106,.T.) ;
#341=ORIENTED_EDGE('',*,*,#314,.F.) ;
#342=ORIENTED_EDGE('',*,*,#333,.T.) ;
#343=ORIENTED_EDGE('',*,*,#338,.T.) ;
#364=ORIENTED_EDGE('',*,*,#357,.T.) ;
#365=ORIENTED_EDGE('',*,*,#362,.T.) ;
#366=ORIENTED_EDGE('',*,*,#113,.F.) ;
#367=ORIENTED_EDGE('',*,*,#338,.F.) ;
#388=ORIENTED_EDGE('',*,*,#120,.T.) ;
#389=ORIENTED_EDGE('',*,*,#362,.F.) ;
#390=ORIENTED_EDGE('',*,*,#381,.T.) ;
#391=ORIENTED_EDGE('',*,*,#386,.T.) ;
#405=ORIENTED_EDGE('',*,*,#127,.F.) ;
#406=ORIENTED_EDGE('',*,*,#386,.F.) ;
#407=ORIENTED_EDGE('',*,*,#403,.T.) ;
#408=ORIENTED_EDGE('',*,*,#285,.T.) ;
#417=ORIENTED_EDGE('',*,*,#290,.F.) ;
#418=ORIENTED_EDGE('',*,*,#403,.F.) ;
#419=ORIENTED_EDGE('',*,*,#381,.F.) ;
#420=ORIENTED_EDGE('',*,*,#357,.F.) ;
#421=ORIENTED_EDGE('',*,*,#333,.F.) ;
#422=ORIENTED_EDGE('',*,*,#309,.F.) ;
#423=ORIENTED_EDGE('',*,*,#261,.F.) ;
#424=ORIENTED_EDGE('',*,*,#232,.F.) ;
#427=ORIENTED_EDGE('',*,*,#52,.T.) ;
#428=ORIENTED_EDGE('',*,*,#211,.T.) ;
#445=ORIENTED_EDGE('',*,*,#438,.T.) ;
#446=ORIENTED_EDGE('',*,*,#443,.T.) ;
#463=ORIENTED_EDGE('',*,*,#456,.T.) ;
#464=ORIENTED_EDGE('',*,*,#461,.T.) ;
#481=ORIENTED_EDGE('',*,*,#474,.T.) ;
#482=ORIENTED_EDGE('',*,*,#479,.T.) ;
#501=ORIENTED_EDGE('',*,*,#494,.F.) ;
#502=ORIENTED_EDGE('',*,*,#443,.F.) ;
#503=ORIENTED_EDGE('',*,*,#499,.T.) ;
#504=ORIENTED_EDGE('',*,*,#160,.T.) ;
#508=ORIENTED_EDGE('',*,*,#499,.F.) ;
#509=ORIENTED_EDGE('',*,*,#438,.F.) ;
#510=ORIENTED_EDGE('',*,*,#494,.T.) ;
#511=ORIENTED_EDGE('',*,*,#165,.T.) ;
#530=ORIENTED_EDGE('',*,*,#523,.F.) ;
#531=ORIENTED_EDGE('',*,*,#461,.F.) ;
#532=ORIENTED_EDGE('',*,*,#528,.T.) ;
#533=ORIENTED_EDGE('',*,*,#178,.T.) ;
#537=ORIENTED_EDGE('',*,*,#528,.F.) ;
#538=ORIENTED_EDGE('',*,*,#456,.F.) ;
#539=ORIENTED_EDGE('',*,*,#523,.T.) ;
#540=ORIENTED_EDGE('',*,*,#183,.T.) ;
#559=ORIENTED_EDGE('',*,*,#552,.F.) ;
#560=ORIENTED_EDGE('',*,*,#479,.F.) ;
#561=ORIENTED_EDGE('',*,*,#557,.T.) ;
#562=ORIENTED_EDGE('',*,*,#196,.T.) ;
#566=ORIENTED_EDGE('',*,*,#557,.F.) ;
#567=ORIENTED_EDGE('',*,*,#474,.F.) ;
#568=ORIENTED_EDGE('',*,*,#552,.T.) ;
#569=ORIENTED_EDGE('',*,*,#201,.T.) ;
#151=FACE_BOUND('',#148,.T.) ;
#169=FACE_BOUND('',#166,.T.) ;
#187=FACE_BOUND('',#184,.T.) ;
#205=FACE_BOUND('',#202,.T.) ;
#429=FACE_BOUND('',#426,.T.) ;
#447=FACE_BOUND('',#444,.T.) ;
#465=FACE_BOUND('',#462,.T.) ;
#483=FACE_BOUND('',#480,.T.) ;
#31=CLOSED_SHELL('Closed Shell',(#71,#206,#218,#249,#273,#297,#321,#345,#369,#393,#410,#484,#506,#513,#535,#542,#564,#571)) ;
#572=ADVANCED_BREP_SHAPE_REPRESENTATION('NONE',(#21),#16) ;
#71=ADVANCED_FACE('Hauptkoerper',(#70),#36,.F.) ;
#206=ADVANCED_FACE('Hauptkoerper',(#142,#151,#169,#187,#205),#76,.T.) ;
#218=ADVANCED_FACE('Hauptkoerper',(#217),#36,.F.) ;
#249=ADVANCED_FACE('Hauptkoerper',(#248),#223,.T.) ;
#273=ADVANCED_FACE('Hauptkoerper',(#272),#254,.T.) ;
#297=ADVANCED_FACE('Hauptkoerper',(#296),#278,.T.) ;
#321=ADVANCED_FACE('Hauptkoerper',(#320),#302,.T.) ;
#345=ADVANCED_FACE('Hauptkoerper',(#344),#326,.T.) ;
#369=ADVANCED_FACE('Hauptkoerper',(#368),#350,.T.) ;
#393=ADVANCED_FACE('Hauptkoerper',(#392),#374,.T.) ;
#410=ADVANCED_FACE('Hauptkoerper',(#409),#398,.T.) ;
#484=ADVANCED_FACE('Hauptkoerper',(#425,#429,#447,#465,#483),#415,.F.) ;
#506=ADVANCED_FACE('Hauptkoerper',(#505),#489,.F.) ;
#513=ADVANCED_FACE('Hauptkoerper',(#512),#489,.F.) ;
#535=ADVANCED_FACE('Hauptkoerper',(#534),#518,.F.) ;
#542=ADVANCED_FACE('Hauptkoerper',(#541),#518,.F.) ;
#564=ADVANCED_FACE('Hauptkoerper',(#563),#547,.F.) ;
#571=ADVANCED_FACE('Hauptkoerper',(#570),#547,.F.) ;
#4=APPLICATION_PROTOCOL_DEFINITION('international standard','automotive_design',2001,#1) ;
#21=MANIFOLD_SOLID_BREP('Hauptkoerper',#31) ;
#49=CIRCLE('generated circle',#48,3.5) ;
#63=CIRCLE('generated circle',#62,3.5) ;
#89=CIRCLE('generated circle',#88,5.) ;
#103=CIRCLE('generated circle',#102,5.) ;
#117=CIRCLE('generated circle',#116,5.) ;
#131=CIRCLE('generated circle',#130,5.) ;
#146=CIRCLE('generated circle',#145,3.5) ;
#155=CIRCLE('generated circle',#154,3.5) ;
#164=CIRCLE('generated circle',#163,3.5) ;
#173=CIRCLE('generated circle',#172,3.5) ;
#182=CIRCLE('generated circle',#181,3.5) ;
#191=CIRCLE('generated circle',#190,3.5) ;
#200=CIRCLE('generated circle',#199,3.5) ;
#210=CIRCLE('generated circle',#209,3.5) ;
#258=CIRCLE('generated circle',#257,5.) ;
#289=CIRCLE('generated circle',#288,5.) ;
#330=CIRCLE('generated circle',#329,5.) ;
#378=CIRCLE('generated circle',#377,5.) ;
#433=CIRCLE('generated circle',#432,3.5) ;
#442=CIRCLE('generated circle',#441,3.5) ;
#451=CIRCLE('generated circle',#450,3.5) ;
#460=CIRCLE('generated circle',#459,3.5) ;
#469=CIRCLE('generated circle',#468,3.5) ;
#478=CIRCLE('generated circle',#477,3.5) ;
#22=COLOUR_RGB('Colour',0.619607843137,0.56862745098,0.658823529412) ;
#578=CONSTRUCTIVE_GEOMETRY_REPRESENTATION('supplemental geometry',(#577),#16) ;
#579=CONSTRUCTIVE_GEOMETRY_REPRESENTATION_RELATIONSHIP('supplemental geometry','',#19,#578) ;
#36=CYLINDRICAL_SURFACE('generated cylinder',#35,3.5) ;
#254=CYLINDRICAL_SURFACE('generated cylinder',#253,5.) ;
#278=CYLINDRICAL_SURFACE('generated cylinder',#277,5.) ;
#326=CYLINDRICAL_SURFACE('generated cylinder',#325,5.) ;
#374=CYLINDRICAL_SURFACE('generated cylinder',#373,5.) ;
#489=CYLINDRICAL_SURFACE('generated cylinder',#488,3.5) ;
#518=CYLINDRICAL_SURFACE('generated cylinder',#517,3.5) ;
#547=CYLINDRICAL_SURFACE('generated cylinder',#546,3.5) ;
#45=EDGE_CURVE('',#42,#44,#40,.F.) ;
#52=EDGE_CURVE('',#51,#42,#49,.F.) ;
#59=EDGE_CURVE('',#51,#58,#56,.F.) ;
#64=EDGE_CURVE('',#58,#44,#63,.F.) ;
#85=EDGE_CURVE('',#82,#84,#80,.T.) ;
#92=EDGE_CURVE('',#91,#84,#89,.F.) ;
#99=EDGE_CURVE('',#91,#98,#96,.T.) ;
#106=EDGE_CURVE('',#105,#98,#103,.F.) ;
#113=EDGE_CURVE('',#105,#112,#110,.T.) ;
#120=EDGE_CURVE('',#119,#112,#117,.F.) ;
#127=EDGE_CURVE('',#119,#126,#124,.T.) ;
#132=EDGE_CURVE('',#82,#126,#131,.F.) ;
#147=EDGE_CURVE('',#44,#58,#146,.T.) ;
#160=EDGE_CURVE('',#157,#159,#155,.T.) ;
#165=EDGE_CURVE('',#159,#157,#164,.T.) ;
#178=EDGE_CURVE('',#175,#177,#173,.T.) ;
#183=EDGE_CURVE('',#177,#175,#182,.T.) ;
#196=EDGE_CURVE('',#193,#195,#191,.T.) ;
#201=EDGE_CURVE('',#195,#193,#200,.T.) ;
#211=EDGE_CURVE('',#42,#51,#210,.F.) ;
#232=EDGE_CURVE('',#229,#231,#227,.T.) ;
#237=EDGE_CURVE('',#231,#84,#236,.T.) ;
#242=EDGE_CURVE('',#229,#82,#241,.T.) ;
#261=EDGE_CURVE('',#231,#260,#258,.T.) ;
#266=EDGE_CURVE('',#260,#91,#265,.T.) ;
#285=EDGE_CURVE('',#284,#126,#282,.T.) ;
#290=EDGE_CURVE('',#284,#229,#289,.T.) ;
#309=EDGE_CURVE('',#260,#308,#306,.T.) ;
#314=EDGE_CURVE('',#308,#98,#313,.T.) ;
#333=EDGE_CURVE('',#308,#332,#330,.T.) ;
#338=EDGE_CURVE('',#332,#105,#337,.T.) ;
#357=EDGE_CURVE('',#332,#356,#354,.T.) ;
#362=EDGE_CURVE('',#356,#112,#361,.T.) ;
#381=EDGE_CURVE('',#356,#380,#378,.T.) ;
#386=EDGE_CURVE('',#380,#119,#385,.T.) ;
#403=EDGE_CURVE('',#380,#284,#402,.T.) ;
#438=EDGE_CURVE('',#435,#437,#433,.T.) ;
#443=EDGE_CURVE('',#437,#435,#442,.T.) ;
#456=EDGE_CURVE('',#453,#455,#451,.T.) ;
#461=EDGE_CURVE('',#455,#453,#460,.T.) ;
#474=EDGE_CURVE('',#471,#473,#469,.T.) ;
#479=EDGE_CURVE('',#473,#471,#478,.T.) ;
#494=EDGE_CURVE('',#435,#159,#493,.F.) ;
#499=EDGE_CURVE('',#437,#157,#498,.F.) ;
#523=EDGE_CURVE('',#453,#177,#522,.F.) ;
#528=EDGE_CURVE('',#455,#175,#527,.F.) ;
#552=EDGE_CURVE('',#471,#195,#551,.F.) ;
#557=EDGE_CURVE('',#473,#193,#556,.F.) ;
#65=EDGE_LOOP('',(#66,#67,#68,#69)) ;
#133=EDGE_LOOP('',(#134,#135,#136,#137,#138,#139,#140,#141)) ;
#148=EDGE_LOOP('',(#149,#150)) ;
#166=EDGE_LOOP('',(#167,#168)) ;
#184=EDGE_LOOP('',(#185,#186)) ;
#202=EDGE_LOOP('',(#203,#204)) ;
#212=EDGE_LOOP('',(#213,#214,#215,#216)) ;
#243=EDGE_LOOP('',(#244,#245,#246,#247)) ;
#267=EDGE_LOOP('',(#268,#269,#270,#271)) ;
#291=EDGE_LOOP('',(#292,#293,#294,#295)) ;
#315=EDGE_LOOP('',(#316,#317,#318,#319)) ;
#339=EDGE_LOOP('',(#340,#341,#342,#343)) ;
#363=EDGE_LOOP('',(#364,#365,#366,#367)) ;
#387=EDGE_LOOP('',(#388,#389,#390,#391)) ;
#404=EDGE_LOOP('',(#405,#406,#407,#408)) ;
#416=EDGE_LOOP('',(#417,#418,#419,#420,#421,#422,#423,#424)) ;
#426=EDGE_LOOP('',(#427,#428)) ;
#444=EDGE_LOOP('',(#445,#446)) ;
#462=EDGE_LOOP('',(#463,#464)) ;
#480=EDGE_LOOP('',(#481,#482)) ;
#500=EDGE_LOOP('',(#501,#502,#503,#504)) ;
#507=EDGE_LOOP('',(#508,#509,#510,#511)) ;
#529=EDGE_LOOP('',(#530,#531,#532,#533)) ;
#536=EDGE_LOOP('',(#537,#538,#539,#540)) ;
#558=EDGE_LOOP('',(#559,#560,#561,#562)) ;
#565=EDGE_LOOP('',(#566,#567,#568,#569)) ;
#70=FACE_OUTER_BOUND('',#65,.T.) ;
#142=FACE_OUTER_BOUND('',#133,.T.) ;
#217=FACE_OUTER_BOUND('',#212,.T.) ;
#248=FACE_OUTER_BOUND('',#243,.T.) ;
#272=FACE_OUTER_BOUND('',#267,.T.) ;
#296=FACE_OUTER_BOUND('',#291,.T.) ;
#320=FACE_OUTER_BOUND('',#315,.T.) ;
#344=FACE_OUTER_BOUND('',#339,.T.) ;
#368=FACE_OUTER_BOUND('',#363,.T.) ;
#392=FACE_OUTER_BOUND('',#387,.T.) ;
#409=FACE_OUTER_BOUND('',#404,.T.) ;
#425=FACE_OUTER_BOUND('',#416,.T.) ;
#505=FACE_OUTER_BOUND('',#500,.T.) ;
#512=FACE_OUTER_BOUND('',#507,.T.) ;
#534=FACE_OUTER_BOUND('',#529,.T.) ;
#541=FACE_OUTER_BOUND('',#536,.T.) ;
#563=FACE_OUTER_BOUND('',#558,.T.) ;
#570=FACE_OUTER_BOUND('',#565,.T.) ;
#40=LINE('Line',#37,#39) ;
#56=LINE('Line',#53,#55) ;
#80=LINE('Line',#77,#79) ;
#96=LINE('Line',#93,#95) ;
#110=LINE('Line',#107,#109) ;
#124=LINE('Line',#121,#123) ;
#227=LINE('Line',#224,#226) ;
#236=LINE('Line',#233,#235) ;
#241=LINE('Line',#238,#240) ;
#265=LINE('Line',#262,#264) ;
#282=LINE('Line',#279,#281) ;
#306=LINE('Line',#303,#305) ;
#313=LINE('Line',#310,#312) ;
#337=LINE('Line',#334,#336) ;
#354=LINE('Line',#351,#353) ;
#361=LINE('Line',#358,#360) ;
#385=LINE('Line',#382,#384) ;
#402=LINE('Line',#399,#401) ;
#493=LINE('Line',#490,#492) ;
#498=LINE('Line',#495,#497) ;
#522=LINE('Line',#519,#521) ;
#527=LINE('Line',#524,#526) ;
#551=LINE('Line',#548,#550) ;
#556=LINE('Line',#553,#555) ;
#76=PLANE('',#75) ;
#223=PLANE('',#222) ;
#302=PLANE('',#301) ;
#350=PLANE('',#349) ;
#398=PLANE('',#397) ;
#415=PLANE('',#414) ;
#9=PRODUCT_CATEGORY_RELATIONSHIP(' ',' ',#7,#8) ;
#6=PRODUCT_DEFINITION_FORMATION_WITH_SPECIFIED_SOURCE('',' ',#5,.NOT_KNOWN.) ;
#20=SHAPE_DEFINITION_REPRESENTATION(#11,#19) ;
#42=VERTEX_POINT('',#41) ;
#44=VERTEX_POINT('',#43) ;
#51=VERTEX_POINT('',#50) ;
#58=VERTEX_POINT('',#57) ;
#82=VERTEX_POINT('',#81) ;
#84=VERTEX_POINT('',#83) ;
#91=VERTEX_POINT('',#90) ;
#98=VERTEX_POINT('',#97) ;
#105=VERTEX_POINT('',#104) ;
#112=VERTEX_POINT('',#111) ;
#119=VERTEX_POINT('',#118) ;
#126=VERTEX_POINT('',#125) ;
#157=VERTEX_POINT('',#156) ;
#159=VERTEX_POINT('',#158) ;
#175=VERTEX_POINT('',#174) ;
#177=VERTEX_POINT('',#176) ;
#193=VERTEX_POINT('',#192) ;
#195=VERTEX_POINT('',#194) ;
#229=VERTEX_POINT('',#228) ;
#231=VERTEX_POINT('',#230) ;
#260=VERTEX_POINT('',#259) ;
#284=VERTEX_POINT('',#283) ;
#308=VERTEX_POINT('',#307) ;
#332=VERTEX_POINT('',#331) ;
#356=VERTEX_POINT('',#355) ;
#380=VERTEX_POINT('',#379) ;
#435=VERTEX_POINT('',#434) ;
#437=VERTEX_POINT('',#436) ;
#453=VERTEX_POINT('',#452) ;
#455=VERTEX_POINT('',#454) ;
#471=VERTEX_POINT('',#470) ;
#473=VERTEX_POINT('',#472) ;
#12=(LENGTH_UNIT()NAMED_UNIT(*)SI_UNIT(.MILLI.,.METRE.)) ;
#13=(NAMED_UNIT(*)PLANE_ANGLE_UNIT()SI_UNIT($,.RADIAN.)) ;
#14=(NAMED_UNIT(*)SI_UNIT($,.STERADIAN.)SOLID_ANGLE_UNIT()) ;
#16=(GEOMETRIC_REPRESENTATION_CONTEXT(3)GLOBAL_UNCERTAINTY_ASSIGNED_CONTEXT((#15))GLOBAL_UNIT_ASSIGNED_CONTEXT((#12,#13,#14))REPRESENTATION_CONTEXT(' ',' ')) ;
ENDSEC;
END-ISO-10303-21;
