ISO-10303-21;
HEADER;
FILE_DESCRIPTION(('CATIA V5 STEP Exchange','CAx-IF Rec.Pracs.--- Model Styling and Organization---1.4--- 2014-01-23'),'2;1');

FILE_NAME ('002393-2_0_0565000000_0565000000_S.stp','2021-05-07T10:54:30+00:00',('none'),('Weidmueller'),'CATIA Version 5-6 Release 2016 SP3 HF44','CATIA V5 STEP AP214','none');

FILE_SCHEMA(('AUTOMOTIVE_DESIGN { 1 0 10303 214 1 1 1 1 }'));

ENDSEC;
DATA;
#5=PRODUCT('QL 3 SAK35N','','<Q-CHECKER_SEAL> Q-Checker Version 2.14.8  \X2\000A\X0\CATIA-Version         : Catia V5 R19 SP5 Build Date 07-20-2009.19.00\X2\000A\X0\Model size (in KByte) : 0\X2\000A\X0\Checking date         : 2012-01-31 09:30:39\X2\000A\X0\Checking profile      : ADMIN / Release_2D-3D [CATPart]\X2\000A\X0\Model assessment      : In Ordnung (IO)\X2\000A\X0\Total weight sum      : 0\X2\000A\X0\<CROSS_CHECK_SUM>\X2\000A\X0\  <CHKSUM_DATE> -1618231472 </CHKSUM_DATE>\X2\000A\X0\  <CHKSUM_ENTITIES> 1290162179 </CHKSUM_ENTITIES>\X2\000A\X0\  <CHKSUM_PROFILE> 1594213346 </CHKSUM_PROFILE>\X2\000A\X0\  <CHKSUM_DIMENSION> -186917087 </CHKSUM_DIMENSION>\X2\000A\X0\  <CHKSUM_PROJINTERSEC> -896974048 </CHKSUM_PROJINTERSEC>\X2\000A\X0\  <CHKSUM_IDENTCRV> -896974048 </CHKSUM_IDENTCRV>\X2\000A\X0\  <CHKSUM_INFINITY> 138018827 </CHKSUM_INFINITY>\X2\000A\X0\</CROSS_CHECK_SUM>\X2\000A\X0\</Q-CHECKER_SEAL> \X2\000A\X0\ \X2\000A\X0\ \X2\000A\X0\',(#2)) ;
#2=PRODUCT_CONTEXT(' ',#1,'mechanical') ;
#1=APPLICATION_CONTEXT('automotive design') ;
#10=PRODUCT_DEFINITION('',' ',#6,#3) ;
#3=PRODUCT_DEFINITION_CONTEXT('part definition',#1,' ') ;
#11=PRODUCT_DEFINITION_SHAPE(' ',' ',#10) ;
#581=MECHANICAL_DESIGN_GEOMETRIC_PRESENTATION_REPRESENTATION(' ',(#29),#16) ;
#582=MECHANICAL_DESIGN_GEOMETRIC_PRESENTATION_REPRESENTATION(' ',(#578),#16) ;
#19=SHAPE_REPRESENTATION(' ',(#18),#16) ;
#18=AXIS2_PLACEMENT_3D(' ',#17,$,$) ;
#35=AXIS2_PLACEMENT_3D('Plane Axis2P3D',#32,#33,#34) ;
#75=AXIS2_PLACEMENT_3D('Cylinder Axis2P3D',#72,#73,#74) ;
#79=AXIS2_PLACEMENT_3D('Circle Axis2P3D',#77,#78,$) ;
#86=AXIS2_PLACEMENT_3D('Circle Axis2P3D',#84,#85,$) ;
#106=AXIS2_PLACEMENT_3D('Plane Axis2P3D',#103,#104,#105) ;
#137=AXIS2_PLACEMENT_3D('Plane Axis2P3D',#134,#135,#136) ;
#177=AXIS2_PLACEMENT_3D('Plane Axis2P3D',#174,#175,#176) ;
#208=AXIS2_PLACEMENT_3D('Plane Axis2P3D',#205,#206,#207) ;
#239=AXIS2_PLACEMENT_3D('Plane Axis2P3D',#236,#237,#238) ;
#261=AXIS2_PLACEMENT_3D('Cylinder Axis2P3D',#258,#259,#260) ;
#265=AXIS2_PLACEMENT_3D('Circle Axis2P3D',#263,#264,$) ;
#270=AXIS2_PLACEMENT_3D('Circle Axis2P3D',#268,#269,$) ;
#283=AXIS2_PLACEMENT_3D('Plane Axis2P3D',#280,#281,#282) ;
#299=AXIS2_PLACEMENT_3D('Circle Axis2P3D',#297,#298,$) ;
#315=AXIS2_PLACEMENT_3D('Circle Axis2P3D',#313,#314,$) ;
#333=AXIS2_PLACEMENT_3D('Circle Axis2P3D',#331,#332,$) ;
#349=AXIS2_PLACEMENT_3D('Circle Axis2P3D',#347,#348,$) ;
#369=AXIS2_PLACEMENT_3D('Plane Axis2P3D',#366,#367,#368) ;
#385=AXIS2_PLACEMENT_3D('Circle Axis2P3D',#383,#384,$) ;
#401=AXIS2_PLACEMENT_3D('Circle Axis2P3D',#399,#400,$) ;
#419=AXIS2_PLACEMENT_3D('Circle Axis2P3D',#417,#418,$) ;
#435=AXIS2_PLACEMENT_3D('Circle Axis2P3D',#433,#434,$) ;
#455=AXIS2_PLACEMENT_3D('Cylinder Axis2P3D',#452,#453,#454) ;
#501=AXIS2_PLACEMENT_3D('Cylinder Axis2P3D',#498,#499,#500) ;
#513=AXIS2_PLACEMENT_3D('Cylinder Axis2P3D',#510,#511,#512) ;
#559=AXIS2_PLACEMENT_3D('Cylinder Axis2P3D',#556,#557,#558) ;
#573=AXIS2_PLACEMENT_3D('Axis System.1',#570,#571,#572) ;
#17=CARTESIAN_POINT(' ',(0.,0.,0.)) ;
#32=CARTESIAN_POINT('Axis2P3D Location',(4.1,6.1,3.)) ;
#37=CARTESIAN_POINT('Line Origine',(4.5,6.1,0.)) ;
#41=CARTESIAN_POINT('Vertex',(4.1,6.1,0.)) ;
#43=CARTESIAN_POINT('Vertex',(4.9,6.1,0.)) ;
#46=CARTESIAN_POINT('Line Origine',(4.9,6.1,1.5)) ;
#50=CARTESIAN_POINT('Vertex',(4.9,6.1,3.)) ;
#53=CARTESIAN_POINT('Line Origine',(4.5,6.1,3.)) ;
#57=CARTESIAN_POINT('Vertex',(4.1,6.1,3.)) ;
#60=CARTESIAN_POINT('Line Origine',(4.1,6.1,1.5)) ;
#72=CARTESIAN_POINT('Axis2P3D Location',(4.1,4.,0.83999999994)) ;
#77=CARTESIAN_POINT('Axis2P3D Location',(4.1,4.,0.)) ;
#81=CARTESIAN_POINT('Vertex',(4.1,1.9,0.)) ;
#84=CARTESIAN_POINT('Axis2P3D Location',(4.1,4.,3.)) ;
#88=CARTESIAN_POINT('Vertex',(4.1,1.9,3.)) ;
#91=CARTESIAN_POINT('Line Origine',(4.1,1.9,0.83999999994)) ;
#103=CARTESIAN_POINT('Axis2P3D Location',(4.9,1.9,3.)) ;
#108=CARTESIAN_POINT('Line Origine',(4.5,1.9,0.)) ;
#112=CARTESIAN_POINT('Vertex',(4.9,1.9,0.)) ;
#115=CARTESIAN_POINT('Line Origine',(4.5,1.9,3.)) ;
#119=CARTESIAN_POINT('Vertex',(4.9,1.9,3.)) ;
#122=CARTESIAN_POINT('Line Origine',(4.9,1.9,1.5)) ;
#134=CARTESIAN_POINT('Axis2P3D Location',(0.,0.,0.)) ;
#139=CARTESIAN_POINT('Line Origine',(0.,0.,1.5)) ;
#143=CARTESIAN_POINT('Vertex',(0.,0.,0.)) ;
#145=CARTESIAN_POINT('Vertex',(0.,0.,3.)) ;
#148=CARTESIAN_POINT('Line Origine',(20.5,0.,0.)) ;
#152=CARTESIAN_POINT('Vertex',(41.,0.,0.)) ;
#155=CARTESIAN_POINT('Line Origine',(41.,0.,1.5)) ;
#159=CARTESIAN_POINT('Vertex',(41.,0.,3.)) ;
#162=CARTESIAN_POINT('Line Origine',(20.5,0.,3.)) ;
#174=CARTESIAN_POINT('Axis2P3D Location',(41.,-5.6136487585E-014,0.)) ;
#179=CARTESIAN_POINT('Line Origine',(41.,4.,0.)) ;
#183=CARTESIAN_POINT('Vertex',(41.,8.,0.)) ;
#186=CARTESIAN_POINT('Line Origine',(41.,8.,1.5)) ;
#190=CARTESIAN_POINT('Vertex',(41.,8.,3.)) ;
#193=CARTESIAN_POINT('Line Origine',(41.,4.,3.)) ;
#205=CARTESIAN_POINT('Axis2P3D Location',(41.,8.,0.)) ;
#210=CARTESIAN_POINT('Line Origine',(20.5,8.,0.)) ;
#214=CARTESIAN_POINT('Vertex',(0.,8.,0.)) ;
#217=CARTESIAN_POINT('Line Origine',(0.,8.,1.5)) ;
#221=CARTESIAN_POINT('Vertex',(0.,8.,3.)) ;
#224=CARTESIAN_POINT('Line Origine',(20.5,8.,3.)) ;
#236=CARTESIAN_POINT('Axis2P3D Location',(0.,8.,0.)) ;
#241=CARTESIAN_POINT('Line Origine',(0.,4.,0.)) ;
#246=CARTESIAN_POINT('Line Origine',(0.,4.,3.)) ;
#258=CARTESIAN_POINT('Axis2P3D Location',(4.9,4.,0.83999999994)) ;
#263=CARTESIAN_POINT('Axis2P3D Location',(4.9,4.,0.)) ;
#268=CARTESIAN_POINT('Axis2P3D Location',(4.9,4.,3.)) ;
#280=CARTESIAN_POINT('Axis2P3D Location',(0.,0.,0.)) ;
#297=CARTESIAN_POINT('Axis2P3D Location',(20.9,4.,0.)) ;
#301=CARTESIAN_POINT('Vertex',(20.9,1.9,0.)) ;
#303=CARTESIAN_POINT('Vertex',(20.9,6.1,0.)) ;
#306=CARTESIAN_POINT('Line Origine',(20.5,6.1,0.)) ;
#310=CARTESIAN_POINT('Vertex',(20.1,6.1,0.)) ;
#313=CARTESIAN_POINT('Axis2P3D Location',(20.1,4.,0.)) ;
#317=CARTESIAN_POINT('Vertex',(20.1,1.9,0.)) ;
#320=CARTESIAN_POINT('Line Origine',(20.5,1.9,0.)) ;
#331=CARTESIAN_POINT('Axis2P3D Location',(36.9,4.,0.)) ;
#335=CARTESIAN_POINT('Vertex',(36.9,1.9,0.)) ;
#337=CARTESIAN_POINT('Vertex',(36.9,6.1,0.)) ;
#340=CARTESIAN_POINT('Line Origine',(36.5,6.1,0.)) ;
#344=CARTESIAN_POINT('Vertex',(36.1,6.1,0.)) ;
#347=CARTESIAN_POINT('Axis2P3D Location',(36.1,4.,0.)) ;
#351=CARTESIAN_POINT('Vertex',(36.1,1.9,0.)) ;
#354=CARTESIAN_POINT('Line Origine',(36.5,1.9,0.)) ;
#366=CARTESIAN_POINT('Axis2P3D Location',(0.,0.,3.)) ;
#383=CARTESIAN_POINT('Axis2P3D Location',(20.9,4.,3.)) ;
#387=CARTESIAN_POINT('Vertex',(20.9,1.9,3.)) ;
#389=CARTESIAN_POINT('Vertex',(20.9,6.1,3.)) ;
#392=CARTESIAN_POINT('Line Origine',(20.5,1.9,3.)) ;
#396=CARTESIAN_POINT('Vertex',(20.1,1.9,3.)) ;
#399=CARTESIAN_POINT('Axis2P3D Location',(20.1,4.,3.)) ;
#403=CARTESIAN_POINT('Vertex',(20.1,6.1,3.)) ;
#406=CARTESIAN_POINT('Line Origine',(20.5,6.1,3.)) ;
#417=CARTESIAN_POINT('Axis2P3D Location',(36.9,4.,3.)) ;
#421=CARTESIAN_POINT('Vertex',(36.9,1.9,3.)) ;
#423=CARTESIAN_POINT('Vertex',(36.9,6.1,3.)) ;
#426=CARTESIAN_POINT('Line Origine',(36.5,1.9,3.)) ;
#430=CARTESIAN_POINT('Vertex',(36.1,1.9,3.)) ;
#433=CARTESIAN_POINT('Axis2P3D Location',(36.1,4.,3.)) ;
#437=CARTESIAN_POINT('Vertex',(36.1,6.1,3.)) ;
#440=CARTESIAN_POINT('Line Origine',(36.5,6.1,3.)) ;
#452=CARTESIAN_POINT('Axis2P3D Location',(36.1,4.,0.83999999994)) ;
#457=CARTESIAN_POINT('Line Origine',(36.1,6.1,0.83999999994)) ;
#462=CARTESIAN_POINT('Line Origine',(36.1,1.9,0.83999999994)) ;
#474=CARTESIAN_POINT('Line Origine',(36.9,6.1,1.5)) ;
#486=CARTESIAN_POINT('Line Origine',(36.9,1.9,1.5)) ;
#498=CARTESIAN_POINT('Axis2P3D Location',(36.9,4.,0.83999999994)) ;
#510=CARTESIAN_POINT('Axis2P3D Location',(20.1,4.,0.83999999994)) ;
#515=CARTESIAN_POINT('Line Origine',(20.1,6.1,0.83999999994)) ;
#520=CARTESIAN_POINT('Line Origine',(20.1,1.9,0.83999999994)) ;
#532=CARTESIAN_POINT('Line Origine',(20.9,6.1,1.5)) ;
#544=CARTESIAN_POINT('Line Origine',(20.9,1.9,1.5)) ;
#556=CARTESIAN_POINT('Axis2P3D Location',(20.9,4.,0.83999999994)) ;
#570=CARTESIAN_POINT('Axis2P3D Location',(0.,0.,0.)) ;
#33=DIRECTION('Axis2P3D Direction',(-0.,1.,0.)) ;
#34=DIRECTION('Axis2P3D XDirection',(1.,0.,0.)) ;
#38=DIRECTION('Vector Direction',(1.,0.,0.)) ;
#47=DIRECTION('Vector Direction',(0.,0.,-1.)) ;
#54=DIRECTION('Vector Direction',(1.,0.,0.)) ;
#61=DIRECTION('Vector Direction',(0.,0.,-1.)) ;
#73=DIRECTION('Axis2P3D Direction',(0.,0.,1.)) ;
#74=DIRECTION('Axis2P3D XDirection',(6.12323399574E-017,1.,0.)) ;
#78=DIRECTION('Axis2P3D Direction',(0.,0.,1.)) ;
#85=DIRECTION('Axis2P3D Direction',(0.,0.,1.)) ;
#92=DIRECTION('Vector Direction',(0.,0.,1.)) ;
#104=DIRECTION('Axis2P3D Direction',(-0.,-1.,-0.)) ;
#105=DIRECTION('Axis2P3D XDirection',(-1.,0.,0.)) ;
#109=DIRECTION('Vector Direction',(-1.,0.,0.)) ;
#116=DIRECTION('Vector Direction',(-1.,0.,0.)) ;
#123=DIRECTION('Vector Direction',(0.,0.,-1.)) ;
#135=DIRECTION('Axis2P3D Direction',(0.,-1.,0.)) ;
#136=DIRECTION('Axis2P3D XDirection',(1.,0.,0.)) ;
#140=DIRECTION('Vector Direction',(0.,0.,1.)) ;
#149=DIRECTION('Vector Direction',(1.,0.,0.)) ;
#156=DIRECTION('Vector Direction',(0.,0.,1.)) ;
#163=DIRECTION('Vector Direction',(1.,0.,0.)) ;
#175=DIRECTION('Axis2P3D Direction',(1.,0.,0.)) ;
#176=DIRECTION('Axis2P3D XDirection',(0.,1.,0.)) ;
#180=DIRECTION('Vector Direction',(0.,1.,0.)) ;
#187=DIRECTION('Vector Direction',(0.,0.,1.)) ;
#194=DIRECTION('Vector Direction',(0.,1.,0.)) ;
#206=DIRECTION('Axis2P3D Direction',(0.,1.,-0.)) ;
#207=DIRECTION('Axis2P3D XDirection',(-1.,0.,0.)) ;
#211=DIRECTION('Vector Direction',(-1.,0.,0.)) ;
#218=DIRECTION('Vector Direction',(0.,0.,1.)) ;
#225=DIRECTION('Vector Direction',(-1.,0.,0.)) ;
#237=DIRECTION('Axis2P3D Direction',(-1.,0.,0.)) ;
#238=DIRECTION('Axis2P3D XDirection',(0.,-1.,0.)) ;
#242=DIRECTION('Vector Direction',(0.,-1.,0.)) ;
#247=DIRECTION('Vector Direction',(0.,-1.,0.)) ;
#259=DIRECTION('Axis2P3D Direction',(0.,0.,1.)) ;
#260=DIRECTION('Axis2P3D XDirection',(-1.83697019872E-016,-1.,-0.)) ;
#264=DIRECTION('Axis2P3D Direction',(0.,0.,1.)) ;
#269=DIRECTION('Axis2P3D Direction',(0.,0.,1.)) ;
#281=DIRECTION('Axis2P3D Direction',(0.,0.,1.)) ;
#282=DIRECTION('Axis2P3D XDirection',(1.,0.,0.)) ;
#298=DIRECTION('Axis2P3D Direction',(0.,0.,1.)) ;
#307=DIRECTION('Vector Direction',(1.,0.,0.)) ;
#314=DIRECTION('Axis2P3D Direction',(0.,0.,1.)) ;
#321=DIRECTION('Vector Direction',(-1.,0.,0.)) ;
#332=DIRECTION('Axis2P3D Direction',(0.,0.,1.)) ;
#341=DIRECTION('Vector Direction',(1.,0.,0.)) ;
#348=DIRECTION('Axis2P3D Direction',(0.,0.,1.)) ;
#355=DIRECTION('Vector Direction',(-1.,0.,0.)) ;
#367=DIRECTION('Axis2P3D Direction',(0.,0.,1.)) ;
#368=DIRECTION('Axis2P3D XDirection',(1.,0.,0.)) ;
#384=DIRECTION('Axis2P3D Direction',(0.,0.,1.)) ;
#393=DIRECTION('Vector Direction',(-1.,0.,0.)) ;
#400=DIRECTION('Axis2P3D Direction',(0.,0.,1.)) ;
#407=DIRECTION('Vector Direction',(1.,0.,0.)) ;
#418=DIRECTION('Axis2P3D Direction',(0.,0.,1.)) ;
#427=DIRECTION('Vector Direction',(-1.,0.,0.)) ;
#434=DIRECTION('Axis2P3D Direction',(0.,0.,1.)) ;
#441=DIRECTION('Vector Direction',(1.,0.,0.)) ;
#453=DIRECTION('Axis2P3D Direction',(0.,0.,1.)) ;
#454=DIRECTION('Axis2P3D XDirection',(6.12323399574E-017,1.,0.)) ;
#458=DIRECTION('Vector Direction',(0.,0.,1.)) ;
#463=DIRECTION('Vector Direction',(0.,0.,1.)) ;
#475=DIRECTION('Vector Direction',(0.,0.,-1.)) ;
#487=DIRECTION('Vector Direction',(0.,0.,-1.)) ;
#499=DIRECTION('Axis2P3D Direction',(0.,0.,1.)) ;
#500=DIRECTION('Axis2P3D XDirection',(-1.83697019872E-016,-1.,-0.)) ;
#511=DIRECTION('Axis2P3D Direction',(0.,0.,1.)) ;
#512=DIRECTION('Axis2P3D XDirection',(6.12323399574E-017,1.,0.)) ;
#516=DIRECTION('Vector Direction',(0.,0.,1.)) ;
#521=DIRECTION('Vector Direction',(0.,0.,1.)) ;
#533=DIRECTION('Vector Direction',(0.,0.,-1.)) ;
#545=DIRECTION('Vector Direction',(0.,0.,-1.)) ;
#557=DIRECTION('Axis2P3D Direction',(0.,0.,1.)) ;
#558=DIRECTION('Axis2P3D XDirection',(-1.83697019872E-016,-1.,-0.)) ;
#571=DIRECTION('Axis2P3D Direction',(0.,0.,1.)) ;
#572=DIRECTION('Axis2P3D XDirection',(1.,0.,0.)) ;
#30=PRESENTATION_LAYER_ASSIGNMENT('1',' ',(#21)) ;
#8=PRODUCT_RELATED_PRODUCT_CATEGORY('part',$,(#5)) ;
#7=PRODUCT_CATEGORY('part','specification') ;
#29=STYLED_ITEM(' ',(#28),#21) ;
#578=STYLED_ITEM(' ',(#577),#573) ;
#28=PRESENTATION_STYLE_ASSIGNMENT((#27)) ;
#577=PRESENTATION_STYLE_ASSIGNMENT((#576)) ;
#576=CURVE_STYLE(' ',#574,POSITIVE_LENGTH_MEASURE(0.129999995232),#575) ;
#27=SURFACE_STYLE_USAGE(.BOTH.,#26) ;
#26=SURFACE_SIDE_STYLE(' ',(#25)) ;
#25=SURFACE_STYLE_FILL_AREA(#24) ;
#24=FILL_AREA_STYLE(' ',(#23)) ;
#23=FILL_AREA_STYLE_COLOUR(' ',#22) ;
#39=VECTOR('Line Direction',#38,1.) ;
#48=VECTOR('Line Direction',#47,1.) ;
#55=VECTOR('Line Direction',#54,1.) ;
#62=VECTOR('Line Direction',#61,1.) ;
#93=VECTOR('Line Direction',#92,1.) ;
#110=VECTOR('Line Direction',#109,1.) ;
#117=VECTOR('Line Direction',#116,1.) ;
#124=VECTOR('Line Direction',#123,1.) ;
#141=VECTOR('Line Direction',#140,1.) ;
#150=VECTOR('Line Direction',#149,1.) ;
#157=VECTOR('Line Direction',#156,1.) ;
#164=VECTOR('Line Direction',#163,1.) ;
#181=VECTOR('Line Direction',#180,1.) ;
#188=VECTOR('Line Direction',#187,1.) ;
#195=VECTOR('Line Direction',#194,1.) ;
#212=VECTOR('Line Direction',#211,1.) ;
#219=VECTOR('Line Direction',#218,1.) ;
#226=VECTOR('Line Direction',#225,1.) ;
#243=VECTOR('Line Direction',#242,1.) ;
#248=VECTOR('Line Direction',#247,1.) ;
#308=VECTOR('Line Direction',#307,1.) ;
#322=VECTOR('Line Direction',#321,1.) ;
#342=VECTOR('Line Direction',#341,1.) ;
#356=VECTOR('Line Direction',#355,1.) ;
#394=VECTOR('Line Direction',#393,1.) ;
#408=VECTOR('Line Direction',#407,1.) ;
#428=VECTOR('Line Direction',#427,1.) ;
#442=VECTOR('Line Direction',#441,1.) ;
#459=VECTOR('Line Direction',#458,1.) ;
#464=VECTOR('Line Direction',#463,1.) ;
#476=VECTOR('Line Direction',#475,1.) ;
#488=VECTOR('Line Direction',#487,1.) ;
#517=VECTOR('Line Direction',#516,1.) ;
#522=VECTOR('Line Direction',#521,1.) ;
#534=VECTOR('Line Direction',#533,1.) ;
#546=VECTOR('Line Direction',#545,1.) ;
#15=UNCERTAINTY_MEASURE_WITH_UNIT(LENGTH_MEASURE(0.005),#12,'distance_accuracy_value','CONFUSED CURVE UNCERTAINTY') ;
#569=SHAPE_REPRESENTATION_RELATIONSHIP(' ',' ',#19,#568) ;
#66=ORIENTED_EDGE('',*,*,#45,.T.) ;
#67=ORIENTED_EDGE('',*,*,#52,.F.) ;
#68=ORIENTED_EDGE('',*,*,#59,.T.) ;
#69=ORIENTED_EDGE('',*,*,#64,.T.) ;
#97=ORIENTED_EDGE('',*,*,#83,.F.) ;
#98=ORIENTED_EDGE('',*,*,#64,.F.) ;
#99=ORIENTED_EDGE('',*,*,#90,.T.) ;
#100=ORIENTED_EDGE('',*,*,#95,.T.) ;
#128=ORIENTED_EDGE('',*,*,#114,.T.) ;
#129=ORIENTED_EDGE('',*,*,#95,.F.) ;
#130=ORIENTED_EDGE('',*,*,#121,.T.) ;
#131=ORIENTED_EDGE('',*,*,#126,.T.) ;
#168=ORIENTED_EDGE('',*,*,#147,.F.) ;
#169=ORIENTED_EDGE('',*,*,#154,.T.) ;
#170=ORIENTED_EDGE('',*,*,#161,.T.) ;
#171=ORIENTED_EDGE('',*,*,#166,.F.) ;
#199=ORIENTED_EDGE('',*,*,#161,.F.) ;
#200=ORIENTED_EDGE('',*,*,#185,.T.) ;
#201=ORIENTED_EDGE('',*,*,#192,.T.) ;
#202=ORIENTED_EDGE('',*,*,#197,.F.) ;
#230=ORIENTED_EDGE('',*,*,#192,.F.) ;
#231=ORIENTED_EDGE('',*,*,#216,.T.) ;
#232=ORIENTED_EDGE('',*,*,#223,.T.) ;
#233=ORIENTED_EDGE('',*,*,#228,.F.) ;
#252=ORIENTED_EDGE('',*,*,#223,.F.) ;
#253=ORIENTED_EDGE('',*,*,#245,.T.) ;
#254=ORIENTED_EDGE('',*,*,#147,.T.) ;
#255=ORIENTED_EDGE('',*,*,#250,.F.) ;
#274=ORIENTED_EDGE('',*,*,#267,.F.) ;
#275=ORIENTED_EDGE('',*,*,#126,.F.) ;
#276=ORIENTED_EDGE('',*,*,#272,.T.) ;
#277=ORIENTED_EDGE('',*,*,#52,.T.) ;
#286=ORIENTED_EDGE('',*,*,#245,.F.) ;
#287=ORIENTED_EDGE('',*,*,#216,.F.) ;
#288=ORIENTED_EDGE('',*,*,#185,.F.) ;
#289=ORIENTED_EDGE('',*,*,#154,.F.) ;
#292=ORIENTED_EDGE('',*,*,#45,.F.) ;
#293=ORIENTED_EDGE('',*,*,#83,.T.) ;
#294=ORIENTED_EDGE('',*,*,#114,.F.) ;
#295=ORIENTED_EDGE('',*,*,#267,.T.) ;
#326=ORIENTED_EDGE('',*,*,#305,.T.) ;
#327=ORIENTED_EDGE('',*,*,#312,.F.) ;
#328=ORIENTED_EDGE('',*,*,#319,.T.) ;
#329=ORIENTED_EDGE('',*,*,#324,.F.) ;
#360=ORIENTED_EDGE('',*,*,#339,.T.) ;
#361=ORIENTED_EDGE('',*,*,#346,.F.) ;
#362=ORIENTED_EDGE('',*,*,#353,.T.) ;
#363=ORIENTED_EDGE('',*,*,#358,.F.) ;
#372=ORIENTED_EDGE('',*,*,#166,.T.) ;
#373=ORIENTED_EDGE('',*,*,#197,.T.) ;
#374=ORIENTED_EDGE('',*,*,#228,.T.) ;
#375=ORIENTED_EDGE('',*,*,#250,.T.) ;
#378=ORIENTED_EDGE('',*,*,#272,.F.) ;
#379=ORIENTED_EDGE('',*,*,#121,.F.) ;
#380=ORIENTED_EDGE('',*,*,#90,.F.) ;
#381=ORIENTED_EDGE('',*,*,#59,.F.) ;
#412=ORIENTED_EDGE('',*,*,#391,.F.) ;
#413=ORIENTED_EDGE('',*,*,#398,.F.) ;
#414=ORIENTED_EDGE('',*,*,#405,.F.) ;
#415=ORIENTED_EDGE('',*,*,#410,.F.) ;
#446=ORIENTED_EDGE('',*,*,#425,.F.) ;
#447=ORIENTED_EDGE('',*,*,#432,.F.) ;
#448=ORIENTED_EDGE('',*,*,#439,.F.) ;
#449=ORIENTED_EDGE('',*,*,#444,.F.) ;
#468=ORIENTED_EDGE('',*,*,#353,.F.) ;
#469=ORIENTED_EDGE('',*,*,#461,.F.) ;
#470=ORIENTED_EDGE('',*,*,#439,.T.) ;
#471=ORIENTED_EDGE('',*,*,#466,.T.) ;
#480=ORIENTED_EDGE('',*,*,#346,.T.) ;
#481=ORIENTED_EDGE('',*,*,#478,.F.) ;
#482=ORIENTED_EDGE('',*,*,#444,.T.) ;
#483=ORIENTED_EDGE('',*,*,#461,.T.) ;
#492=ORIENTED_EDGE('',*,*,#358,.T.) ;
#493=ORIENTED_EDGE('',*,*,#466,.F.) ;
#494=ORIENTED_EDGE('',*,*,#432,.T.) ;
#495=ORIENTED_EDGE('',*,*,#490,.T.) ;
#504=ORIENTED_EDGE('',*,*,#339,.F.) ;
#505=ORIENTED_EDGE('',*,*,#490,.F.) ;
#506=ORIENTED_EDGE('',*,*,#425,.T.) ;
#507=ORIENTED_EDGE('',*,*,#478,.T.) ;
#526=ORIENTED_EDGE('',*,*,#319,.F.) ;
#527=ORIENTED_EDGE('',*,*,#519,.F.) ;
#528=ORIENTED_EDGE('',*,*,#405,.T.) ;
#529=ORIENTED_EDGE('',*,*,#524,.T.) ;
#538=ORIENTED_EDGE('',*,*,#312,.T.) ;
#539=ORIENTED_EDGE('',*,*,#536,.F.) ;
#540=ORIENTED_EDGE('',*,*,#410,.T.) ;
#541=ORIENTED_EDGE('',*,*,#519,.T.) ;
#550=ORIENTED_EDGE('',*,*,#324,.T.) ;
#551=ORIENTED_EDGE('',*,*,#524,.F.) ;
#552=ORIENTED_EDGE('',*,*,#398,.T.) ;
#553=ORIENTED_EDGE('',*,*,#548,.T.) ;
#562=ORIENTED_EDGE('',*,*,#305,.F.) ;
#563=ORIENTED_EDGE('',*,*,#548,.F.) ;
#564=ORIENTED_EDGE('',*,*,#391,.T.) ;
#565=ORIENTED_EDGE('',*,*,#536,.T.) ;
#296=FACE_BOUND('',#291,.T.) ;
#330=FACE_BOUND('',#325,.T.) ;
#364=FACE_BOUND('',#359,.T.) ;
#382=FACE_BOUND('',#377,.T.) ;
#416=FACE_BOUND('',#411,.T.) ;
#450=FACE_BOUND('',#445,.T.) ;
#31=CLOSED_SHELL('Closed Shell',(#71,#102,#133,#173,#204,#235,#257,#279,#365,#451,#473,#485,#497,#509,#531,#543,#555,#567)) ;
#568=ADVANCED_BREP_SHAPE_REPRESENTATION('NONE',(#21),#16) ;
#71=ADVANCED_FACE('Body.3',(#70),#36,.F.) ;
#102=ADVANCED_FACE('Body.3',(#101),#76,.F.) ;
#133=ADVANCED_FACE('Body.3',(#132),#107,.F.) ;
#173=ADVANCED_FACE('Body.3',(#172),#138,.T.) ;
#204=ADVANCED_FACE('Body.3',(#203),#178,.T.) ;
#235=ADVANCED_FACE('Body.3',(#234),#209,.T.) ;
#257=ADVANCED_FACE('Body.3',(#256),#240,.T.) ;
#279=ADVANCED_FACE('Body.3',(#278),#262,.F.) ;
#365=ADVANCED_FACE('Body.3',(#290,#296,#330,#364),#284,.F.) ;
#451=ADVANCED_FACE('Body.3',(#376,#382,#416,#450),#370,.T.) ;
#473=ADVANCED_FACE('Body.3',(#472),#456,.F.) ;
#485=ADVANCED_FACE('Body.3',(#484),#36,.F.) ;
#497=ADVANCED_FACE('Body.3',(#496),#107,.F.) ;
#509=ADVANCED_FACE('Body.3',(#508),#502,.F.) ;
#531=ADVANCED_FACE('Body.3',(#530),#514,.F.) ;
#543=ADVANCED_FACE('Body.3',(#542),#36,.F.) ;
#555=ADVANCED_FACE('Body.3',(#554),#107,.F.) ;
#567=ADVANCED_FACE('Body.3',(#566),#560,.F.) ;
#4=APPLICATION_PROTOCOL_DEFINITION('international standard','automotive_design',2001,#1) ;
#21=MANIFOLD_SOLID_BREP('Body.3',#31) ;
#80=CIRCLE('generated circle',#79,2.1) ;
#87=CIRCLE('generated circle',#86,2.1) ;
#266=CIRCLE('generated circle',#265,2.1) ;
#271=CIRCLE('generated circle',#270,2.1) ;
#300=CIRCLE('generated circle',#299,2.1) ;
#316=CIRCLE('generated circle',#315,2.1) ;
#334=CIRCLE('generated circle',#333,2.1) ;
#350=CIRCLE('generated circle',#349,2.1) ;
#386=CIRCLE('generated circle',#385,2.1) ;
#402=CIRCLE('generated circle',#401,2.1) ;
#420=CIRCLE('generated circle',#419,2.1) ;
#436=CIRCLE('generated circle',#435,2.1) ;
#22=COLOUR_RGB('Colour',0.823529411765,0.823529411765,1.) ;
#579=CONSTRUCTIVE_GEOMETRY_REPRESENTATION('supplemental geometry',(#573),#16) ;
#580=CONSTRUCTIVE_GEOMETRY_REPRESENTATION_RELATIONSHIP('supplemental geometry','',#19,#579) ;
#76=CYLINDRICAL_SURFACE('generated cylinder',#75,2.1) ;
#262=CYLINDRICAL_SURFACE('generated cylinder',#261,2.1) ;
#456=CYLINDRICAL_SURFACE('generated cylinder',#455,2.1) ;
#502=CYLINDRICAL_SURFACE('generated cylinder',#501,2.1) ;
#514=CYLINDRICAL_SURFACE('generated cylinder',#513,2.1) ;
#560=CYLINDRICAL_SURFACE('generated cylinder',#559,2.1) ;
#575=DRAUGHTING_PRE_DEFINED_COLOUR('white') ;
#574=DRAUGHTING_PRE_DEFINED_CURVE_FONT('continuous') ;
#45=EDGE_CURVE('',#42,#44,#40,.T.) ;
#52=EDGE_CURVE('',#51,#44,#49,.T.) ;
#59=EDGE_CURVE('',#51,#58,#56,.F.) ;
#64=EDGE_CURVE('',#58,#42,#63,.T.) ;
#83=EDGE_CURVE('',#42,#82,#80,.T.) ;
#90=EDGE_CURVE('',#58,#89,#87,.T.) ;
#95=EDGE_CURVE('',#89,#82,#94,.F.) ;
#114=EDGE_CURVE('',#113,#82,#111,.T.) ;
#121=EDGE_CURVE('',#89,#120,#118,.F.) ;
#126=EDGE_CURVE('',#120,#113,#125,.T.) ;
#147=EDGE_CURVE('',#144,#146,#142,.T.) ;
#154=EDGE_CURVE('',#144,#153,#151,.T.) ;
#161=EDGE_CURVE('',#153,#160,#158,.T.) ;
#166=EDGE_CURVE('',#146,#160,#165,.T.) ;
#185=EDGE_CURVE('',#153,#184,#182,.T.) ;
#192=EDGE_CURVE('',#184,#191,#189,.T.) ;
#197=EDGE_CURVE('',#160,#191,#196,.T.) ;
#216=EDGE_CURVE('',#184,#215,#213,.T.) ;
#223=EDGE_CURVE('',#215,#222,#220,.T.) ;
#228=EDGE_CURVE('',#191,#222,#227,.T.) ;
#245=EDGE_CURVE('',#215,#144,#244,.T.) ;
#250=EDGE_CURVE('',#222,#146,#249,.T.) ;
#267=EDGE_CURVE('',#113,#44,#266,.T.) ;
#272=EDGE_CURVE('',#120,#51,#271,.T.) ;
#305=EDGE_CURVE('',#302,#304,#300,.T.) ;
#312=EDGE_CURVE('',#311,#304,#309,.T.) ;
#319=EDGE_CURVE('',#311,#318,#316,.T.) ;
#324=EDGE_CURVE('',#302,#318,#323,.T.) ;
#339=EDGE_CURVE('',#336,#338,#334,.T.) ;
#346=EDGE_CURVE('',#345,#338,#343,.T.) ;
#353=EDGE_CURVE('',#345,#352,#350,.T.) ;
#358=EDGE_CURVE('',#336,#352,#357,.T.) ;
#391=EDGE_CURVE('',#388,#390,#386,.T.) ;
#398=EDGE_CURVE('',#397,#388,#395,.F.) ;
#405=EDGE_CURVE('',#404,#397,#402,.T.) ;
#410=EDGE_CURVE('',#390,#404,#409,.F.) ;
#425=EDGE_CURVE('',#422,#424,#420,.T.) ;
#432=EDGE_CURVE('',#431,#422,#429,.F.) ;
#439=EDGE_CURVE('',#438,#431,#436,.T.) ;
#444=EDGE_CURVE('',#424,#438,#443,.F.) ;
#461=EDGE_CURVE('',#438,#345,#460,.F.) ;
#466=EDGE_CURVE('',#431,#352,#465,.F.) ;
#478=EDGE_CURVE('',#424,#338,#477,.T.) ;
#490=EDGE_CURVE('',#422,#336,#489,.T.) ;
#519=EDGE_CURVE('',#404,#311,#518,.F.) ;
#524=EDGE_CURVE('',#397,#318,#523,.F.) ;
#536=EDGE_CURVE('',#390,#304,#535,.T.) ;
#548=EDGE_CURVE('',#388,#302,#547,.T.) ;
#65=EDGE_LOOP('',(#66,#67,#68,#69)) ;
#96=EDGE_LOOP('',(#97,#98,#99,#100)) ;
#127=EDGE_LOOP('',(#128,#129,#130,#131)) ;
#167=EDGE_LOOP('',(#168,#169,#170,#171)) ;
#198=EDGE_LOOP('',(#199,#200,#201,#202)) ;
#229=EDGE_LOOP('',(#230,#231,#232,#233)) ;
#251=EDGE_LOOP('',(#252,#253,#254,#255)) ;
#273=EDGE_LOOP('',(#274,#275,#276,#277)) ;
#285=EDGE_LOOP('',(#286,#287,#288,#289)) ;
#291=EDGE_LOOP('',(#292,#293,#294,#295)) ;
#325=EDGE_LOOP('',(#326,#327,#328,#329)) ;
#359=EDGE_LOOP('',(#360,#361,#362,#363)) ;
#371=EDGE_LOOP('',(#372,#373,#374,#375)) ;
#377=EDGE_LOOP('',(#378,#379,#380,#381)) ;
#411=EDGE_LOOP('',(#412,#413,#414,#415)) ;
#445=EDGE_LOOP('',(#446,#447,#448,#449)) ;
#467=EDGE_LOOP('',(#468,#469,#470,#471)) ;
#479=EDGE_LOOP('',(#480,#481,#482,#483)) ;
#491=EDGE_LOOP('',(#492,#493,#494,#495)) ;
#503=EDGE_LOOP('',(#504,#505,#506,#507)) ;
#525=EDGE_LOOP('',(#526,#527,#528,#529)) ;
#537=EDGE_LOOP('',(#538,#539,#540,#541)) ;
#549=EDGE_LOOP('',(#550,#551,#552,#553)) ;
#561=EDGE_LOOP('',(#562,#563,#564,#565)) ;
#70=FACE_OUTER_BOUND('',#65,.T.) ;
#101=FACE_OUTER_BOUND('',#96,.T.) ;
#132=FACE_OUTER_BOUND('',#127,.T.) ;
#172=FACE_OUTER_BOUND('',#167,.T.) ;
#203=FACE_OUTER_BOUND('',#198,.T.) ;
#234=FACE_OUTER_BOUND('',#229,.T.) ;
#256=FACE_OUTER_BOUND('',#251,.T.) ;
#278=FACE_OUTER_BOUND('',#273,.T.) ;
#290=FACE_OUTER_BOUND('',#285,.T.) ;
#376=FACE_OUTER_BOUND('',#371,.T.) ;
#472=FACE_OUTER_BOUND('',#467,.T.) ;
#484=FACE_OUTER_BOUND('',#479,.T.) ;
#496=FACE_OUTER_BOUND('',#491,.T.) ;
#508=FACE_OUTER_BOUND('',#503,.T.) ;
#530=FACE_OUTER_BOUND('',#525,.T.) ;
#542=FACE_OUTER_BOUND('',#537,.T.) ;
#554=FACE_OUTER_BOUND('',#549,.T.) ;
#566=FACE_OUTER_BOUND('',#561,.T.) ;
#40=LINE('Line',#37,#39) ;
#49=LINE('Line',#46,#48) ;
#56=LINE('Line',#53,#55) ;
#63=LINE('Line',#60,#62) ;
#94=LINE('Line',#91,#93) ;
#111=LINE('Line',#108,#110) ;
#118=LINE('Line',#115,#117) ;
#125=LINE('Line',#122,#124) ;
#142=LINE('Line',#139,#141) ;
#151=LINE('Line',#148,#150) ;
#158=LINE('Line',#155,#157) ;
#165=LINE('Line',#162,#164) ;
#182=LINE('Line',#179,#181) ;
#189=LINE('Line',#186,#188) ;
#196=LINE('Line',#193,#195) ;
#213=LINE('Line',#210,#212) ;
#220=LINE('Line',#217,#219) ;
#227=LINE('Line',#224,#226) ;
#244=LINE('Line',#241,#243) ;
#249=LINE('Line',#246,#248) ;
#309=LINE('Line',#306,#308) ;
#323=LINE('Line',#320,#322) ;
#343=LINE('Line',#340,#342) ;
#357=LINE('Line',#354,#356) ;
#395=LINE('Line',#392,#394) ;
#409=LINE('Line',#406,#408) ;
#429=LINE('Line',#426,#428) ;
#443=LINE('Line',#440,#442) ;
#460=LINE('Line',#457,#459) ;
#465=LINE('Line',#462,#464) ;
#477=LINE('Line',#474,#476) ;
#489=LINE('Line',#486,#488) ;
#518=LINE('Line',#515,#517) ;
#523=LINE('Line',#520,#522) ;
#535=LINE('Line',#532,#534) ;
#547=LINE('Line',#544,#546) ;
#36=PLANE('',#35) ;
#107=PLANE('',#106) ;
#138=PLANE('',#137) ;
#178=PLANE('',#177) ;
#209=PLANE('',#208) ;
#240=PLANE('',#239) ;
#284=PLANE('',#283) ;
#370=PLANE('',#369) ;
#9=PRODUCT_CATEGORY_RELATIONSHIP(' ',' ',#7,#8) ;
#6=PRODUCT_DEFINITION_FORMATION_WITH_SPECIFIED_SOURCE('',' ',#5,.NOT_KNOWN.) ;
#20=SHAPE_DEFINITION_REPRESENTATION(#11,#19) ;
#42=VERTEX_POINT('',#41) ;
#44=VERTEX_POINT('',#43) ;
#51=VERTEX_POINT('',#50) ;
#58=VERTEX_POINT('',#57) ;
#82=VERTEX_POINT('',#81) ;
#89=VERTEX_POINT('',#88) ;
#113=VERTEX_POINT('',#112) ;
#120=VERTEX_POINT('',#119) ;
#144=VERTEX_POINT('',#143) ;
#146=VERTEX_POINT('',#145) ;
#153=VERTEX_POINT('',#152) ;
#160=VERTEX_POINT('',#159) ;
#184=VERTEX_POINT('',#183) ;
#191=VERTEX_POINT('',#190) ;
#215=VERTEX_POINT('',#214) ;
#222=VERTEX_POINT('',#221) ;
#302=VERTEX_POINT('',#301) ;
#304=VERTEX_POINT('',#303) ;
#311=VERTEX_POINT('',#310) ;
#318=VERTEX_POINT('',#317) ;
#336=VERTEX_POINT('',#335) ;
#338=VERTEX_POINT('',#337) ;
#345=VERTEX_POINT('',#344) ;
#352=VERTEX_POINT('',#351) ;
#388=VERTEX_POINT('',#387) ;
#390=VERTEX_POINT('',#389) ;
#397=VERTEX_POINT('',#396) ;
#404=VERTEX_POINT('',#403) ;
#422=VERTEX_POINT('',#421) ;
#424=VERTEX_POINT('',#423) ;
#431=VERTEX_POINT('',#430) ;
#438=VERTEX_POINT('',#437) ;
#12=(LENGTH_UNIT()NAMED_UNIT(*)SI_UNIT(.MILLI.,.METRE.)) ;
#13=(NAMED_UNIT(*)PLANE_ANGLE_UNIT()SI_UNIT($,.RADIAN.)) ;
#14=(NAMED_UNIT(*)SI_UNIT($,.STERADIAN.)SOLID_ANGLE_UNIT()) ;
#16=(GEOMETRIC_REPRESENTATION_CONTEXT(3)GLOBAL_UNCERTAINTY_ASSIGNED_CONTEXT((#15))GLOBAL_UNIT_ASSIGNED_CONTEXT((#12,#13,#14))REPRESENTATION_CONTEXT(' ',' ')) ;
ENDSEC;
END-ISO-10303-21;
