ISO-10303-21;
HEADER;
FILE_DESCRIPTION(('CATIA V5R24 STEP','CAx-IF Rec.Pracs.--- Model Styling and Organization---1.2---2011-12-15'),'2;1');

FILE_NAME ('D1458802_0_1897010000_1897010000.stp','2017-07-28T06:35:16+00:00',('none'),('Weidmueller'),'CATIA Version 5-6 Release 2014 SP4 HF52','CATIA V5 STEP AP214','none');

FILE_SCHEMA(('AUTOMOTIVE_DESIGN { 1 0 10303 214 1 1 1 1 }'));

ENDSEC;
DATA;
#5=PRODUCT('v5-standard_part','','',(#2)) ;
#2=PRODUCT_CONTEXT(' ',#1,'mechanical') ;
#1=APPLICATION_CONTEXT('automotive design') ;
#10=PRODUCT_DEFINITION('',' ',#6,#3) ;
#3=PRODUCT_DEFINITION_CONTEXT('part definition',#1,' ') ;
#11=PRODUCT_DEFINITION_SHAPE(' ',' ',#10) ;
#329=MECHANICAL_DESIGN_GEOMETRIC_PRESENTATION_REPRESENTATION(' ',(#46),#16) ;
#19=SHAPE_REPRESENTATION(' ',(#18),#16) ;
#18=AXIS2_PLACEMENT_3D(' ',#17,$,$) ;
#24=AXIS2_PLACEMENT_3D('Plane Axis2P3D',#21,#22,#23) ;
#31=AXIS2_PLACEMENT_3D('Plane Axis2P3D',#28,#29,#30) ;
#36=AXIS2_PLACEMENT_3D('Plane Axis2P3D',#33,#34,#35) ;
#52=AXIS2_PLACEMENT_3D('Plane Axis2P3D',#49,#50,#51) ;
#92=AXIS2_PLACEMENT_3D('Plane Axis2P3D',#89,#90,#91) ;
#123=AXIS2_PLACEMENT_3D('Plane Axis2P3D',#120,#121,#122) ;
#154=AXIS2_PLACEMENT_3D('Plane Axis2P3D',#151,#152,#153) ;
#176=AXIS2_PLACEMENT_3D('Plane Axis2P3D',#173,#174,#175) ;
#186=AXIS2_PLACEMENT_3D('Circle Axis2P3D',#184,#185,$) ;
#195=AXIS2_PLACEMENT_3D('Circle Axis2P3D',#193,#194,$) ;
#204=AXIS2_PLACEMENT_3D('Circle Axis2P3D',#202,#203,$) ;
#213=AXIS2_PLACEMENT_3D('Circle Axis2P3D',#211,#212,$) ;
#224=AXIS2_PLACEMENT_3D('Plane Axis2P3D',#221,#222,#223) ;
#234=AXIS2_PLACEMENT_3D('Circle Axis2P3D',#232,#233,$) ;
#243=AXIS2_PLACEMENT_3D('Circle Axis2P3D',#241,#242,$) ;
#252=AXIS2_PLACEMENT_3D('Circle Axis2P3D',#250,#251,$) ;
#261=AXIS2_PLACEMENT_3D('Circle Axis2P3D',#259,#260,$) ;
#272=AXIS2_PLACEMENT_3D('Cylinder Axis2P3D',#269,#270,#271) ;
#301=AXIS2_PLACEMENT_3D('Cylinder Axis2P3D',#298,#299,#300) ;
#17=CARTESIAN_POINT(' ',(0.,0.,0.)) ;
#21=CARTESIAN_POINT('Axis2P3D Location',(0.,0.,0.)) ;
#28=CARTESIAN_POINT('Axis2P3D Location',(0.,0.,0.)) ;
#33=CARTESIAN_POINT('Axis2P3D Location',(0.,0.,0.)) ;
#49=CARTESIAN_POINT('Axis2P3D Location',(0.,0.,0.)) ;
#54=CARTESIAN_POINT('Line Origine',(0.,0.,1.)) ;
#58=CARTESIAN_POINT('Vertex',(0.,0.,0.)) ;
#60=CARTESIAN_POINT('Vertex',(0.,0.,2.)) ;
#63=CARTESIAN_POINT('Line Origine',(9.9,0.,0.)) ;
#67=CARTESIAN_POINT('Vertex',(19.8,0.,0.)) ;
#70=CARTESIAN_POINT('Line Origine',(19.8,0.,1.)) ;
#74=CARTESIAN_POINT('Vertex',(19.8,0.,2.)) ;
#77=CARTESIAN_POINT('Line Origine',(9.9,0.,2.)) ;
#89=CARTESIAN_POINT('Axis2P3D Location',(19.8,0.,0.)) ;
#94=CARTESIAN_POINT('Line Origine',(19.8,3.,0.)) ;
#98=CARTESIAN_POINT('Vertex',(19.8,6.,0.)) ;
#101=CARTESIAN_POINT('Line Origine',(19.8,6.,1.)) ;
#105=CARTESIAN_POINT('Vertex',(19.8,6.,2.)) ;
#108=CARTESIAN_POINT('Line Origine',(19.8,3.,2.)) ;
#120=CARTESIAN_POINT('Axis2P3D Location',(19.8,6.,0.)) ;
#125=CARTESIAN_POINT('Line Origine',(9.9,6.,0.)) ;
#129=CARTESIAN_POINT('Vertex',(0.,6.,0.)) ;
#132=CARTESIAN_POINT('Line Origine',(0.,6.,1.)) ;
#136=CARTESIAN_POINT('Vertex',(0.,6.,2.)) ;
#139=CARTESIAN_POINT('Line Origine',(9.9,6.,2.)) ;
#151=CARTESIAN_POINT('Axis2P3D Location',(0.,6.,0.)) ;
#156=CARTESIAN_POINT('Line Origine',(0.,3.,0.)) ;
#161=CARTESIAN_POINT('Line Origine',(0.,3.,2.)) ;
#173=CARTESIAN_POINT('Axis2P3D Location',(0.,0.,2.)) ;
#184=CARTESIAN_POINT('Axis2P3D Location',(15.4,3.,2.)) ;
#188=CARTESIAN_POINT('Vertex',(17.15,3.,2.)) ;
#190=CARTESIAN_POINT('Vertex',(13.65,3.,2.)) ;
#193=CARTESIAN_POINT('Axis2P3D Location',(15.4,3.,2.)) ;
#202=CARTESIAN_POINT('Axis2P3D Location',(4.4,3.,2.)) ;
#206=CARTESIAN_POINT('Vertex',(6.15,3.,2.)) ;
#208=CARTESIAN_POINT('Vertex',(2.65,3.,2.)) ;
#211=CARTESIAN_POINT('Axis2P3D Location',(4.4,3.,2.)) ;
#221=CARTESIAN_POINT('Axis2P3D Location',(0.,0.,0.)) ;
#232=CARTESIAN_POINT('Axis2P3D Location',(15.4,3.,0.)) ;
#236=CARTESIAN_POINT('Vertex',(13.65,3.,0.)) ;
#238=CARTESIAN_POINT('Vertex',(17.15,3.,0.)) ;
#241=CARTESIAN_POINT('Axis2P3D Location',(15.4,3.,0.)) ;
#250=CARTESIAN_POINT('Axis2P3D Location',(4.4,3.,0.)) ;
#254=CARTESIAN_POINT('Vertex',(2.65,3.,0.)) ;
#256=CARTESIAN_POINT('Vertex',(6.15,3.,0.)) ;
#259=CARTESIAN_POINT('Axis2P3D Location',(4.4,3.,0.)) ;
#269=CARTESIAN_POINT('Axis2P3D Location',(4.4,3.,1.)) ;
#274=CARTESIAN_POINT('Line Origine',(6.15,3.,1.)) ;
#279=CARTESIAN_POINT('Line Origine',(2.65,3.,1.)) ;
#298=CARTESIAN_POINT('Axis2P3D Location',(15.4,3.,1.)) ;
#303=CARTESIAN_POINT('Line Origine',(17.15,3.,1.)) ;
#308=CARTESIAN_POINT('Line Origine',(13.65,3.,1.)) ;
#22=DIRECTION('Axis2P3D Direction',(0.,0.,1.)) ;
#23=DIRECTION('Axis2P3D XDirection',(1.,0.,0.)) ;
#29=DIRECTION('Axis2P3D Direction',(1.,0.,0.)) ;
#30=DIRECTION('Axis2P3D XDirection',(0.,1.,0.)) ;
#34=DIRECTION('Axis2P3D Direction',(0.,1.,0.)) ;
#35=DIRECTION('Axis2P3D XDirection',(0.,0.,1.)) ;
#50=DIRECTION('Axis2P3D Direction',(0.,-1.,0.)) ;
#51=DIRECTION('Axis2P3D XDirection',(1.,0.,0.)) ;
#55=DIRECTION('Vector Direction',(0.,0.,1.)) ;
#64=DIRECTION('Vector Direction',(1.,0.,0.)) ;
#71=DIRECTION('Vector Direction',(0.,0.,1.)) ;
#78=DIRECTION('Vector Direction',(1.,0.,0.)) ;
#90=DIRECTION('Axis2P3D Direction',(1.,0.,0.)) ;
#91=DIRECTION('Axis2P3D XDirection',(0.,1.,0.)) ;
#95=DIRECTION('Vector Direction',(0.,1.,0.)) ;
#102=DIRECTION('Vector Direction',(0.,0.,1.)) ;
#109=DIRECTION('Vector Direction',(0.,1.,0.)) ;
#121=DIRECTION('Axis2P3D Direction',(0.,1.,-0.)) ;
#122=DIRECTION('Axis2P3D XDirection',(-1.,0.,0.)) ;
#126=DIRECTION('Vector Direction',(-1.,0.,0.)) ;
#133=DIRECTION('Vector Direction',(0.,0.,1.)) ;
#140=DIRECTION('Vector Direction',(-1.,0.,0.)) ;
#152=DIRECTION('Axis2P3D Direction',(-1.,0.,0.)) ;
#153=DIRECTION('Axis2P3D XDirection',(0.,-1.,0.)) ;
#157=DIRECTION('Vector Direction',(0.,-1.,0.)) ;
#162=DIRECTION('Vector Direction',(0.,-1.,0.)) ;
#174=DIRECTION('Axis2P3D Direction',(0.,0.,1.)) ;
#175=DIRECTION('Axis2P3D XDirection',(1.,0.,0.)) ;
#185=DIRECTION('Axis2P3D Direction',(0.,0.,1.)) ;
#194=DIRECTION('Axis2P3D Direction',(0.,0.,1.)) ;
#203=DIRECTION('Axis2P3D Direction',(0.,0.,1.)) ;
#212=DIRECTION('Axis2P3D Direction',(0.,0.,1.)) ;
#222=DIRECTION('Axis2P3D Direction',(0.,0.,1.)) ;
#223=DIRECTION('Axis2P3D XDirection',(1.,0.,0.)) ;
#233=DIRECTION('Axis2P3D Direction',(0.,0.,1.)) ;
#242=DIRECTION('Axis2P3D Direction',(0.,0.,1.)) ;
#251=DIRECTION('Axis2P3D Direction',(0.,0.,1.)) ;
#260=DIRECTION('Axis2P3D Direction',(0.,0.,1.)) ;
#270=DIRECTION('Axis2P3D Direction',(0.,0.,1.)) ;
#271=DIRECTION('Axis2P3D XDirection',(1.,0.,0.)) ;
#275=DIRECTION('Vector Direction',(0.,0.,1.)) ;
#280=DIRECTION('Vector Direction',(0.,0.,1.)) ;
#299=DIRECTION('Axis2P3D Direction',(0.,0.,1.)) ;
#300=DIRECTION('Axis2P3D XDirection',(1.,0.,0.)) ;
#304=DIRECTION('Vector Direction',(0.,0.,1.)) ;
#309=DIRECTION('Vector Direction',(0.,0.,1.)) ;
#47=PRESENTATION_LAYER_ASSIGNMENT('1',' ',(#38)) ;
#8=PRODUCT_RELATED_PRODUCT_CATEGORY('part',$,(#5)) ;
#7=PRODUCT_CATEGORY('part','specification') ;
#46=STYLED_ITEM(' ',(#45),#38) ;
#45=PRESENTATION_STYLE_ASSIGNMENT((#44)) ;
#44=SURFACE_STYLE_USAGE(.BOTH.,#43) ;
#43=SURFACE_SIDE_STYLE(' ',(#42)) ;
#42=SURFACE_STYLE_FILL_AREA(#41) ;
#41=FILL_AREA_STYLE(' ',(#40)) ;
#40=FILL_AREA_STYLE_COLOUR(' ',#39) ;
#56=VECTOR('Line Direction',#55,1.) ;
#65=VECTOR('Line Direction',#64,1.) ;
#72=VECTOR('Line Direction',#71,1.) ;
#79=VECTOR('Line Direction',#78,1.) ;
#96=VECTOR('Line Direction',#95,1.) ;
#103=VECTOR('Line Direction',#102,1.) ;
#110=VECTOR('Line Direction',#109,1.) ;
#127=VECTOR('Line Direction',#126,1.) ;
#134=VECTOR('Line Direction',#133,1.) ;
#141=VECTOR('Line Direction',#140,1.) ;
#158=VECTOR('Line Direction',#157,1.) ;
#163=VECTOR('Line Direction',#162,1.) ;
#276=VECTOR('Line Direction',#275,1.) ;
#281=VECTOR('Line Direction',#280,1.) ;
#305=VECTOR('Line Direction',#304,1.) ;
#310=VECTOR('Line Direction',#309,1.) ;
#15=UNCERTAINTY_MEASURE_WITH_UNIT(LENGTH_MEASURE(0.005),#12,'distance_accuracy_value','CONFUSED CURVE UNCERTAINTY') ;
#328=SHAPE_REPRESENTATION_RELATIONSHIP(' ',' ',#19,#327) ;
#83=ORIENTED_EDGE('',*,*,#62,.F.) ;
#84=ORIENTED_EDGE('',*,*,#69,.T.) ;
#85=ORIENTED_EDGE('',*,*,#76,.T.) ;
#86=ORIENTED_EDGE('',*,*,#81,.F.) ;
#114=ORIENTED_EDGE('',*,*,#76,.F.) ;
#115=ORIENTED_EDGE('',*,*,#100,.T.) ;
#116=ORIENTED_EDGE('',*,*,#107,.T.) ;
#117=ORIENTED_EDGE('',*,*,#112,.F.) ;
#145=ORIENTED_EDGE('',*,*,#107,.F.) ;
#146=ORIENTED_EDGE('',*,*,#131,.T.) ;
#147=ORIENTED_EDGE('',*,*,#138,.T.) ;
#148=ORIENTED_EDGE('',*,*,#143,.F.) ;
#167=ORIENTED_EDGE('',*,*,#138,.F.) ;
#168=ORIENTED_EDGE('',*,*,#160,.T.) ;
#169=ORIENTED_EDGE('',*,*,#62,.T.) ;
#170=ORIENTED_EDGE('',*,*,#165,.F.) ;
#179=ORIENTED_EDGE('',*,*,#81,.T.) ;
#180=ORIENTED_EDGE('',*,*,#112,.T.) ;
#181=ORIENTED_EDGE('',*,*,#143,.T.) ;
#182=ORIENTED_EDGE('',*,*,#165,.T.) ;
#199=ORIENTED_EDGE('',*,*,#192,.F.) ;
#200=ORIENTED_EDGE('',*,*,#197,.F.) ;
#217=ORIENTED_EDGE('',*,*,#210,.F.) ;
#218=ORIENTED_EDGE('',*,*,#215,.F.) ;
#227=ORIENTED_EDGE('',*,*,#160,.F.) ;
#228=ORIENTED_EDGE('',*,*,#131,.F.) ;
#229=ORIENTED_EDGE('',*,*,#100,.F.) ;
#230=ORIENTED_EDGE('',*,*,#69,.F.) ;
#247=ORIENTED_EDGE('',*,*,#240,.T.) ;
#248=ORIENTED_EDGE('',*,*,#245,.T.) ;
#265=ORIENTED_EDGE('',*,*,#258,.T.) ;
#266=ORIENTED_EDGE('',*,*,#263,.T.) ;
#285=ORIENTED_EDGE('',*,*,#278,.F.) ;
#286=ORIENTED_EDGE('',*,*,#210,.T.) ;
#287=ORIENTED_EDGE('',*,*,#283,.T.) ;
#288=ORIENTED_EDGE('',*,*,#263,.F.) ;
#292=ORIENTED_EDGE('',*,*,#283,.F.) ;
#293=ORIENTED_EDGE('',*,*,#215,.T.) ;
#294=ORIENTED_EDGE('',*,*,#278,.T.) ;
#295=ORIENTED_EDGE('',*,*,#258,.F.) ;
#314=ORIENTED_EDGE('',*,*,#307,.F.) ;
#315=ORIENTED_EDGE('',*,*,#192,.T.) ;
#316=ORIENTED_EDGE('',*,*,#312,.T.) ;
#317=ORIENTED_EDGE('',*,*,#245,.F.) ;
#321=ORIENTED_EDGE('',*,*,#312,.F.) ;
#322=ORIENTED_EDGE('',*,*,#197,.T.) ;
#323=ORIENTED_EDGE('',*,*,#307,.T.) ;
#324=ORIENTED_EDGE('',*,*,#240,.F.) ;
#201=FACE_BOUND('',#198,.T.) ;
#219=FACE_BOUND('',#216,.T.) ;
#249=FACE_BOUND('',#246,.T.) ;
#267=FACE_BOUND('',#264,.T.) ;
#48=CLOSED_SHELL('Closed Shell',(#88,#119,#150,#172,#220,#268,#290,#297,#319,#326)) ;
#327=ADVANCED_BREP_SHAPE_REPRESENTATION('NONE',(#38),#16) ;
#88=ADVANCED_FACE('V1',(#87),#53,.T.) ;
#119=ADVANCED_FACE('V1',(#118),#93,.T.) ;
#150=ADVANCED_FACE('V1',(#149),#124,.T.) ;
#172=ADVANCED_FACE('V1',(#171),#155,.T.) ;
#220=ADVANCED_FACE('V1',(#183,#201,#219),#177,.T.) ;
#268=ADVANCED_FACE('V1',(#231,#249,#267),#225,.F.) ;
#290=ADVANCED_FACE('V1',(#289),#273,.F.) ;
#297=ADVANCED_FACE('V1',(#296),#273,.F.) ;
#319=ADVANCED_FACE('V1',(#318),#302,.F.) ;
#326=ADVANCED_FACE('V1',(#325),#302,.F.) ;
#4=APPLICATION_PROTOCOL_DEFINITION('international standard','automotive_design',2001,#1) ;
#38=MANIFOLD_SOLID_BREP('V1',#48) ;
#187=CIRCLE('generated circle',#186,1.75) ;
#196=CIRCLE('generated circle',#195,1.75) ;
#205=CIRCLE('generated circle',#204,1.75) ;
#214=CIRCLE('generated circle',#213,1.75) ;
#235=CIRCLE('generated circle',#234,1.75) ;
#244=CIRCLE('generated circle',#243,1.75) ;
#253=CIRCLE('generated circle',#252,1.75) ;
#262=CIRCLE('generated circle',#261,1.75) ;
#39=COLOUR_RGB('Colour',0.823529411765,0.823529411765,1.) ;
#26=CONSTRUCTIVE_GEOMETRY_REPRESENTATION('supplemental geometry',(#25,#32,#37),#16) ;
#27=CONSTRUCTIVE_GEOMETRY_REPRESENTATION_RELATIONSHIP('supplemental geometry','',#19,#26) ;
#273=CYLINDRICAL_SURFACE('generated cylinder',#272,1.75) ;
#302=CYLINDRICAL_SURFACE('generated cylinder',#301,1.75) ;
#62=EDGE_CURVE('',#59,#61,#57,.T.) ;
#69=EDGE_CURVE('',#59,#68,#66,.T.) ;
#76=EDGE_CURVE('',#68,#75,#73,.T.) ;
#81=EDGE_CURVE('',#61,#75,#80,.T.) ;
#100=EDGE_CURVE('',#68,#99,#97,.T.) ;
#107=EDGE_CURVE('',#99,#106,#104,.T.) ;
#112=EDGE_CURVE('',#75,#106,#111,.T.) ;
#131=EDGE_CURVE('',#99,#130,#128,.T.) ;
#138=EDGE_CURVE('',#130,#137,#135,.T.) ;
#143=EDGE_CURVE('',#106,#137,#142,.T.) ;
#160=EDGE_CURVE('',#130,#59,#159,.T.) ;
#165=EDGE_CURVE('',#137,#61,#164,.T.) ;
#192=EDGE_CURVE('',#189,#191,#187,.T.) ;
#197=EDGE_CURVE('',#191,#189,#196,.T.) ;
#210=EDGE_CURVE('',#207,#209,#205,.T.) ;
#215=EDGE_CURVE('',#209,#207,#214,.T.) ;
#240=EDGE_CURVE('',#237,#239,#235,.T.) ;
#245=EDGE_CURVE('',#239,#237,#244,.T.) ;
#258=EDGE_CURVE('',#255,#257,#253,.T.) ;
#263=EDGE_CURVE('',#257,#255,#262,.T.) ;
#278=EDGE_CURVE('',#207,#257,#277,.F.) ;
#283=EDGE_CURVE('',#209,#255,#282,.F.) ;
#307=EDGE_CURVE('',#189,#239,#306,.F.) ;
#312=EDGE_CURVE('',#191,#237,#311,.F.) ;
#82=EDGE_LOOP('',(#83,#84,#85,#86)) ;
#113=EDGE_LOOP('',(#114,#115,#116,#117)) ;
#144=EDGE_LOOP('',(#145,#146,#147,#148)) ;
#166=EDGE_LOOP('',(#167,#168,#169,#170)) ;
#178=EDGE_LOOP('',(#179,#180,#181,#182)) ;
#198=EDGE_LOOP('',(#199,#200)) ;
#216=EDGE_LOOP('',(#217,#218)) ;
#226=EDGE_LOOP('',(#227,#228,#229,#230)) ;
#246=EDGE_LOOP('',(#247,#248)) ;
#264=EDGE_LOOP('',(#265,#266)) ;
#284=EDGE_LOOP('',(#285,#286,#287,#288)) ;
#291=EDGE_LOOP('',(#292,#293,#294,#295)) ;
#313=EDGE_LOOP('',(#314,#315,#316,#317)) ;
#320=EDGE_LOOP('',(#321,#322,#323,#324)) ;
#87=FACE_OUTER_BOUND('',#82,.T.) ;
#118=FACE_OUTER_BOUND('',#113,.T.) ;
#149=FACE_OUTER_BOUND('',#144,.T.) ;
#171=FACE_OUTER_BOUND('',#166,.T.) ;
#183=FACE_OUTER_BOUND('',#178,.T.) ;
#231=FACE_OUTER_BOUND('',#226,.T.) ;
#289=FACE_OUTER_BOUND('',#284,.T.) ;
#296=FACE_OUTER_BOUND('',#291,.T.) ;
#318=FACE_OUTER_BOUND('',#313,.T.) ;
#325=FACE_OUTER_BOUND('',#320,.T.) ;
#57=LINE('Line',#54,#56) ;
#66=LINE('Line',#63,#65) ;
#73=LINE('Line',#70,#72) ;
#80=LINE('Line',#77,#79) ;
#97=LINE('Line',#94,#96) ;
#104=LINE('Line',#101,#103) ;
#111=LINE('Line',#108,#110) ;
#128=LINE('Line',#125,#127) ;
#135=LINE('Line',#132,#134) ;
#142=LINE('Line',#139,#141) ;
#159=LINE('Line',#156,#158) ;
#164=LINE('Line',#161,#163) ;
#277=LINE('Line',#274,#276) ;
#282=LINE('Line',#279,#281) ;
#306=LINE('Line',#303,#305) ;
#311=LINE('Line',#308,#310) ;
#25=PLANE('Referenz_xy',#24) ;
#32=PLANE('Referenz_yz',#31) ;
#37=PLANE('Referenz_xz',#36) ;
#53=PLANE('',#52) ;
#93=PLANE('',#92) ;
#124=PLANE('',#123) ;
#155=PLANE('',#154) ;
#177=PLANE('',#176) ;
#225=PLANE('',#224) ;
#9=PRODUCT_CATEGORY_RELATIONSHIP(' ',' ',#7,#8) ;
#6=PRODUCT_DEFINITION_FORMATION_WITH_SPECIFIED_SOURCE('',' ',#5,.NOT_KNOWN.) ;
#20=SHAPE_DEFINITION_REPRESENTATION(#11,#19) ;
#59=VERTEX_POINT('',#58) ;
#61=VERTEX_POINT('',#60) ;
#68=VERTEX_POINT('',#67) ;
#75=VERTEX_POINT('',#74) ;
#99=VERTEX_POINT('',#98) ;
#106=VERTEX_POINT('',#105) ;
#130=VERTEX_POINT('',#129) ;
#137=VERTEX_POINT('',#136) ;
#189=VERTEX_POINT('',#188) ;
#191=VERTEX_POINT('',#190) ;
#207=VERTEX_POINT('',#206) ;
#209=VERTEX_POINT('',#208) ;
#237=VERTEX_POINT('',#236) ;
#239=VERTEX_POINT('',#238) ;
#255=VERTEX_POINT('',#254) ;
#257=VERTEX_POINT('',#256) ;
#12=(LENGTH_UNIT()NAMED_UNIT(*)SI_UNIT(.MILLI.,.METRE.)) ;
#13=(NAMED_UNIT(*)PLANE_ANGLE_UNIT()SI_UNIT($,.RADIAN.)) ;
#14=(NAMED_UNIT(*)SI_UNIT($,.STERADIAN.)SOLID_ANGLE_UNIT()) ;
#16=(GEOMETRIC_REPRESENTATION_CONTEXT(3)GLOBAL_UNCERTAINTY_ASSIGNED_CONTEXT((#15))GLOBAL_UNIT_ASSIGNED_CONTEXT((#12,#13,#14))REPRESENTATION_CONTEXT(' ',' ')) ;
ENDSEC;
END-ISO-10303-21;
