ISO-10303-21;
HEADER;
FILE_DESCRIPTION(('CATIA V5R19 STEP'),'2;1');

FILE_NAME ('D1457781_0_1868440000_1868440000.stp','2015-02-26T09:28:43+00:00',('none'),('Weidmueller'),'CATIA Version 5 Release 20 SP 5 (IN-10)','CATIA V5 STEP AP214','none');

FILE_SCHEMA(('AUTOMOTIVE_DESIGN { 1 0 10303 214 1 1 1 1 }'));

ENDSEC;
/* file written by CATIA V5R20 */
DATA;
#5=PRODUCT('MF 10/8','','Markierer MultiFit 10x8 f\X2\00FC\X0\r Phoenix\X2\000D\X0\\X2\000A\X0\<Q-CHECKER_SEAL> Q-Checker Version 2.6.2  \X2\000D\X0\\X2\000A\X0\CATIA-Version         : Catia V5 R18 SP6 Build Date 07-18-2008.22.00\X2\000D\X0\\X2\000A\X0\Model size (in KByte) : 0\X2\000D\X0\\X2\000A\X0\Checking date         : 2009-02-24 11:16:27\X2\000D\X0\\X2\000A\X0\Checking profile      : ADMIN / Release_CATDrawings [CATPart]\X2\000D\X0\\X2\000A\X0\Model assessment      : In Ordnung (IO)\X2\000D\X0\\X2\000A\X0\Total weight sum      : 0\X2\000D\X0\\X2\000A\X0\<CROSS_CHECK_SUM>\X2\000D\X0\\X2\000A\X0\  <CHKSUM_DATE> 1670458045 </CHKSUM_DATE>\X2\000D\X0\\X2\000A\X0\  <CHKSUM_ENTITIES> -648759628 </CHKSUM_ENTITIES>\X2\000D\X0\\X2\000A\X0\  <CHKSUM_PROFILE> 1875091983 </CHKSUM_PROFILE>\X2\000D\X0\\X2\000A\X0\  <CHKSUM_DIMENSION> -186917087 </CHKSUM_DIMENSION>\X2\000D\X0\\X2\000A\X0\  <CHKSUM_PROJINTERSEC> -896974048 </CHKSUM_PROJINTERSEC>\X2\000D\X0\\X2\000A\X0\  <CHKSUM_IDENTCRV> -896974048 </CHKSUM_IDENTCRV>\X2\000D\X0\\X2\000A\X0\  <CHKSUM_INFINITY> 138018827 </CHKSUM_INFINITY>\X2\000D\X0\\X2\000A\X0\</CROSS_CHECK_SUM>\X2\000D\X0\\X2\000A\X0\</Q-CHECKER_SEAL> \X2\000D\X0\\X2\000A\X0\',(#2)) ;
#2=PRODUCT_CONTEXT(' ',#1,'mechanical') ;
#1=APPLICATION_CONTEXT('automotive design') ;
#10=PRODUCT_DEFINITION('',' ',#6,#3) ;
#3=PRODUCT_DEFINITION_CONTEXT('part definition',#1,' ') ;
#11=PRODUCT_DEFINITION_SHAPE(' ',' ',#10) ;
#452=MECHANICAL_DESIGN_GEOMETRIC_PRESENTATION_REPRESENTATION(' ',(#30),#17) ;
#20=SHAPE_REPRESENTATION(' ',(#19),#17) ;
#19=AXIS2_PLACEMENT_3D(' ',#18,$,$) ;
#36=AXIS2_PLACEMENT_3D('Plane Axis2P3D',#33,#34,#35) ;
#76=AXIS2_PLACEMENT_3D('Plane Axis2P3D',#73,#74,#75) ;
#139=AXIS2_PLACEMENT_3D('Plane Axis2P3D',#136,#137,#138) ;
#163=AXIS2_PLACEMENT_3D('Plane Axis2P3D',#160,#161,#162) ;
#219=AXIS2_PLACEMENT_3D('Plane Axis2P3D',#216,#217,#218) ;
#236=AXIS2_PLACEMENT_3D('Plane Axis2P3D',#233,#234,#235) ;
#253=AXIS2_PLACEMENT_3D('Plane Axis2P3D',#250,#251,#252) ;
#282=AXIS2_PLACEMENT_3D('Plane Axis2P3D',#279,#280,#281) ;
#299=AXIS2_PLACEMENT_3D('Plane Axis2P3D',#296,#297,#298) ;
#345=AXIS2_PLACEMENT_3D('Plane Axis2P3D',#342,#343,#344) ;
#385=AXIS2_PLACEMENT_3D('Plane Axis2P3D',#382,#383,#384) ;
#407=AXIS2_PLACEMENT_3D('Plane Axis2P3D',#404,#405,#406) ;
#424=AXIS2_PLACEMENT_3D('Plane Axis2P3D',#421,#422,#423) ;
#441=AXIS2_PLACEMENT_3D('Plane Axis2P3D',#438,#439,#440) ;
#18=CARTESIAN_POINT(' ',(0.,0.,0.)) ;
#33=CARTESIAN_POINT('Axis2P3D Location',(3.95,2.15,2.8)) ;
#38=CARTESIAN_POINT('Line Origine',(3.95,2.15,2.8)) ;
#42=CARTESIAN_POINT('Vertex',(1.95,2.15,2.8)) ;
#44=CARTESIAN_POINT('Vertex',(5.95,2.15,2.8)) ;
#47=CARTESIAN_POINT('Line Origine',(1.95,2.15,1.4)) ;
#51=CARTESIAN_POINT('Vertex',(1.95,2.15,0.)) ;
#54=CARTESIAN_POINT('Line Origine',(3.95,2.15,0.)) ;
#58=CARTESIAN_POINT('Vertex',(5.95,2.15,0.)) ;
#61=CARTESIAN_POINT('Line Origine',(5.95,2.15,1.4)) ;
#73=CARTESIAN_POINT('Axis2P3D Location',(1.95,4.9,2.8)) ;
#78=CARTESIAN_POINT('Line Origine',(1.95,4.9,2.8)) ;
#82=CARTESIAN_POINT('Vertex',(1.95,7.65,2.8)) ;
#85=CARTESIAN_POINT('Line Origine',(1.95,7.65,1.4)) ;
#89=CARTESIAN_POINT('Vertex',(1.95,7.65,0.)) ;
#92=CARTESIAN_POINT('Line Origine',(1.95,7.3501288694,0.)) ;
#96=CARTESIAN_POINT('Vertex',(1.95,7.05025773881,-4.4408920985E-016)) ;
#99=CARTESIAN_POINT('Line Origine',(1.95,6.72871870789,1.2)) ;
#103=CARTESIAN_POINT('Vertex',(1.95,6.40717967697,2.4)) ;
#106=CARTESIAN_POINT('Line Origine',(1.95,4.9,2.4)) ;
#110=CARTESIAN_POINT('Vertex',(1.95,3.39282032303,2.4)) ;
#113=CARTESIAN_POINT('Line Origine',(1.95,3.07128129211,1.2)) ;
#117=CARTESIAN_POINT('Vertex',(1.95,2.74974226119,0.)) ;
#120=CARTESIAN_POINT('Line Origine',(1.95,2.4498711306,0.)) ;
#136=CARTESIAN_POINT('Axis2P3D Location',(3.95,2.15,0.)) ;
#141=CARTESIAN_POINT('Line Origine',(3.95,2.74974226119,0.)) ;
#145=CARTESIAN_POINT('Vertex',(5.95,2.74974226119,0.)) ;
#148=CARTESIAN_POINT('Line Origine',(5.95,2.4498711306,1.22464679915E-016)) ;
#160=CARTESIAN_POINT('Axis2P3D Location',(5.95,4.9,2.8)) ;
#165=CARTESIAN_POINT('Line Origine',(5.95,3.07128129211,1.2)) ;
#169=CARTESIAN_POINT('Vertex',(5.95,3.39282032303,2.4)) ;
#172=CARTESIAN_POINT('Line Origine',(5.95,4.9,2.4)) ;
#176=CARTESIAN_POINT('Vertex',(5.95,6.40717967697,2.4)) ;
#179=CARTESIAN_POINT('Line Origine',(5.95,6.72871870789,1.2)) ;
#183=CARTESIAN_POINT('Vertex',(5.95,7.05025773881,-4.4408920985E-016)) ;
#186=CARTESIAN_POINT('Line Origine',(5.95,7.3501288694,0.)) ;
#190=CARTESIAN_POINT('Vertex',(5.95,7.65,0.)) ;
#193=CARTESIAN_POINT('Line Origine',(5.95,7.65,1.4)) ;
#197=CARTESIAN_POINT('Vertex',(5.95,7.65,2.8)) ;
#200=CARTESIAN_POINT('Line Origine',(5.95,4.9,2.8)) ;
#216=CARTESIAN_POINT('Axis2P3D Location',(3.95,2.74974226119,-4.4408920985E-016)) ;
#221=CARTESIAN_POINT('Line Origine',(3.95,3.39282032303,2.4)) ;
#233=CARTESIAN_POINT('Axis2P3D Location',(3.95,3.39282032303,2.4)) ;
#238=CARTESIAN_POINT('Line Origine',(3.95,6.40717967697,2.4)) ;
#250=CARTESIAN_POINT('Axis2P3D Location',(3.95,7.05025773881,-4.4408920985E-016)) ;
#255=CARTESIAN_POINT('Line Origine',(3.95,7.05025773881,-4.4408920985E-016)) ;
#267=CARTESIAN_POINT('Line Origine',(3.95,7.65,0.)) ;
#279=CARTESIAN_POINT('Axis2P3D Location',(3.95,7.65,2.8)) ;
#284=CARTESIAN_POINT('Line Origine',(3.95,7.65,2.8)) ;
#296=CARTESIAN_POINT('Axis2P3D Location',(3.95,4.9,2.8)) ;
#301=CARTESIAN_POINT('Line Origine',(7.9,4.9,2.8)) ;
#305=CARTESIAN_POINT('Vertex',(7.9,-2.41867742832E-016,2.8)) ;
#307=CARTESIAN_POINT('Vertex',(7.9,9.8,2.8)) ;
#310=CARTESIAN_POINT('Line Origine',(3.95,0.,2.8)) ;
#314=CARTESIAN_POINT('Vertex',(-3.10862446895E-015,2.41867742832E-016,2.8)) ;
#317=CARTESIAN_POINT('Line Origine',(-2.6645352591E-015,4.9,2.8)) ;
#321=CARTESIAN_POINT('Vertex',(-1.7763568394E-015,9.8,2.8)) ;
#324=CARTESIAN_POINT('Line Origine',(3.95,9.8,2.8)) ;
#342=CARTESIAN_POINT('Axis2P3D Location',(3.95,4.9,3.6)) ;
#347=CARTESIAN_POINT('Line Origine',(3.95,9.8,3.6)) ;
#351=CARTESIAN_POINT('Vertex',(7.9,9.8,3.6)) ;
#353=CARTESIAN_POINT('Vertex',(-1.7763568394E-015,9.8,3.6)) ;
#356=CARTESIAN_POINT('Line Origine',(-2.6645352591E-015,4.9,3.6)) ;
#360=CARTESIAN_POINT('Vertex',(-3.10862446895E-015,2.41867742832E-016,3.6)) ;
#363=CARTESIAN_POINT('Line Origine',(3.95,0.,3.6)) ;
#367=CARTESIAN_POINT('Vertex',(7.9,-2.41867742832E-016,3.6)) ;
#370=CARTESIAN_POINT('Line Origine',(7.9,4.9,3.6)) ;
#382=CARTESIAN_POINT('Axis2P3D Location',(7.9,9.8,2.8)) ;
#387=CARTESIAN_POINT('Line Origine',(7.9,1.7763568394E-015,3.2)) ;
#392=CARTESIAN_POINT('Line Origine',(7.9,9.8,3.2)) ;
#404=CARTESIAN_POINT('Axis2P3D Location',(-3.10862446895E-015,0.,2.8)) ;
#409=CARTESIAN_POINT('Line Origine',(-3.13311740493E-015,1.49975978266E-033,3.2)) ;
#421=CARTESIAN_POINT('Axis2P3D Location',(-3.10862446895E-015,0.,2.8)) ;
#426=CARTESIAN_POINT('Line Origine',(-2.53304047335E-015,9.8,3.2)) ;
#438=CARTESIAN_POINT('Axis2P3D Location',(7.9,9.8,2.8)) ;
#34=DIRECTION('Axis2P3D Direction',(-6.12323399574E-017,-1.,0.)) ;
#35=DIRECTION('Axis2P3D XDirection',(6.12323399574E-017,-3.74939945665E-033,-1.)) ;
#39=DIRECTION('Vector Direction',(1.,0.,0.)) ;
#48=DIRECTION('Vector Direction',(0.,0.,-1.)) ;
#55=DIRECTION('Vector Direction',(1.,0.,6.12323399574E-017)) ;
#62=DIRECTION('Vector Direction',(0.,0.,-1.)) ;
#74=DIRECTION('Axis2P3D Direction',(1.,-6.12323399574E-017,6.12323399574E-017)) ;
#75=DIRECTION('Axis2P3D XDirection',(6.12323399574E-017,1.,0.)) ;
#79=DIRECTION('Vector Direction',(8.07434927E-017,1.,0.)) ;
#86=DIRECTION('Vector Direction',(7.93016446161E-017,0.,-1.)) ;
#93=DIRECTION('Vector Direction',(0.,-1.,0.)) ;
#100=DIRECTION('Vector Direction',(-1.78732182071E-016,-0.258819045103,0.965925826289)) ;
#107=DIRECTION('Vector Direction',(0.,1.,0.)) ;
#114=DIRECTION('Vector Direction',(0.,0.258819045103,0.965925826289)) ;
#121=DIRECTION('Vector Direction',(0.,1.,0.)) ;
#137=DIRECTION('Axis2P3D Direction',(6.12323399574E-017,-3.74939945665E-033,-1.)) ;
#138=DIRECTION('Axis2P3D XDirection',(6.12323399574E-017,1.,0.)) ;
#142=DIRECTION('Vector Direction',(1.,0.,6.12323399574E-017)) ;
#149=DIRECTION('Vector Direction',(0.,1.,0.)) ;
#161=DIRECTION('Axis2P3D Direction',(1.,-6.12323399574E-017,6.12323399574E-017)) ;
#162=DIRECTION('Axis2P3D XDirection',(6.12323399574E-017,1.,0.)) ;
#166=DIRECTION('Vector Direction',(0.,0.258819045103,0.965925826289)) ;
#173=DIRECTION('Vector Direction',(0.,1.,0.)) ;
#180=DIRECTION('Vector Direction',(0.,-0.258819045103,0.965925826289)) ;
#187=DIRECTION('Vector Direction',(0.,-1.,0.)) ;
#194=DIRECTION('Vector Direction',(0.,0.,-1.)) ;
#201=DIRECTION('Vector Direction',(0.,1.,0.)) ;
#217=DIRECTION('Axis2P3D Direction',(7.49939943261E-017,0.965925826289,-0.258819045103)) ;
#218=DIRECTION('Axis2P3D XDirection',(-4.32978028118E-017,0.258819045103,0.965925826289)) ;
#222=DIRECTION('Vector Direction',(1.,0.,0.)) ;
#234=DIRECTION('Axis2P3D Direction',(6.12323399574E-017,-3.74939945665E-033,-1.)) ;
#235=DIRECTION('Axis2P3D XDirection',(6.12323399574E-017,1.,0.)) ;
#239=DIRECTION('Vector Direction',(1.,0.,0.)) ;
#251=DIRECTION('Axis2P3D Direction',(4.32978028118E-017,0.965925826289,0.258819045103)) ;
#252=DIRECTION('Axis2P3D XDirection',(-7.49939943261E-017,-0.258819045103,0.965925826289)) ;
#256=DIRECTION('Vector Direction',(1.,0.,6.12323399574E-017)) ;
#268=DIRECTION('Vector Direction',(1.,0.,6.12323399574E-017)) ;
#280=DIRECTION('Axis2P3D Direction',(-6.12323399574E-017,-1.,0.)) ;
#281=DIRECTION('Axis2P3D XDirection',(6.12323399574E-017,-3.74939945665E-033,-1.)) ;
#285=DIRECTION('Vector Direction',(1.,0.,0.)) ;
#297=DIRECTION('Axis2P3D Direction',(-6.12323399574E-017,3.74939945665E-033,1.)) ;
#298=DIRECTION('Axis2P3D XDirection',(-6.12323399574E-017,-1.,0.)) ;
#302=DIRECTION('Vector Direction',(-1.8126090198E-016,-1.,0.)) ;
#311=DIRECTION('Vector Direction',(1.,-6.12323399574E-017,1.12427648063E-016)) ;
#318=DIRECTION('Vector Direction',(9.06304509898E-017,1.,0.)) ;
#325=DIRECTION('Vector Direction',(-1.,0.,-1.12427648063E-016)) ;
#343=DIRECTION('Axis2P3D Direction',(-6.12323399574E-017,3.74939945665E-033,1.)) ;
#344=DIRECTION('Axis2P3D XDirection',(-6.12323399574E-017,-1.,0.)) ;
#348=DIRECTION('Vector Direction',(-1.,0.,-1.12427648063E-016)) ;
#357=DIRECTION('Vector Direction',(9.06304509898E-017,1.,0.)) ;
#364=DIRECTION('Vector Direction',(1.,-6.12323399574E-017,1.12427648063E-016)) ;
#371=DIRECTION('Vector Direction',(-1.8126090198E-016,-1.,0.)) ;
#383=DIRECTION('Axis2P3D Direction',(-1.,6.12323399574E-017,-6.12323399574E-017)) ;
#384=DIRECTION('Axis2P3D XDirection',(-6.12323399574E-017,-1.,0.)) ;
#388=DIRECTION('Vector Direction',(0.,0.,1.)) ;
#393=DIRECTION('Vector Direction',(0.,0.,1.)) ;
#405=DIRECTION('Axis2P3D Direction',(-6.12323399574E-017,-1.,0.)) ;
#406=DIRECTION('Axis2P3D XDirection',(1.,-6.12323399574E-017,6.12323399574E-017)) ;
#410=DIRECTION('Vector Direction',(-6.12323399574E-017,3.74939945665E-033,1.)) ;
#422=DIRECTION('Axis2P3D Direction',(1.,-6.12323399574E-017,6.12323399574E-017)) ;
#423=DIRECTION('Axis2P3D XDirection',(6.12323399574E-017,1.,0.)) ;
#427=DIRECTION('Vector Direction',(-6.12323399574E-017,0.,1.)) ;
#439=DIRECTION('Axis2P3D Direction',(6.12323399574E-017,1.,0.)) ;
#440=DIRECTION('Axis2P3D XDirection',(-1.,6.12323399574E-017,-6.12323399574E-017)) ;
#31=PRESENTATION_LAYER_ASSIGNMENT('1',' ',(#22)) ;
#8=PRODUCT_RELATED_PRODUCT_CATEGORY('part',$,(#5)) ;
#7=PRODUCT_CATEGORY('part','specification') ;
#30=STYLED_ITEM(' ',(#29),#22) ;
#29=PRESENTATION_STYLE_ASSIGNMENT((#28)) ;
#28=SURFACE_STYLE_USAGE(.BOTH.,#27) ;
#27=SURFACE_SIDE_STYLE(' ',(#26)) ;
#26=SURFACE_STYLE_FILL_AREA(#25) ;
#25=FILL_AREA_STYLE(' ',(#24)) ;
#24=FILL_AREA_STYLE_COLOUR(' ',#23) ;
#40=VECTOR('Line Direction',#39,1.) ;
#49=VECTOR('Line Direction',#48,1.) ;
#56=VECTOR('Line Direction',#55,1.) ;
#63=VECTOR('Line Direction',#62,1.) ;
#80=VECTOR('Line Direction',#79,1.) ;
#87=VECTOR('Line Direction',#86,1.) ;
#94=VECTOR('Line Direction',#93,1.) ;
#101=VECTOR('Line Direction',#100,1.) ;
#108=VECTOR('Line Direction',#107,1.) ;
#115=VECTOR('Line Direction',#114,1.) ;
#122=VECTOR('Line Direction',#121,1.) ;
#143=VECTOR('Line Direction',#142,1.) ;
#150=VECTOR('Line Direction',#149,1.) ;
#167=VECTOR('Line Direction',#166,1.) ;
#174=VECTOR('Line Direction',#173,1.) ;
#181=VECTOR('Line Direction',#180,1.) ;
#188=VECTOR('Line Direction',#187,1.) ;
#195=VECTOR('Line Direction',#194,1.) ;
#202=VECTOR('Line Direction',#201,1.) ;
#223=VECTOR('Line Direction',#222,1.) ;
#240=VECTOR('Line Direction',#239,1.) ;
#257=VECTOR('Line Direction',#256,1.) ;
#269=VECTOR('Line Direction',#268,1.) ;
#286=VECTOR('Line Direction',#285,1.) ;
#303=VECTOR('Line Direction',#302,1.) ;
#312=VECTOR('Line Direction',#311,1.) ;
#319=VECTOR('Line Direction',#318,1.) ;
#326=VECTOR('Line Direction',#325,1.) ;
#349=VECTOR('Line Direction',#348,1.) ;
#358=VECTOR('Line Direction',#357,1.) ;
#365=VECTOR('Line Direction',#364,1.) ;
#372=VECTOR('Line Direction',#371,1.) ;
#389=VECTOR('Line Direction',#388,1.) ;
#394=VECTOR('Line Direction',#393,1.) ;
#411=VECTOR('Line Direction',#410,1.) ;
#428=VECTOR('Line Direction',#427,1.) ;
#16=UNCERTAINTY_MEASURE_WITH_UNIT(LENGTH_MEASURE(0.005),#12,'distance_accuracy_value','CONFUSED CURVE UNCERTAINTY') ;
#451=SHAPE_REPRESENTATION_RELATIONSHIP(' ',' ',#20,#450) ;
#67=ORIENTED_EDGE('',*,*,#46,.F.) ;
#68=ORIENTED_EDGE('',*,*,#53,.T.) ;
#69=ORIENTED_EDGE('',*,*,#60,.T.) ;
#70=ORIENTED_EDGE('',*,*,#65,.F.) ;
#126=ORIENTED_EDGE('',*,*,#84,.F.) ;
#127=ORIENTED_EDGE('',*,*,#91,.F.) ;
#128=ORIENTED_EDGE('',*,*,#98,.F.) ;
#129=ORIENTED_EDGE('',*,*,#105,.F.) ;
#130=ORIENTED_EDGE('',*,*,#112,.F.) ;
#131=ORIENTED_EDGE('',*,*,#119,.F.) ;
#132=ORIENTED_EDGE('',*,*,#124,.F.) ;
#133=ORIENTED_EDGE('',*,*,#53,.F.) ;
#154=ORIENTED_EDGE('',*,*,#60,.F.) ;
#155=ORIENTED_EDGE('',*,*,#124,.T.) ;
#156=ORIENTED_EDGE('',*,*,#147,.T.) ;
#157=ORIENTED_EDGE('',*,*,#152,.F.) ;
#206=ORIENTED_EDGE('',*,*,#65,.T.) ;
#207=ORIENTED_EDGE('',*,*,#152,.T.) ;
#208=ORIENTED_EDGE('',*,*,#171,.T.) ;
#209=ORIENTED_EDGE('',*,*,#178,.T.) ;
#210=ORIENTED_EDGE('',*,*,#185,.T.) ;
#211=ORIENTED_EDGE('',*,*,#192,.T.) ;
#212=ORIENTED_EDGE('',*,*,#199,.T.) ;
#213=ORIENTED_EDGE('',*,*,#204,.T.) ;
#227=ORIENTED_EDGE('',*,*,#147,.F.) ;
#228=ORIENTED_EDGE('',*,*,#119,.T.) ;
#229=ORIENTED_EDGE('',*,*,#225,.T.) ;
#230=ORIENTED_EDGE('',*,*,#171,.F.) ;
#244=ORIENTED_EDGE('',*,*,#225,.F.) ;
#245=ORIENTED_EDGE('',*,*,#112,.T.) ;
#246=ORIENTED_EDGE('',*,*,#242,.T.) ;
#247=ORIENTED_EDGE('',*,*,#178,.F.) ;
#261=ORIENTED_EDGE('',*,*,#242,.F.) ;
#262=ORIENTED_EDGE('',*,*,#105,.T.) ;
#263=ORIENTED_EDGE('',*,*,#259,.T.) ;
#264=ORIENTED_EDGE('',*,*,#185,.F.) ;
#273=ORIENTED_EDGE('',*,*,#259,.F.) ;
#274=ORIENTED_EDGE('',*,*,#98,.T.) ;
#275=ORIENTED_EDGE('',*,*,#271,.T.) ;
#276=ORIENTED_EDGE('',*,*,#192,.F.) ;
#290=ORIENTED_EDGE('',*,*,#271,.F.) ;
#291=ORIENTED_EDGE('',*,*,#91,.T.) ;
#292=ORIENTED_EDGE('',*,*,#288,.T.) ;
#293=ORIENTED_EDGE('',*,*,#199,.F.) ;
#330=ORIENTED_EDGE('',*,*,#309,.F.) ;
#331=ORIENTED_EDGE('',*,*,#316,.F.) ;
#332=ORIENTED_EDGE('',*,*,#323,.F.) ;
#333=ORIENTED_EDGE('',*,*,#328,.F.) ;
#336=ORIENTED_EDGE('',*,*,#84,.T.) ;
#337=ORIENTED_EDGE('',*,*,#46,.T.) ;
#338=ORIENTED_EDGE('',*,*,#204,.F.) ;
#339=ORIENTED_EDGE('',*,*,#288,.F.) ;
#376=ORIENTED_EDGE('',*,*,#355,.T.) ;
#377=ORIENTED_EDGE('',*,*,#362,.T.) ;
#378=ORIENTED_EDGE('',*,*,#369,.T.) ;
#379=ORIENTED_EDGE('',*,*,#374,.T.) ;
#398=ORIENTED_EDGE('',*,*,#391,.F.) ;
#399=ORIENTED_EDGE('',*,*,#309,.T.) ;
#400=ORIENTED_EDGE('',*,*,#396,.T.) ;
#401=ORIENTED_EDGE('',*,*,#374,.F.) ;
#415=ORIENTED_EDGE('',*,*,#413,.F.) ;
#416=ORIENTED_EDGE('',*,*,#316,.T.) ;
#417=ORIENTED_EDGE('',*,*,#391,.T.) ;
#418=ORIENTED_EDGE('',*,*,#369,.F.) ;
#432=ORIENTED_EDGE('',*,*,#430,.F.) ;
#433=ORIENTED_EDGE('',*,*,#323,.T.) ;
#434=ORIENTED_EDGE('',*,*,#413,.T.) ;
#435=ORIENTED_EDGE('',*,*,#362,.F.) ;
#444=ORIENTED_EDGE('',*,*,#396,.F.) ;
#445=ORIENTED_EDGE('',*,*,#328,.T.) ;
#446=ORIENTED_EDGE('',*,*,#430,.T.) ;
#447=ORIENTED_EDGE('',*,*,#355,.F.) ;
#340=FACE_BOUND('',#335,.T.) ;
#32=CLOSED_SHELL('Closed Shell',(#72,#135,#159,#215,#232,#249,#266,#278,#295,#341,#381,#403,#420,#437,#449)) ;
#450=ADVANCED_BREP_SHAPE_REPRESENTATION('NONE',(#22),#17) ;
#72=ADVANCED_FACE('S3D gedreht',(#71),#37,.T.) ;
#135=ADVANCED_FACE('S3D gedreht',(#134),#77,.F.) ;
#159=ADVANCED_FACE('S3D gedreht',(#158),#140,.T.) ;
#215=ADVANCED_FACE('S3D gedreht',(#214),#164,.T.) ;
#232=ADVANCED_FACE('S3D gedreht',(#231),#220,.T.) ;
#249=ADVANCED_FACE('S3D gedreht',(#248),#237,.T.) ;
#266=ADVANCED_FACE('S3D gedreht',(#265),#254,.F.) ;
#278=ADVANCED_FACE('S3D gedreht',(#277),#140,.T.) ;
#295=ADVANCED_FACE('S3D gedreht',(#294),#283,.F.) ;
#341=ADVANCED_FACE('S3D gedreht',(#334,#340),#300,.F.) ;
#381=ADVANCED_FACE('S3D gedreht',(#380),#346,.T.) ;
#403=ADVANCED_FACE('S3D gedreht',(#402),#386,.F.) ;
#420=ADVANCED_FACE('S3D gedreht',(#419),#408,.T.) ;
#437=ADVANCED_FACE('S3D gedreht',(#436),#425,.F.) ;
#449=ADVANCED_FACE('S3D gedreht',(#448),#442,.T.) ;
#4=APPLICATION_PROTOCOL_DEFINITION('international standard','automotive_design',2001,#1) ;
#22=MANIFOLD_SOLID_BREP('S3D gedreht',#32) ;
#23=DRAUGHTING_PRE_DEFINED_COLOUR('white') ;
#46=EDGE_CURVE('',#43,#45,#41,.T.) ;
#53=EDGE_CURVE('',#43,#52,#50,.T.) ;
#60=EDGE_CURVE('',#52,#59,#57,.T.) ;
#65=EDGE_CURVE('',#45,#59,#64,.T.) ;
#84=EDGE_CURVE('',#83,#43,#81,.F.) ;
#91=EDGE_CURVE('',#90,#83,#88,.F.) ;
#98=EDGE_CURVE('',#97,#90,#95,.F.) ;
#105=EDGE_CURVE('',#104,#97,#102,.F.) ;
#112=EDGE_CURVE('',#111,#104,#109,.T.) ;
#119=EDGE_CURVE('',#118,#111,#116,.T.) ;
#124=EDGE_CURVE('',#52,#118,#123,.T.) ;
#147=EDGE_CURVE('',#118,#146,#144,.T.) ;
#152=EDGE_CURVE('',#59,#146,#151,.T.) ;
#171=EDGE_CURVE('',#146,#170,#168,.T.) ;
#178=EDGE_CURVE('',#170,#177,#175,.T.) ;
#185=EDGE_CURVE('',#177,#184,#182,.F.) ;
#192=EDGE_CURVE('',#184,#191,#189,.F.) ;
#199=EDGE_CURVE('',#191,#198,#196,.F.) ;
#204=EDGE_CURVE('',#198,#45,#203,.F.) ;
#225=EDGE_CURVE('',#111,#170,#224,.T.) ;
#242=EDGE_CURVE('',#104,#177,#241,.T.) ;
#259=EDGE_CURVE('',#97,#184,#258,.T.) ;
#271=EDGE_CURVE('',#90,#191,#270,.T.) ;
#288=EDGE_CURVE('',#83,#198,#287,.T.) ;
#309=EDGE_CURVE('',#306,#308,#304,.F.) ;
#316=EDGE_CURVE('',#315,#306,#313,.T.) ;
#323=EDGE_CURVE('',#322,#315,#320,.F.) ;
#328=EDGE_CURVE('',#308,#322,#327,.T.) ;
#355=EDGE_CURVE('',#352,#354,#350,.T.) ;
#362=EDGE_CURVE('',#354,#361,#359,.F.) ;
#369=EDGE_CURVE('',#361,#368,#366,.T.) ;
#374=EDGE_CURVE('',#368,#352,#373,.F.) ;
#391=EDGE_CURVE('',#306,#368,#390,.T.) ;
#396=EDGE_CURVE('',#308,#352,#395,.T.) ;
#413=EDGE_CURVE('',#315,#361,#412,.T.) ;
#430=EDGE_CURVE('',#322,#354,#429,.T.) ;
#66=EDGE_LOOP('',(#67,#68,#69,#70)) ;
#125=EDGE_LOOP('',(#126,#127,#128,#129,#130,#131,#132,#133)) ;
#153=EDGE_LOOP('',(#154,#155,#156,#157)) ;
#205=EDGE_LOOP('',(#206,#207,#208,#209,#210,#211,#212,#213)) ;
#226=EDGE_LOOP('',(#227,#228,#229,#230)) ;
#243=EDGE_LOOP('',(#244,#245,#246,#247)) ;
#260=EDGE_LOOP('',(#261,#262,#263,#264)) ;
#272=EDGE_LOOP('',(#273,#274,#275,#276)) ;
#289=EDGE_LOOP('',(#290,#291,#292,#293)) ;
#329=EDGE_LOOP('',(#330,#331,#332,#333)) ;
#335=EDGE_LOOP('',(#336,#337,#338,#339)) ;
#375=EDGE_LOOP('',(#376,#377,#378,#379)) ;
#397=EDGE_LOOP('',(#398,#399,#400,#401)) ;
#414=EDGE_LOOP('',(#415,#416,#417,#418)) ;
#431=EDGE_LOOP('',(#432,#433,#434,#435)) ;
#443=EDGE_LOOP('',(#444,#445,#446,#447)) ;
#71=FACE_OUTER_BOUND('',#66,.T.) ;
#134=FACE_OUTER_BOUND('',#125,.T.) ;
#158=FACE_OUTER_BOUND('',#153,.T.) ;
#214=FACE_OUTER_BOUND('',#205,.T.) ;
#231=FACE_OUTER_BOUND('',#226,.T.) ;
#248=FACE_OUTER_BOUND('',#243,.T.) ;
#265=FACE_OUTER_BOUND('',#260,.T.) ;
#277=FACE_OUTER_BOUND('',#272,.T.) ;
#294=FACE_OUTER_BOUND('',#289,.T.) ;
#334=FACE_OUTER_BOUND('',#329,.T.) ;
#380=FACE_OUTER_BOUND('',#375,.T.) ;
#402=FACE_OUTER_BOUND('',#397,.T.) ;
#419=FACE_OUTER_BOUND('',#414,.T.) ;
#436=FACE_OUTER_BOUND('',#431,.T.) ;
#448=FACE_OUTER_BOUND('',#443,.T.) ;
#41=LINE('Line',#38,#40) ;
#50=LINE('Line',#47,#49) ;
#57=LINE('Line',#54,#56) ;
#64=LINE('Line',#61,#63) ;
#81=LINE('Line',#78,#80) ;
#88=LINE('Line',#85,#87) ;
#95=LINE('Line',#92,#94) ;
#102=LINE('Line',#99,#101) ;
#109=LINE('Line',#106,#108) ;
#116=LINE('Line',#113,#115) ;
#123=LINE('Line',#120,#122) ;
#144=LINE('Line',#141,#143) ;
#151=LINE('Line',#148,#150) ;
#168=LINE('Line',#165,#167) ;
#175=LINE('Line',#172,#174) ;
#182=LINE('Line',#179,#181) ;
#189=LINE('Line',#186,#188) ;
#196=LINE('Line',#193,#195) ;
#203=LINE('Line',#200,#202) ;
#224=LINE('Line',#221,#223) ;
#241=LINE('Line',#238,#240) ;
#258=LINE('Line',#255,#257) ;
#270=LINE('Line',#267,#269) ;
#287=LINE('Line',#284,#286) ;
#304=LINE('Line',#301,#303) ;
#313=LINE('Line',#310,#312) ;
#320=LINE('Line',#317,#319) ;
#327=LINE('Line',#324,#326) ;
#350=LINE('Line',#347,#349) ;
#359=LINE('Line',#356,#358) ;
#366=LINE('Line',#363,#365) ;
#373=LINE('Line',#370,#372) ;
#390=LINE('Line',#387,#389) ;
#395=LINE('Line',#392,#394) ;
#412=LINE('Line',#409,#411) ;
#429=LINE('Line',#426,#428) ;
#37=PLANE('',#36) ;
#77=PLANE('',#76) ;
#140=PLANE('',#139) ;
#164=PLANE('',#163) ;
#220=PLANE('',#219) ;
#237=PLANE('',#236) ;
#254=PLANE('',#253) ;
#283=PLANE('',#282) ;
#300=PLANE('',#299) ;
#346=PLANE('',#345) ;
#386=PLANE('',#385) ;
#408=PLANE('',#407) ;
#425=PLANE('',#424) ;
#442=PLANE('',#441) ;
#14=PLANE_ANGLE_MEASURE_WITH_UNIT(PLANE_ANGLE_MEASURE(0.0174532925199),#13) ;
#9=PRODUCT_CATEGORY_RELATIONSHIP(' ',' ',#7,#8) ;
#6=PRODUCT_DEFINITION_FORMATION_WITH_SPECIFIED_SOURCE('',' ',#5,.NOT_KNOWN.) ;
#21=SHAPE_DEFINITION_REPRESENTATION(#11,#20) ;
#43=VERTEX_POINT('',#42) ;
#45=VERTEX_POINT('',#44) ;
#52=VERTEX_POINT('',#51) ;
#59=VERTEX_POINT('',#58) ;
#83=VERTEX_POINT('',#82) ;
#90=VERTEX_POINT('',#89) ;
#97=VERTEX_POINT('',#96) ;
#104=VERTEX_POINT('',#103) ;
#111=VERTEX_POINT('',#110) ;
#118=VERTEX_POINT('',#117) ;
#146=VERTEX_POINT('',#145) ;
#170=VERTEX_POINT('',#169) ;
#177=VERTEX_POINT('',#176) ;
#184=VERTEX_POINT('',#183) ;
#191=VERTEX_POINT('',#190) ;
#198=VERTEX_POINT('',#197) ;
#306=VERTEX_POINT('',#305) ;
#308=VERTEX_POINT('',#307) ;
#315=VERTEX_POINT('',#314) ;
#322=VERTEX_POINT('',#321) ;
#352=VERTEX_POINT('',#351) ;
#354=VERTEX_POINT('',#353) ;
#361=VERTEX_POINT('',#360) ;
#368=VERTEX_POINT('',#367) ;
#12=(LENGTH_UNIT()NAMED_UNIT(*)SI_UNIT(.MILLI.,.METRE.)) ;
#13=(NAMED_UNIT(*)PLANE_ANGLE_UNIT()SI_UNIT($,.RADIAN.)) ;
#15=(NAMED_UNIT(*)SI_UNIT($,.STERADIAN.)SOLID_ANGLE_UNIT()) ;
#17=(GEOMETRIC_REPRESENTATION_CONTEXT(3)GLOBAL_UNCERTAINTY_ASSIGNED_CONTEXT((#16))GLOBAL_UNIT_ASSIGNED_CONTEXT((#12,#13,#15))REPRESENTATION_CONTEXT(' ',' ')) ;
ENDSEC;
END-ISO-10303-21;
