ISO-10303-21;
HEADER;
FILE_DESCRIPTION(('CATIA V5 STEP Exchange','CAx-IF Rec.Pracs.--- Model Styling and Organization---1.4--- 2014-01-23'),'2;1');

FILE_NAME ('035425-2_0_0607000000_0607000000_S.stp','2021-08-03T10:14:02+00:00',('none'),('Weidmueller'),'CATIA Version 5-6 Release 2016 SP3 HF44','CATIA V5 STEP AP214','none');

FILE_SCHEMA(('AUTOMOTIVE_DESIGN { 1 0 10303 214 1 1 1 1 }'));

ENDSEC;
DATA;
#5=PRODUCT('0607000000_06159_TW_SAKS2_HP-DBR-2','','',(#2)) ;
#2=PRODUCT_CONTEXT(' ',#1,'mechanical') ;
#1=APPLICATION_CONTEXT('automotive design') ;
#10=PRODUCT_DEFINITION(' ',' ',#6,#3) ;
#3=PRODUCT_DEFINITION_CONTEXT('part definition',#1,' ') ;
#11=PRODUCT_DEFINITION_SHAPE(' ',' ',#10) ;
#352=MECHANICAL_DESIGN_GEOMETRIC_PRESENTATION_REPRESENTATION(' ',(#29),#16) ;
#353=MECHANICAL_DESIGN_GEOMETRIC_PRESENTATION_REPRESENTATION(' ',(#349),#16) ;
#19=SHAPE_REPRESENTATION(' ',(#18),#16) ;
#18=AXIS2_PLACEMENT_3D(' ',#17,$,$) ;
#34=AXIS2_PLACEMENT_3D('Plane Axis2P3D',#31,#32,#33) ;
#74=AXIS2_PLACEMENT_3D('Plane Axis2P3D',#71,#72,#73) ;
#145=AXIS2_PLACEMENT_3D('Plane Axis2P3D',#142,#143,#144) ;
#169=AXIS2_PLACEMENT_3D('Plane Axis2P3D',#166,#167,#168) ;
#233=AXIS2_PLACEMENT_3D('Plane Axis2P3D',#230,#231,#232) ;
#250=AXIS2_PLACEMENT_3D('Plane Axis2P3D',#247,#248,#249) ;
#267=AXIS2_PLACEMENT_3D('Plane Axis2P3D',#264,#265,#266) ;
#284=AXIS2_PLACEMENT_3D('Plane Axis2P3D',#281,#282,#283) ;
#313=AXIS2_PLACEMENT_3D('Plane Axis2P3D',#310,#311,#312) ;
#330=AXIS2_PLACEMENT_3D('Plane Axis2P3D',#327,#328,#329) ;
#344=AXIS2_PLACEMENT_3D('Axis System.1',#341,#342,#343) ;
#17=CARTESIAN_POINT(' ',(0.,0.,0.)) ;
#31=CARTESIAN_POINT('Axis2P3D Location',(8.5,-12.5,-7.08156103311E-016)) ;
#36=CARTESIAN_POINT('Line Origine',(8.5,-6.25,2.)) ;
#40=CARTESIAN_POINT('Vertex',(8.5,0.,2.)) ;
#42=CARTESIAN_POINT('Vertex',(8.5,-12.5,2.)) ;
#45=CARTESIAN_POINT('Line Origine',(8.5,-12.5,1.)) ;
#49=CARTESIAN_POINT('Vertex',(8.5,-12.5,-7.08156103311E-016)) ;
#52=CARTESIAN_POINT('Line Origine',(8.5,-6.25,-7.08156103311E-016)) ;
#56=CARTESIAN_POINT('Vertex',(8.5,0.,-7.08156103311E-016)) ;
#59=CARTESIAN_POINT('Line Origine',(8.5,0.,1.)) ;
#71=CARTESIAN_POINT('Axis2P3D Location',(0.,0.,2.)) ;
#76=CARTESIAN_POINT('Line Origine',(24.25,0.,2.)) ;
#80=CARTESIAN_POINT('Vertex',(40.,0.,2.)) ;
#83=CARTESIAN_POINT('Line Origine',(40.,28.75,2.)) ;
#87=CARTESIAN_POINT('Vertex',(40.,57.5,2.)) ;
#90=CARTESIAN_POINT('Line Origine',(0.,57.5,2.)) ;
#94=CARTESIAN_POINT('Vertex',(-40.,57.5,2.)) ;
#97=CARTESIAN_POINT('Line Origine',(-40.,28.75,2.)) ;
#101=CARTESIAN_POINT('Vertex',(-40.,0.,2.)) ;
#104=CARTESIAN_POINT('Line Origine',(-30.6961524226,0.,2.)) ;
#108=CARTESIAN_POINT('Vertex',(-21.3923048454,0.,2.)) ;
#111=CARTESIAN_POINT('Line Origine',(-17.4461524226,-2.27831216343,2.)) ;
#115=CARTESIAN_POINT('Vertex',(-13.5,-4.55662432685,2.)) ;
#118=CARTESIAN_POINT('Line Origine',(-13.5,-8.52831216343,2.)) ;
#122=CARTESIAN_POINT('Vertex',(-13.5,-12.5,2.)) ;
#125=CARTESIAN_POINT('Line Origine',(-2.5,-12.5,2.)) ;
#142=CARTESIAN_POINT('Axis2P3D Location',(-13.5,-12.5,-7.08156103311E-016)) ;
#147=CARTESIAN_POINT('Line Origine',(-13.5,-12.5,1.)) ;
#151=CARTESIAN_POINT('Vertex',(-13.5,-12.5,-7.08156103311E-016)) ;
#154=CARTESIAN_POINT('Line Origine',(-2.5,-12.5,-7.08156103311E-016)) ;
#166=CARTESIAN_POINT('Axis2P3D Location',(0.,0.,-7.08156103311E-016)) ;
#171=CARTESIAN_POINT('Line Origine',(-13.5,-8.52831216343,-7.08156103311E-016)) ;
#175=CARTESIAN_POINT('Vertex',(-13.5,-4.55662432685,-7.08156103311E-016)) ;
#178=CARTESIAN_POINT('Line Origine',(-17.4461524226,-2.27831216343,-7.08156103311E-016)) ;
#182=CARTESIAN_POINT('Vertex',(-21.3923048454,0.,-7.08156103311E-016)) ;
#185=CARTESIAN_POINT('Line Origine',(-30.6961524226,0.,-7.08156103311E-016)) ;
#189=CARTESIAN_POINT('Vertex',(-40.,0.,-7.08156103311E-016)) ;
#192=CARTESIAN_POINT('Line Origine',(-40.,28.75,-7.08156103311E-016)) ;
#196=CARTESIAN_POINT('Vertex',(-40.,57.5,-7.08156103311E-016)) ;
#199=CARTESIAN_POINT('Line Origine',(0.,57.5,-7.08156103311E-016)) ;
#203=CARTESIAN_POINT('Vertex',(40.,57.5,-7.08156103311E-016)) ;
#206=CARTESIAN_POINT('Line Origine',(40.,28.75,-7.08156103311E-016)) ;
#210=CARTESIAN_POINT('Vertex',(40.,0.,-7.08156103311E-016)) ;
#213=CARTESIAN_POINT('Line Origine',(24.25,0.,-7.08156103311E-016)) ;
#230=CARTESIAN_POINT('Axis2P3D Location',(-40.,0.,-7.08156103311E-016)) ;
#235=CARTESIAN_POINT('Line Origine',(40.,0.,1.)) ;
#247=CARTESIAN_POINT('Axis2P3D Location',(40.,0.,-7.08156103311E-016)) ;
#252=CARTESIAN_POINT('Line Origine',(40.,57.5,1.)) ;
#264=CARTESIAN_POINT('Axis2P3D Location',(-40.,57.5,-7.08156103311E-016)) ;
#269=CARTESIAN_POINT('Line Origine',(-40.,57.5,1.)) ;
#281=CARTESIAN_POINT('Axis2P3D Location',(-40.,0.,-7.08156103311E-016)) ;
#286=CARTESIAN_POINT('Line Origine',(-40.,0.,1.)) ;
#298=CARTESIAN_POINT('Line Origine',(-21.3923048452,0.,1.)) ;
#310=CARTESIAN_POINT('Axis2P3D Location',(-21.3923048454,0.,-7.08156103311E-016)) ;
#315=CARTESIAN_POINT('Line Origine',(-13.5000000003,-4.55662432686,1.)) ;
#327=CARTESIAN_POINT('Axis2P3D Location',(-13.5,-12.5,-7.08156103311E-016)) ;
#341=CARTESIAN_POINT('Axis2P3D Location',(-40.,-12.5,0.)) ;
#32=DIRECTION('Axis2P3D Direction',(1.,0.,0.)) ;
#33=DIRECTION('Axis2P3D XDirection',(0.,1.,0.)) ;
#37=DIRECTION('Vector Direction',(0.,1.,0.)) ;
#46=DIRECTION('Vector Direction',(0.,0.,1.)) ;
#53=DIRECTION('Vector Direction',(0.,1.,0.)) ;
#60=DIRECTION('Vector Direction',(0.,0.,1.)) ;
#72=DIRECTION('Axis2P3D Direction',(0.,0.,-1.)) ;
#73=DIRECTION('Axis2P3D XDirection',(-1.,0.,0.)) ;
#77=DIRECTION('Vector Direction',(1.,0.,0.)) ;
#84=DIRECTION('Vector Direction',(0.,1.,0.)) ;
#91=DIRECTION('Vector Direction',(1.,0.,0.)) ;
#98=DIRECTION('Vector Direction',(0.,1.,0.)) ;
#105=DIRECTION('Vector Direction',(1.,0.,0.)) ;
#112=DIRECTION('Vector Direction',(0.866025403785,-0.499999999998,0.)) ;
#119=DIRECTION('Vector Direction',(0.,1.,0.)) ;
#126=DIRECTION('Vector Direction',(1.,0.,0.)) ;
#143=DIRECTION('Axis2P3D Direction',(0.,-1.,0.)) ;
#144=DIRECTION('Axis2P3D XDirection',(1.,0.,0.)) ;
#148=DIRECTION('Vector Direction',(0.,0.,1.)) ;
#155=DIRECTION('Vector Direction',(1.,0.,0.)) ;
#167=DIRECTION('Axis2P3D Direction',(0.,0.,-1.)) ;
#168=DIRECTION('Axis2P3D XDirection',(-1.,0.,0.)) ;
#172=DIRECTION('Vector Direction',(0.,1.,0.)) ;
#179=DIRECTION('Vector Direction',(0.866025403785,-0.499999999998,0.)) ;
#186=DIRECTION('Vector Direction',(1.,0.,0.)) ;
#193=DIRECTION('Vector Direction',(0.,1.,0.)) ;
#200=DIRECTION('Vector Direction',(1.,0.,0.)) ;
#207=DIRECTION('Vector Direction',(0.,1.,0.)) ;
#214=DIRECTION('Vector Direction',(1.,0.,0.)) ;
#231=DIRECTION('Axis2P3D Direction',(0.,-1.,0.)) ;
#232=DIRECTION('Axis2P3D XDirection',(1.,0.,0.)) ;
#236=DIRECTION('Vector Direction',(0.,0.,1.)) ;
#248=DIRECTION('Axis2P3D Direction',(1.,0.,0.)) ;
#249=DIRECTION('Axis2P3D XDirection',(0.,1.,0.)) ;
#253=DIRECTION('Vector Direction',(0.,0.,1.)) ;
#265=DIRECTION('Axis2P3D Direction',(0.,-1.,0.)) ;
#266=DIRECTION('Axis2P3D XDirection',(1.,0.,0.)) ;
#270=DIRECTION('Vector Direction',(0.,0.,1.)) ;
#282=DIRECTION('Axis2P3D Direction',(1.,0.,0.)) ;
#283=DIRECTION('Axis2P3D XDirection',(0.,1.,0.)) ;
#287=DIRECTION('Vector Direction',(0.,0.,1.)) ;
#299=DIRECTION('Vector Direction',(0.,0.,1.)) ;
#311=DIRECTION('Axis2P3D Direction',(-0.5,-0.866025403784,0.)) ;
#312=DIRECTION('Axis2P3D XDirection',(0.866025403784,-0.5,0.)) ;
#316=DIRECTION('Vector Direction',(0.,0.,1.)) ;
#328=DIRECTION('Axis2P3D Direction',(1.,0.,0.)) ;
#329=DIRECTION('Axis2P3D XDirection',(0.,1.,0.)) ;
#342=DIRECTION('Axis2P3D Direction',(0.,0.,1.)) ;
#343=DIRECTION('Axis2P3D XDirection',(1.,0.,0.)) ;
#8=PRODUCT_RELATED_PRODUCT_CATEGORY('part',$,(#5)) ;
#7=PRODUCT_CATEGORY('part','specification') ;
#29=STYLED_ITEM(' ',(#28),#21) ;
#349=STYLED_ITEM(' ',(#348),#344) ;
#28=PRESENTATION_STYLE_ASSIGNMENT((#27)) ;
#348=PRESENTATION_STYLE_ASSIGNMENT((#347)) ;
#347=CURVE_STYLE(' ',#345,POSITIVE_LENGTH_MEASURE(0.129999995232),#346) ;
#27=SURFACE_STYLE_USAGE(.BOTH.,#26) ;
#26=SURFACE_SIDE_STYLE(' ',(#25)) ;
#25=SURFACE_STYLE_FILL_AREA(#24) ;
#24=FILL_AREA_STYLE(' ',(#23)) ;
#23=FILL_AREA_STYLE_COLOUR(' ',#22) ;
#38=VECTOR('Line Direction',#37,1.) ;
#47=VECTOR('Line Direction',#46,1.) ;
#54=VECTOR('Line Direction',#53,1.) ;
#61=VECTOR('Line Direction',#60,1.) ;
#78=VECTOR('Line Direction',#77,1.) ;
#85=VECTOR('Line Direction',#84,1.) ;
#92=VECTOR('Line Direction',#91,1.) ;
#99=VECTOR('Line Direction',#98,1.) ;
#106=VECTOR('Line Direction',#105,1.) ;
#113=VECTOR('Line Direction',#112,1.) ;
#120=VECTOR('Line Direction',#119,1.) ;
#127=VECTOR('Line Direction',#126,1.) ;
#149=VECTOR('Line Direction',#148,1.) ;
#156=VECTOR('Line Direction',#155,1.) ;
#173=VECTOR('Line Direction',#172,1.) ;
#180=VECTOR('Line Direction',#179,1.) ;
#187=VECTOR('Line Direction',#186,1.) ;
#194=VECTOR('Line Direction',#193,1.) ;
#201=VECTOR('Line Direction',#200,1.) ;
#208=VECTOR('Line Direction',#207,1.) ;
#215=VECTOR('Line Direction',#214,1.) ;
#237=VECTOR('Line Direction',#236,1.) ;
#254=VECTOR('Line Direction',#253,1.) ;
#271=VECTOR('Line Direction',#270,1.) ;
#288=VECTOR('Line Direction',#287,1.) ;
#300=VECTOR('Line Direction',#299,1.) ;
#317=VECTOR('Line Direction',#316,1.) ;
#15=UNCERTAINTY_MEASURE_WITH_UNIT(LENGTH_MEASURE(0.005),#12,'distance_accuracy_value','CONFUSED CURVE UNCERTAINTY') ;
#340=SHAPE_REPRESENTATION_RELATIONSHIP(' ',' ',#19,#339) ;
#65=ORIENTED_EDGE('',*,*,#44,.T.) ;
#66=ORIENTED_EDGE('',*,*,#51,.F.) ;
#67=ORIENTED_EDGE('',*,*,#58,.F.) ;
#68=ORIENTED_EDGE('',*,*,#63,.T.) ;
#131=ORIENTED_EDGE('',*,*,#82,.F.) ;
#132=ORIENTED_EDGE('',*,*,#89,.F.) ;
#133=ORIENTED_EDGE('',*,*,#96,.F.) ;
#134=ORIENTED_EDGE('',*,*,#103,.F.) ;
#135=ORIENTED_EDGE('',*,*,#110,.F.) ;
#136=ORIENTED_EDGE('',*,*,#117,.F.) ;
#137=ORIENTED_EDGE('',*,*,#124,.F.) ;
#138=ORIENTED_EDGE('',*,*,#129,.F.) ;
#139=ORIENTED_EDGE('',*,*,#44,.F.) ;
#160=ORIENTED_EDGE('',*,*,#129,.T.) ;
#161=ORIENTED_EDGE('',*,*,#153,.F.) ;
#162=ORIENTED_EDGE('',*,*,#158,.F.) ;
#163=ORIENTED_EDGE('',*,*,#51,.T.) ;
#219=ORIENTED_EDGE('',*,*,#58,.T.) ;
#220=ORIENTED_EDGE('',*,*,#158,.T.) ;
#221=ORIENTED_EDGE('',*,*,#177,.T.) ;
#222=ORIENTED_EDGE('',*,*,#184,.T.) ;
#223=ORIENTED_EDGE('',*,*,#191,.T.) ;
#224=ORIENTED_EDGE('',*,*,#198,.T.) ;
#225=ORIENTED_EDGE('',*,*,#205,.T.) ;
#226=ORIENTED_EDGE('',*,*,#212,.T.) ;
#227=ORIENTED_EDGE('',*,*,#217,.T.) ;
#241=ORIENTED_EDGE('',*,*,#82,.T.) ;
#242=ORIENTED_EDGE('',*,*,#63,.F.) ;
#243=ORIENTED_EDGE('',*,*,#217,.F.) ;
#244=ORIENTED_EDGE('',*,*,#239,.T.) ;
#258=ORIENTED_EDGE('',*,*,#89,.T.) ;
#259=ORIENTED_EDGE('',*,*,#239,.F.) ;
#260=ORIENTED_EDGE('',*,*,#212,.F.) ;
#261=ORIENTED_EDGE('',*,*,#256,.T.) ;
#275=ORIENTED_EDGE('',*,*,#96,.T.) ;
#276=ORIENTED_EDGE('',*,*,#256,.F.) ;
#277=ORIENTED_EDGE('',*,*,#205,.F.) ;
#278=ORIENTED_EDGE('',*,*,#273,.T.) ;
#292=ORIENTED_EDGE('',*,*,#103,.T.) ;
#293=ORIENTED_EDGE('',*,*,#273,.F.) ;
#294=ORIENTED_EDGE('',*,*,#198,.F.) ;
#295=ORIENTED_EDGE('',*,*,#290,.T.) ;
#304=ORIENTED_EDGE('',*,*,#110,.T.) ;
#305=ORIENTED_EDGE('',*,*,#290,.F.) ;
#306=ORIENTED_EDGE('',*,*,#191,.F.) ;
#307=ORIENTED_EDGE('',*,*,#302,.T.) ;
#321=ORIENTED_EDGE('',*,*,#117,.T.) ;
#322=ORIENTED_EDGE('',*,*,#302,.F.) ;
#323=ORIENTED_EDGE('',*,*,#184,.F.) ;
#324=ORIENTED_EDGE('',*,*,#319,.T.) ;
#333=ORIENTED_EDGE('',*,*,#124,.T.) ;
#334=ORIENTED_EDGE('',*,*,#319,.F.) ;
#335=ORIENTED_EDGE('',*,*,#177,.F.) ;
#336=ORIENTED_EDGE('',*,*,#153,.T.) ;
#30=CLOSED_SHELL('Closed Shell',(#70,#141,#165,#229,#246,#263,#280,#297,#309,#326,#338)) ;
#339=ADVANCED_BREP_SHAPE_REPRESENTATION('NONE',(#21),#16) ;
#70=ADVANCED_FACE('Manifold Brep',(#69),#35,.T.) ;
#141=ADVANCED_FACE('Manifold Brep',(#140),#75,.F.) ;
#165=ADVANCED_FACE('Manifold Brep',(#164),#146,.T.) ;
#229=ADVANCED_FACE('Manifold Brep',(#228),#170,.T.) ;
#246=ADVANCED_FACE('Manifold Brep',(#245),#234,.T.) ;
#263=ADVANCED_FACE('Manifold Brep',(#262),#251,.T.) ;
#280=ADVANCED_FACE('Manifold Brep',(#279),#268,.F.) ;
#297=ADVANCED_FACE('Manifold Brep',(#296),#285,.F.) ;
#309=ADVANCED_FACE('Manifold Brep',(#308),#234,.T.) ;
#326=ADVANCED_FACE('Manifold Brep',(#325),#314,.T.) ;
#338=ADVANCED_FACE('Manifold Brep',(#337),#331,.F.) ;
#4=APPLICATION_PROTOCOL_DEFINITION('international standard','automotive_design',2001,#1) ;
#21=MANIFOLD_SOLID_BREP('Manifold Brep',#30) ;
#22=COLOUR_RGB('Colour',0.823529411765,0.823529411765,1.) ;
#350=CONSTRUCTIVE_GEOMETRY_REPRESENTATION('supplemental geometry',(#344),#16) ;
#351=CONSTRUCTIVE_GEOMETRY_REPRESENTATION_RELATIONSHIP('supplemental geometry','',#19,#350) ;
#346=DRAUGHTING_PRE_DEFINED_COLOUR('white') ;
#345=DRAUGHTING_PRE_DEFINED_CURVE_FONT('continuous') ;
#44=EDGE_CURVE('',#41,#43,#39,.F.) ;
#51=EDGE_CURVE('',#50,#43,#48,.T.) ;
#58=EDGE_CURVE('',#57,#50,#55,.F.) ;
#63=EDGE_CURVE('',#57,#41,#62,.T.) ;
#82=EDGE_CURVE('',#81,#41,#79,.F.) ;
#89=EDGE_CURVE('',#88,#81,#86,.F.) ;
#96=EDGE_CURVE('',#95,#88,#93,.T.) ;
#103=EDGE_CURVE('',#102,#95,#100,.T.) ;
#110=EDGE_CURVE('',#109,#102,#107,.F.) ;
#117=EDGE_CURVE('',#116,#109,#114,.F.) ;
#124=EDGE_CURVE('',#123,#116,#121,.T.) ;
#129=EDGE_CURVE('',#43,#123,#128,.F.) ;
#153=EDGE_CURVE('',#152,#123,#150,.T.) ;
#158=EDGE_CURVE('',#50,#152,#157,.F.) ;
#177=EDGE_CURVE('',#152,#176,#174,.T.) ;
#184=EDGE_CURVE('',#176,#183,#181,.F.) ;
#191=EDGE_CURVE('',#183,#190,#188,.F.) ;
#198=EDGE_CURVE('',#190,#197,#195,.T.) ;
#205=EDGE_CURVE('',#197,#204,#202,.T.) ;
#212=EDGE_CURVE('',#204,#211,#209,.F.) ;
#217=EDGE_CURVE('',#211,#57,#216,.F.) ;
#239=EDGE_CURVE('',#211,#81,#238,.T.) ;
#256=EDGE_CURVE('',#204,#88,#255,.T.) ;
#273=EDGE_CURVE('',#197,#95,#272,.T.) ;
#290=EDGE_CURVE('',#190,#102,#289,.T.) ;
#302=EDGE_CURVE('',#183,#109,#301,.T.) ;
#319=EDGE_CURVE('',#176,#116,#318,.T.) ;
#64=EDGE_LOOP('',(#65,#66,#67,#68)) ;
#130=EDGE_LOOP('',(#131,#132,#133,#134,#135,#136,#137,#138,#139)) ;
#159=EDGE_LOOP('',(#160,#161,#162,#163)) ;
#218=EDGE_LOOP('',(#219,#220,#221,#222,#223,#224,#225,#226,#227)) ;
#240=EDGE_LOOP('',(#241,#242,#243,#244)) ;
#257=EDGE_LOOP('',(#258,#259,#260,#261)) ;
#274=EDGE_LOOP('',(#275,#276,#277,#278)) ;
#291=EDGE_LOOP('',(#292,#293,#294,#295)) ;
#303=EDGE_LOOP('',(#304,#305,#306,#307)) ;
#320=EDGE_LOOP('',(#321,#322,#323,#324)) ;
#332=EDGE_LOOP('',(#333,#334,#335,#336)) ;
#69=FACE_OUTER_BOUND('',#64,.T.) ;
#140=FACE_OUTER_BOUND('',#130,.T.) ;
#164=FACE_OUTER_BOUND('',#159,.T.) ;
#228=FACE_OUTER_BOUND('',#218,.T.) ;
#245=FACE_OUTER_BOUND('',#240,.T.) ;
#262=FACE_OUTER_BOUND('',#257,.T.) ;
#279=FACE_OUTER_BOUND('',#274,.T.) ;
#296=FACE_OUTER_BOUND('',#291,.T.) ;
#308=FACE_OUTER_BOUND('',#303,.T.) ;
#325=FACE_OUTER_BOUND('',#320,.T.) ;
#337=FACE_OUTER_BOUND('',#332,.T.) ;
#39=LINE('Line',#36,#38) ;
#48=LINE('Line',#45,#47) ;
#55=LINE('Line',#52,#54) ;
#62=LINE('Line',#59,#61) ;
#79=LINE('Line',#76,#78) ;
#86=LINE('Line',#83,#85) ;
#93=LINE('Line',#90,#92) ;
#100=LINE('Line',#97,#99) ;
#107=LINE('Line',#104,#106) ;
#114=LINE('Line',#111,#113) ;
#121=LINE('Line',#118,#120) ;
#128=LINE('Line',#125,#127) ;
#150=LINE('Line',#147,#149) ;
#157=LINE('Line',#154,#156) ;
#174=LINE('Line',#171,#173) ;
#181=LINE('Line',#178,#180) ;
#188=LINE('Line',#185,#187) ;
#195=LINE('Line',#192,#194) ;
#202=LINE('Line',#199,#201) ;
#209=LINE('Line',#206,#208) ;
#216=LINE('Line',#213,#215) ;
#238=LINE('Line',#235,#237) ;
#255=LINE('Line',#252,#254) ;
#272=LINE('Line',#269,#271) ;
#289=LINE('Line',#286,#288) ;
#301=LINE('Line',#298,#300) ;
#318=LINE('Line',#315,#317) ;
#35=PLANE('',#34) ;
#75=PLANE('',#74) ;
#146=PLANE('',#145) ;
#170=PLANE('',#169) ;
#234=PLANE('',#233) ;
#251=PLANE('',#250) ;
#268=PLANE('',#267) ;
#285=PLANE('',#284) ;
#314=PLANE('',#313) ;
#331=PLANE('',#330) ;
#9=PRODUCT_CATEGORY_RELATIONSHIP(' ',' ',#7,#8) ;
#6=PRODUCT_DEFINITION_FORMATION_WITH_SPECIFIED_SOURCE('',' ',#5,.NOT_KNOWN.) ;
#20=SHAPE_DEFINITION_REPRESENTATION(#11,#19) ;
#41=VERTEX_POINT('',#40) ;
#43=VERTEX_POINT('',#42) ;
#50=VERTEX_POINT('',#49) ;
#57=VERTEX_POINT('',#56) ;
#81=VERTEX_POINT('',#80) ;
#88=VERTEX_POINT('',#87) ;
#95=VERTEX_POINT('',#94) ;
#102=VERTEX_POINT('',#101) ;
#109=VERTEX_POINT('',#108) ;
#116=VERTEX_POINT('',#115) ;
#123=VERTEX_POINT('',#122) ;
#152=VERTEX_POINT('',#151) ;
#176=VERTEX_POINT('',#175) ;
#183=VERTEX_POINT('',#182) ;
#190=VERTEX_POINT('',#189) ;
#197=VERTEX_POINT('',#196) ;
#204=VERTEX_POINT('',#203) ;
#211=VERTEX_POINT('',#210) ;
#12=(LENGTH_UNIT()NAMED_UNIT(*)SI_UNIT(.MILLI.,.METRE.)) ;
#13=(NAMED_UNIT(*)PLANE_ANGLE_UNIT()SI_UNIT($,.RADIAN.)) ;
#14=(NAMED_UNIT(*)SI_UNIT($,.STERADIAN.)SOLID_ANGLE_UNIT()) ;
#16=(GEOMETRIC_REPRESENTATION_CONTEXT(3)GLOBAL_UNCERTAINTY_ASSIGNED_CONTEXT((#15))GLOBAL_UNIT_ASSIGNED_CONTEXT((#12,#13,#14))REPRESENTATION_CONTEXT(' ',' ')) ;
ENDSEC;
END-ISO-10303-21;
