ISO-10303-21;
HEADER;
FILE_DESCRIPTION(('CATIA V5 STEP Exchange','CAx-IF Rec.Pracs.--- Model Styling and Organization---1.4--- 2014-01-23'),'2;1');

FILE_NAME ('123330-2_0', '2023-01-31T12:47:41+00:00', ('none'), ('Weidmueller'), 'CATIA Version 5-6 Release 2016 SP3 HF44', 'CATIA V5 STEP AP214', 'none');

FILE_SCHEMA(('AUTOMOTIVE_DESIGN { 1 0 10303 214 1 1 1 1 }'));

ENDSEC;
DATA;
#5=PRODUCT('64048_WS_12X9-5_11','','VERBINDERMARKIERER',(#2)) ;
#2=PRODUCT_CONTEXT(' ',#1,'mechanical') ;
#1=APPLICATION_CONTEXT('automotive design') ;
#10=PRODUCT_DEFINITION('',' ',#6,#3) ;
#3=PRODUCT_DEFINITION_CONTEXT('part definition',#1,' ') ;
#11=PRODUCT_DEFINITION_SHAPE(' ',' ',#10) ;
#450=MECHANICAL_DESIGN_GEOMETRIC_PRESENTATION_REPRESENTATION(' ',(#29),#16) ;
#19=SHAPE_REPRESENTATION(' ',(#18),#16) ;
#18=AXIS2_PLACEMENT_3D(' ',#17,$,$) ;
#34=AXIS2_PLACEMENT_3D('Plane Axis2P3D',#31,#32,#33) ;
#74=AXIS2_PLACEMENT_3D('Plane Axis2P3D',#71,#72,#73) ;
#105=AXIS2_PLACEMENT_3D('Plane Axis2P3D',#102,#103,#104) ;
#129=AXIS2_PLACEMENT_3D('Plane Axis2P3D',#126,#127,#128) ;
#153=AXIS2_PLACEMENT_3D('Plane Axis2P3D',#150,#151,#152) ;
#170=AXIS2_PLACEMENT_3D('Plane Axis2P3D',#167,#168,#169) ;
#274=AXIS2_PLACEMENT_3D('Plane Axis2P3D',#271,#272,#273) ;
#291=AXIS2_PLACEMENT_3D('Plane Axis2P3D',#288,#289,#290) ;
#343=AXIS2_PLACEMENT_3D('Plane Axis2P3D',#340,#341,#342) ;
#374=AXIS2_PLACEMENT_3D('Plane Axis2P3D',#371,#372,#373) ;
#405=AXIS2_PLACEMENT_3D('Plane Axis2P3D',#402,#403,#404) ;
#427=AXIS2_PLACEMENT_3D('Plane Axis2P3D',#424,#425,#426) ;
#439=AXIS2_PLACEMENT_3D('Plane Axis2P3D',#436,#437,#438) ;
#17=CARTESIAN_POINT(' ',(0.,0.,0.)) ;
#31=CARTESIAN_POINT('Axis2P3D Location',(4.75,4.42106611995,8.31981594729E-010)) ;
#36=CARTESIAN_POINT('Line Origine',(4.75,4.42106611995,8.31981594729E-010)) ;
#40=CARTESIAN_POINT('Vertex',(2.825,4.42106611995,8.31981594729E-010)) ;
#42=CARTESIAN_POINT('Vertex',(6.675,4.42106611995,8.31981594729E-010)) ;
#45=CARTESIAN_POINT('Line Origine',(2.825,4.63035368592,0.781071830416)) ;
#49=CARTESIAN_POINT('Vertex',(2.825,4.83964125188,1.56214366)) ;
#52=CARTESIAN_POINT('Line Origine',(4.75,4.83964125188,1.56214366)) ;
#56=CARTESIAN_POINT('Vertex',(6.675,4.83964125188,1.56214366)) ;
#59=CARTESIAN_POINT('Line Origine',(6.675,4.63035368592,0.781071830416)) ;
#71=CARTESIAN_POINT('Axis2P3D Location',(4.75,4.,8.31981594729E-010)) ;
#76=CARTESIAN_POINT('Line Origine',(4.75,4.,8.31981594729E-010)) ;
#80=CARTESIAN_POINT('Vertex',(2.825,4.,8.31982038818E-010)) ;
#82=CARTESIAN_POINT('Vertex',(6.675,4.,8.31982038818E-010)) ;
#85=CARTESIAN_POINT('Line Origine',(2.825,4.21053305997,8.31981476857E-010)) ;
#90=CARTESIAN_POINT('Line Origine',(6.675,4.21053305997,8.31981712601E-010)) ;
#102=CARTESIAN_POINT('Axis2P3D Location',(2.825,6.,2.36214366)) ;
#107=CARTESIAN_POINT('Line Origine',(2.825,4.,0.781071830416)) ;
#111=CARTESIAN_POINT('Vertex',(2.825,4.,1.56214366)) ;
#114=CARTESIAN_POINT('Line Origine',(2.825,4.41982062594,1.56214366)) ;
#126=CARTESIAN_POINT('Axis2P3D Location',(6.675,6.,2.36214366)) ;
#131=CARTESIAN_POINT('Line Origine',(6.675,4.41982062594,1.56214366)) ;
#135=CARTESIAN_POINT('Vertex',(6.675,4.,1.56214366)) ;
#138=CARTESIAN_POINT('Line Origine',(6.675,4.,0.781071830416)) ;
#150=CARTESIAN_POINT('Axis2P3D Location',(4.75,4.,1.56214366)) ;
#155=CARTESIAN_POINT('Line Origine',(4.75,4.,1.56214366)) ;
#167=CARTESIAN_POINT('Axis2P3D Location',(4.75,7.57893388005,8.31981594729E-010)) ;
#172=CARTESIAN_POINT('Line Origine',(6.675,7.36964631408,0.781071830416)) ;
#176=CARTESIAN_POINT('Vertex',(6.675,7.57893388005,8.31981594729E-010)) ;
#178=CARTESIAN_POINT('Vertex',(6.675,7.16035874812,1.56214366)) ;
#181=CARTESIAN_POINT('Line Origine',(4.75,7.16035874812,1.56214366)) ;
#185=CARTESIAN_POINT('Vertex',(2.825,7.16035874812,1.56214366)) ;
#188=CARTESIAN_POINT('Line Origine',(2.825,7.36964631408,0.781071830416)) ;
#192=CARTESIAN_POINT('Vertex',(2.825,7.57893388005,8.31981594729E-010)) ;
#195=CARTESIAN_POINT('Line Origine',(4.75,7.57893388005,8.31981594729E-010)) ;
#207=CARTESIAN_POINT('Line Origine',(6.675,7.78946694003,8.31981712601E-010)) ;
#211=CARTESIAN_POINT('Vertex',(6.675,8.,8.31982038818E-010)) ;
#214=CARTESIAN_POINT('Line Origine',(2.825,7.78946694003,8.31981476857E-010)) ;
#218=CARTESIAN_POINT('Vertex',(2.825,8.,8.31982038818E-010)) ;
#221=CARTESIAN_POINT('Line Origine',(4.75,8.,8.31981594729E-010)) ;
#233=CARTESIAN_POINT('Line Origine',(2.825,7.58017937406,1.56214366)) ;
#237=CARTESIAN_POINT('Vertex',(2.825,8.,1.56214366)) ;
#240=CARTESIAN_POINT('Line Origine',(2.825,8.,0.781071830416)) ;
#252=CARTESIAN_POINT('Line Origine',(6.675,8.,0.781071830416)) ;
#256=CARTESIAN_POINT('Vertex',(6.675,8.,1.56214366)) ;
#259=CARTESIAN_POINT('Line Origine',(6.675,7.58017937406,1.56214366)) ;
#271=CARTESIAN_POINT('Axis2P3D Location',(4.75,8.,1.56214366)) ;
#276=CARTESIAN_POINT('Line Origine',(4.75,8.,1.56214366)) ;
#288=CARTESIAN_POINT('Axis2P3D Location',(4.75,0.,1.56214366)) ;
#293=CARTESIAN_POINT('Line Origine',(9.5,6.,1.56214366)) ;
#297=CARTESIAN_POINT('Vertex',(9.5,12.,1.56214366)) ;
#299=CARTESIAN_POINT('Vertex',(9.5,-2.99951956532E-033,1.56214366)) ;
#302=CARTESIAN_POINT('Line Origine',(4.75,0.,1.56214366)) ;
#306=CARTESIAN_POINT('Vertex',(-3.18408167778E-016,-2.99951956532E-033,1.56214366)) ;
#309=CARTESIAN_POINT('Line Origine',(4.4408920985E-016,6.,1.56214366)) ;
#313=CARTESIAN_POINT('Vertex',(4.1637991171E-016,12.,1.56214366)) ;
#316=CARTESIAN_POINT('Line Origine',(4.75,12.,1.56214366)) ;
#340=CARTESIAN_POINT('Axis2P3D Location',(9.5,6.,2.36214366)) ;
#345=CARTESIAN_POINT('Line Origine',(9.5,-1.49975978266E-033,1.96214366)) ;
#349=CARTESIAN_POINT('Vertex',(9.5,0.,2.36214366)) ;
#352=CARTESIAN_POINT('Line Origine',(9.5,12.,1.96214366)) ;
#356=CARTESIAN_POINT('Vertex',(9.5,12.,2.36214366)) ;
#359=CARTESIAN_POINT('Line Origine',(9.5,6.,2.36214366)) ;
#371=CARTESIAN_POINT('Axis2P3D Location',(0.,6.,2.36214366)) ;
#376=CARTESIAN_POINT('Line Origine',(0.,6.,2.36214366)) ;
#380=CARTESIAN_POINT('Vertex',(-3.67394039744E-016,0.,2.36214366)) ;
#382=CARTESIAN_POINT('Vertex',(3.67394039744E-016,12.,2.36214366)) ;
#385=CARTESIAN_POINT('Line Origine',(3.91886975727E-016,12.,1.96214366)) ;
#390=CARTESIAN_POINT('Line Origine',(-3.42901103761E-016,-1.49975978266E-033,1.96214366)) ;
#402=CARTESIAN_POINT('Axis2P3D Location',(4.75,0.,2.36214366)) ;
#407=CARTESIAN_POINT('Line Origine',(4.75,12.,2.36214366)) ;
#412=CARTESIAN_POINT('Line Origine',(4.75,0.,2.36214366)) ;
#424=CARTESIAN_POINT('Axis2P3D Location',(4.75,12.,1.56214366)) ;
#436=CARTESIAN_POINT('Axis2P3D Location',(4.75,0.,2.36214366)) ;
#32=DIRECTION('Axis2P3D Direction',(7.49939943261E-017,0.965925826289,-0.258819045103)) ;
#33=DIRECTION('Axis2P3D XDirection',(-4.32978028118E-017,0.258819045103,0.965925826289)) ;
#37=DIRECTION('Vector Direction',(1.,0.,6.12323399436E-017)) ;
#46=DIRECTION('Vector Direction',(0.,0.258819045103,0.965925826289)) ;
#53=DIRECTION('Vector Direction',(1.,0.,1.15347846714E-016)) ;
#60=DIRECTION('Vector Direction',(0.,0.258819045103,0.965925826289)) ;
#72=DIRECTION('Axis2P3D Direction',(6.12323399574E-017,-3.74939945665E-033,-1.)) ;
#73=DIRECTION('Axis2P3D XDirection',(6.12323399574E-017,1.,0.)) ;
#77=DIRECTION('Vector Direction',(1.,0.,6.12323399436E-017)) ;
#86=DIRECTION('Vector Direction',(0.,1.,0.)) ;
#91=DIRECTION('Vector Direction',(0.,1.,0.)) ;
#103=DIRECTION('Axis2P3D Direction',(1.,-6.12323399574E-017,6.12323399574E-017)) ;
#104=DIRECTION('Axis2P3D XDirection',(6.12323399574E-017,1.,0.)) ;
#108=DIRECTION('Vector Direction',(0.,0.,-1.)) ;
#115=DIRECTION('Vector Direction',(0.,-1.,0.)) ;
#127=DIRECTION('Axis2P3D Direction',(1.,-6.12323399574E-017,6.12323399574E-017)) ;
#128=DIRECTION('Axis2P3D XDirection',(6.12323399574E-017,1.,0.)) ;
#132=DIRECTION('Vector Direction',(0.,-1.,0.)) ;
#139=DIRECTION('Vector Direction',(0.,0.,-1.)) ;
#151=DIRECTION('Axis2P3D Direction',(-6.12323399574E-017,-1.,0.)) ;
#152=DIRECTION('Axis2P3D XDirection',(6.12323399574E-017,-3.74939945665E-033,-1.)) ;
#156=DIRECTION('Vector Direction',(1.,0.,1.15347846714E-016)) ;
#168=DIRECTION('Axis2P3D Direction',(4.32978028118E-017,0.965925826289,0.258819045103)) ;
#169=DIRECTION('Axis2P3D XDirection',(-7.49939943261E-017,-0.258819045103,0.965925826289)) ;
#173=DIRECTION('Vector Direction',(0.,-0.258819045103,0.965925826289)) ;
#182=DIRECTION('Vector Direction',(1.,0.,1.15347846714E-016)) ;
#189=DIRECTION('Vector Direction',(0.,-0.258819045103,0.965925826289)) ;
#196=DIRECTION('Vector Direction',(1.,0.,6.12323399436E-017)) ;
#208=DIRECTION('Vector Direction',(0.,-1.,0.)) ;
#215=DIRECTION('Vector Direction',(0.,-1.,0.)) ;
#222=DIRECTION('Vector Direction',(1.,0.,6.12323399436E-017)) ;
#234=DIRECTION('Vector Direction',(0.,1.,0.)) ;
#241=DIRECTION('Vector Direction',(0.,0.,-1.)) ;
#253=DIRECTION('Vector Direction',(0.,0.,-1.)) ;
#260=DIRECTION('Vector Direction',(0.,1.,0.)) ;
#272=DIRECTION('Axis2P3D Direction',(-6.12323399574E-017,-1.,0.)) ;
#273=DIRECTION('Axis2P3D XDirection',(6.12323399574E-017,-3.74939945665E-033,-1.)) ;
#277=DIRECTION('Vector Direction',(1.,0.,1.15347846714E-016)) ;
#289=DIRECTION('Axis2P3D Direction',(6.12323399574E-017,-3.74939945665E-033,-1.)) ;
#290=DIRECTION('Axis2P3D XDirection',(6.12323399574E-017,1.,0.)) ;
#294=DIRECTION('Vector Direction',(0.,1.,0.)) ;
#303=DIRECTION('Vector Direction',(1.,-6.12323399574E-017,4.67462326158E-017)) ;
#310=DIRECTION('Vector Direction',(7.40148683083E-017,1.,0.)) ;
#317=DIRECTION('Vector Direction',(1.,0.,4.67462326158E-017)) ;
#341=DIRECTION('Axis2P3D Direction',(1.,-6.12323399574E-017,6.12323399574E-017)) ;
#342=DIRECTION('Axis2P3D XDirection',(6.12323399574E-017,1.,0.)) ;
#346=DIRECTION('Vector Direction',(0.,-3.74939945665E-033,-1.)) ;
#353=DIRECTION('Vector Direction',(0.,0.,1.)) ;
#360=DIRECTION('Vector Direction',(0.,1.,0.)) ;
#372=DIRECTION('Axis2P3D Direction',(1.,-6.12323399574E-017,6.12323399574E-017)) ;
#373=DIRECTION('Axis2P3D XDirection',(6.12323399574E-017,1.,0.)) ;
#377=DIRECTION('Vector Direction',(6.12323399574E-017,1.,0.)) ;
#386=DIRECTION('Vector Direction',(-6.12323399574E-017,0.,1.)) ;
#391=DIRECTION('Vector Direction',(6.12323399574E-017,-3.74939945665E-033,-1.)) ;
#403=DIRECTION('Axis2P3D Direction',(6.12323399574E-017,-3.74939945665E-033,-1.)) ;
#404=DIRECTION('Axis2P3D XDirection',(6.12323399574E-017,1.,0.)) ;
#408=DIRECTION('Vector Direction',(1.,0.,9.34924652316E-017)) ;
#413=DIRECTION('Vector Direction',(1.,-6.12323399574E-017,9.34924652316E-017)) ;
#425=DIRECTION('Axis2P3D Direction',(6.12323399574E-017,1.,0.)) ;
#426=DIRECTION('Axis2P3D XDirection',(-6.12323399574E-017,3.74939945665E-033,1.)) ;
#437=DIRECTION('Axis2P3D Direction',(-6.12323399574E-017,-1.,0.)) ;
#438=DIRECTION('Axis2P3D XDirection',(6.12323399574E-017,-3.74939945665E-033,-1.)) ;
#8=PRODUCT_RELATED_PRODUCT_CATEGORY('part',$,(#5)) ;
#7=PRODUCT_CATEGORY('part','specification') ;
#29=STYLED_ITEM(' ',(#28),#21) ;
#28=PRESENTATION_STYLE_ASSIGNMENT((#27)) ;
#27=SURFACE_STYLE_USAGE(.BOTH.,#26) ;
#26=SURFACE_SIDE_STYLE(' ',(#25)) ;
#25=SURFACE_STYLE_FILL_AREA(#24) ;
#24=FILL_AREA_STYLE(' ',(#23)) ;
#23=FILL_AREA_STYLE_COLOUR(' ',#22) ;
#38=VECTOR('Line Direction',#37,1.) ;
#47=VECTOR('Line Direction',#46,1.) ;
#54=VECTOR('Line Direction',#53,1.) ;
#61=VECTOR('Line Direction',#60,1.) ;
#78=VECTOR('Line Direction',#77,1.) ;
#87=VECTOR('Line Direction',#86,1.) ;
#92=VECTOR('Line Direction',#91,1.) ;
#109=VECTOR('Line Direction',#108,1.) ;
#116=VECTOR('Line Direction',#115,1.) ;
#133=VECTOR('Line Direction',#132,1.) ;
#140=VECTOR('Line Direction',#139,1.) ;
#157=VECTOR('Line Direction',#156,1.) ;
#174=VECTOR('Line Direction',#173,1.) ;
#183=VECTOR('Line Direction',#182,1.) ;
#190=VECTOR('Line Direction',#189,1.) ;
#197=VECTOR('Line Direction',#196,1.) ;
#209=VECTOR('Line Direction',#208,1.) ;
#216=VECTOR('Line Direction',#215,1.) ;
#223=VECTOR('Line Direction',#222,1.) ;
#235=VECTOR('Line Direction',#234,1.) ;
#242=VECTOR('Line Direction',#241,1.) ;
#254=VECTOR('Line Direction',#253,1.) ;
#261=VECTOR('Line Direction',#260,1.) ;
#278=VECTOR('Line Direction',#277,1.) ;
#295=VECTOR('Line Direction',#294,1.) ;
#304=VECTOR('Line Direction',#303,1.) ;
#311=VECTOR('Line Direction',#310,1.) ;
#318=VECTOR('Line Direction',#317,1.) ;
#347=VECTOR('Line Direction',#346,1.) ;
#354=VECTOR('Line Direction',#353,1.) ;
#361=VECTOR('Line Direction',#360,1.) ;
#378=VECTOR('Line Direction',#377,1.) ;
#387=VECTOR('Line Direction',#386,1.) ;
#392=VECTOR('Line Direction',#391,1.) ;
#409=VECTOR('Line Direction',#408,1.) ;
#414=VECTOR('Line Direction',#413,1.) ;
#15=UNCERTAINTY_MEASURE_WITH_UNIT(LENGTH_MEASURE(0.005),#12,'distance_accuracy_value','CONFUSED CURVE UNCERTAINTY') ;
#449=SHAPE_REPRESENTATION_RELATIONSHIP(' ',' ',#19,#448) ;
#65=ORIENTED_EDGE('',*,*,#44,.F.) ;
#66=ORIENTED_EDGE('',*,*,#51,.T.) ;
#67=ORIENTED_EDGE('',*,*,#58,.T.) ;
#68=ORIENTED_EDGE('',*,*,#63,.F.) ;
#96=ORIENTED_EDGE('',*,*,#84,.F.) ;
#97=ORIENTED_EDGE('',*,*,#89,.T.) ;
#98=ORIENTED_EDGE('',*,*,#44,.T.) ;
#99=ORIENTED_EDGE('',*,*,#94,.F.) ;
#120=ORIENTED_EDGE('',*,*,#89,.F.) ;
#121=ORIENTED_EDGE('',*,*,#113,.F.) ;
#122=ORIENTED_EDGE('',*,*,#118,.F.) ;
#123=ORIENTED_EDGE('',*,*,#51,.F.) ;
#144=ORIENTED_EDGE('',*,*,#63,.T.) ;
#145=ORIENTED_EDGE('',*,*,#137,.T.) ;
#146=ORIENTED_EDGE('',*,*,#142,.T.) ;
#147=ORIENTED_EDGE('',*,*,#94,.T.) ;
#161=ORIENTED_EDGE('',*,*,#159,.F.) ;
#162=ORIENTED_EDGE('',*,*,#113,.T.) ;
#163=ORIENTED_EDGE('',*,*,#84,.T.) ;
#164=ORIENTED_EDGE('',*,*,#142,.F.) ;
#201=ORIENTED_EDGE('',*,*,#180,.T.) ;
#202=ORIENTED_EDGE('',*,*,#187,.F.) ;
#203=ORIENTED_EDGE('',*,*,#194,.F.) ;
#204=ORIENTED_EDGE('',*,*,#199,.T.) ;
#227=ORIENTED_EDGE('',*,*,#213,.T.) ;
#228=ORIENTED_EDGE('',*,*,#199,.F.) ;
#229=ORIENTED_EDGE('',*,*,#220,.F.) ;
#230=ORIENTED_EDGE('',*,*,#225,.T.) ;
#246=ORIENTED_EDGE('',*,*,#239,.T.) ;
#247=ORIENTED_EDGE('',*,*,#244,.T.) ;
#248=ORIENTED_EDGE('',*,*,#220,.T.) ;
#249=ORIENTED_EDGE('',*,*,#194,.T.) ;
#265=ORIENTED_EDGE('',*,*,#180,.F.) ;
#266=ORIENTED_EDGE('',*,*,#213,.F.) ;
#267=ORIENTED_EDGE('',*,*,#258,.F.) ;
#268=ORIENTED_EDGE('',*,*,#263,.F.) ;
#282=ORIENTED_EDGE('',*,*,#258,.T.) ;
#283=ORIENTED_EDGE('',*,*,#225,.F.) ;
#284=ORIENTED_EDGE('',*,*,#244,.F.) ;
#285=ORIENTED_EDGE('',*,*,#280,.T.) ;
#322=ORIENTED_EDGE('',*,*,#301,.T.) ;
#323=ORIENTED_EDGE('',*,*,#308,.F.) ;
#324=ORIENTED_EDGE('',*,*,#315,.F.) ;
#325=ORIENTED_EDGE('',*,*,#320,.T.) ;
#328=ORIENTED_EDGE('',*,*,#137,.F.) ;
#329=ORIENTED_EDGE('',*,*,#58,.F.) ;
#330=ORIENTED_EDGE('',*,*,#118,.T.) ;
#331=ORIENTED_EDGE('',*,*,#159,.T.) ;
#334=ORIENTED_EDGE('',*,*,#280,.F.) ;
#335=ORIENTED_EDGE('',*,*,#239,.F.) ;
#336=ORIENTED_EDGE('',*,*,#187,.T.) ;
#337=ORIENTED_EDGE('',*,*,#263,.T.) ;
#365=ORIENTED_EDGE('',*,*,#351,.F.) ;
#366=ORIENTED_EDGE('',*,*,#301,.F.) ;
#367=ORIENTED_EDGE('',*,*,#358,.F.) ;
#368=ORIENTED_EDGE('',*,*,#363,.F.) ;
#396=ORIENTED_EDGE('',*,*,#384,.T.) ;
#397=ORIENTED_EDGE('',*,*,#389,.T.) ;
#398=ORIENTED_EDGE('',*,*,#315,.T.) ;
#399=ORIENTED_EDGE('',*,*,#394,.T.) ;
#418=ORIENTED_EDGE('',*,*,#363,.T.) ;
#419=ORIENTED_EDGE('',*,*,#411,.F.) ;
#420=ORIENTED_EDGE('',*,*,#384,.F.) ;
#421=ORIENTED_EDGE('',*,*,#416,.T.) ;
#430=ORIENTED_EDGE('',*,*,#358,.T.) ;
#431=ORIENTED_EDGE('',*,*,#320,.F.) ;
#432=ORIENTED_EDGE('',*,*,#389,.F.) ;
#433=ORIENTED_EDGE('',*,*,#411,.T.) ;
#442=ORIENTED_EDGE('',*,*,#351,.T.) ;
#443=ORIENTED_EDGE('',*,*,#416,.F.) ;
#444=ORIENTED_EDGE('',*,*,#394,.F.) ;
#445=ORIENTED_EDGE('',*,*,#308,.T.) ;
#332=FACE_BOUND('',#327,.T.) ;
#338=FACE_BOUND('',#333,.T.) ;
#30=CLOSED_SHELL('Closed Shell',(#70,#101,#125,#149,#166,#206,#232,#251,#270,#287,#339,#370,#401,#423,#435,#447)) ;
#448=ADVANCED_BREP_SHAPE_REPRESENTATION('NONE',(#21),#16) ;
#70=ADVANCED_FACE('S3D gedreht',(#69),#35,.T.) ;
#101=ADVANCED_FACE('S3D gedreht',(#100),#75,.T.) ;
#125=ADVANCED_FACE('S3D gedreht',(#124),#106,.F.) ;
#149=ADVANCED_FACE('S3D gedreht',(#148),#130,.T.) ;
#166=ADVANCED_FACE('S3D gedreht',(#165),#154,.T.) ;
#206=ADVANCED_FACE('S3D gedreht',(#205),#171,.F.) ;
#232=ADVANCED_FACE('S3D gedreht',(#231),#75,.T.) ;
#251=ADVANCED_FACE('S3D gedreht',(#250),#106,.F.) ;
#270=ADVANCED_FACE('S3D gedreht',(#269),#130,.T.) ;
#287=ADVANCED_FACE('S3D gedreht',(#286),#275,.F.) ;
#339=ADVANCED_FACE('S3D gedreht',(#326,#332,#338),#292,.T.) ;
#370=ADVANCED_FACE('S3D gedreht',(#369),#344,.T.) ;
#401=ADVANCED_FACE('S3D gedreht',(#400),#375,.F.) ;
#423=ADVANCED_FACE('S3D gedreht',(#422),#406,.F.) ;
#435=ADVANCED_FACE('S3D gedreht',(#434),#428,.T.) ;
#447=ADVANCED_FACE('S3D gedreht',(#446),#440,.T.) ;
#4=APPLICATION_PROTOCOL_DEFINITION('international standard','automotive_design',2001,#1) ;
#21=MANIFOLD_SOLID_BREP('S3D gedreht',#30) ;
#22=DRAUGHTING_PRE_DEFINED_COLOUR('white') ;
#44=EDGE_CURVE('',#41,#43,#39,.T.) ;
#51=EDGE_CURVE('',#41,#50,#48,.T.) ;
#58=EDGE_CURVE('',#50,#57,#55,.T.) ;
#63=EDGE_CURVE('',#43,#57,#62,.T.) ;
#84=EDGE_CURVE('',#81,#83,#79,.T.) ;
#89=EDGE_CURVE('',#81,#41,#88,.T.) ;
#94=EDGE_CURVE('',#83,#43,#93,.T.) ;
#113=EDGE_CURVE('',#112,#81,#110,.T.) ;
#118=EDGE_CURVE('',#50,#112,#117,.T.) ;
#137=EDGE_CURVE('',#57,#136,#134,.T.) ;
#142=EDGE_CURVE('',#136,#83,#141,.T.) ;
#159=EDGE_CURVE('',#112,#136,#158,.T.) ;
#180=EDGE_CURVE('',#177,#179,#175,.T.) ;
#187=EDGE_CURVE('',#186,#179,#184,.T.) ;
#194=EDGE_CURVE('',#193,#186,#191,.T.) ;
#199=EDGE_CURVE('',#193,#177,#198,.T.) ;
#213=EDGE_CURVE('',#212,#177,#210,.T.) ;
#220=EDGE_CURVE('',#219,#193,#217,.T.) ;
#225=EDGE_CURVE('',#219,#212,#224,.T.) ;
#239=EDGE_CURVE('',#186,#238,#236,.T.) ;
#244=EDGE_CURVE('',#238,#219,#243,.T.) ;
#258=EDGE_CURVE('',#257,#212,#255,.T.) ;
#263=EDGE_CURVE('',#179,#257,#262,.T.) ;
#280=EDGE_CURVE('',#238,#257,#279,.T.) ;
#301=EDGE_CURVE('',#298,#300,#296,.F.) ;
#308=EDGE_CURVE('',#307,#300,#305,.T.) ;
#315=EDGE_CURVE('',#314,#307,#312,.F.) ;
#320=EDGE_CURVE('',#314,#298,#319,.T.) ;
#351=EDGE_CURVE('',#300,#350,#348,.F.) ;
#358=EDGE_CURVE('',#357,#298,#355,.F.) ;
#363=EDGE_CURVE('',#350,#357,#362,.T.) ;
#384=EDGE_CURVE('',#381,#383,#379,.T.) ;
#389=EDGE_CURVE('',#383,#314,#388,.F.) ;
#394=EDGE_CURVE('',#307,#381,#393,.F.) ;
#411=EDGE_CURVE('',#383,#357,#410,.T.) ;
#416=EDGE_CURVE('',#381,#350,#415,.T.) ;
#64=EDGE_LOOP('',(#65,#66,#67,#68)) ;
#95=EDGE_LOOP('',(#96,#97,#98,#99)) ;
#119=EDGE_LOOP('',(#120,#121,#122,#123)) ;
#143=EDGE_LOOP('',(#144,#145,#146,#147)) ;
#160=EDGE_LOOP('',(#161,#162,#163,#164)) ;
#200=EDGE_LOOP('',(#201,#202,#203,#204)) ;
#226=EDGE_LOOP('',(#227,#228,#229,#230)) ;
#245=EDGE_LOOP('',(#246,#247,#248,#249)) ;
#264=EDGE_LOOP('',(#265,#266,#267,#268)) ;
#281=EDGE_LOOP('',(#282,#283,#284,#285)) ;
#321=EDGE_LOOP('',(#322,#323,#324,#325)) ;
#327=EDGE_LOOP('',(#328,#329,#330,#331)) ;
#333=EDGE_LOOP('',(#334,#335,#336,#337)) ;
#364=EDGE_LOOP('',(#365,#366,#367,#368)) ;
#395=EDGE_LOOP('',(#396,#397,#398,#399)) ;
#417=EDGE_LOOP('',(#418,#419,#420,#421)) ;
#429=EDGE_LOOP('',(#430,#431,#432,#433)) ;
#441=EDGE_LOOP('',(#442,#443,#444,#445)) ;
#69=FACE_OUTER_BOUND('',#64,.T.) ;
#100=FACE_OUTER_BOUND('',#95,.T.) ;
#124=FACE_OUTER_BOUND('',#119,.T.) ;
#148=FACE_OUTER_BOUND('',#143,.T.) ;
#165=FACE_OUTER_BOUND('',#160,.T.) ;
#205=FACE_OUTER_BOUND('',#200,.T.) ;
#231=FACE_OUTER_BOUND('',#226,.T.) ;
#250=FACE_OUTER_BOUND('',#245,.T.) ;
#269=FACE_OUTER_BOUND('',#264,.T.) ;
#286=FACE_OUTER_BOUND('',#281,.T.) ;
#326=FACE_OUTER_BOUND('',#321,.T.) ;
#369=FACE_OUTER_BOUND('',#364,.T.) ;
#400=FACE_OUTER_BOUND('',#395,.T.) ;
#422=FACE_OUTER_BOUND('',#417,.T.) ;
#434=FACE_OUTER_BOUND('',#429,.T.) ;
#446=FACE_OUTER_BOUND('',#441,.T.) ;
#39=LINE('Line',#36,#38) ;
#48=LINE('Line',#45,#47) ;
#55=LINE('Line',#52,#54) ;
#62=LINE('Line',#59,#61) ;
#79=LINE('Line',#76,#78) ;
#88=LINE('Line',#85,#87) ;
#93=LINE('Line',#90,#92) ;
#110=LINE('Line',#107,#109) ;
#117=LINE('Line',#114,#116) ;
#134=LINE('Line',#131,#133) ;
#141=LINE('Line',#138,#140) ;
#158=LINE('Line',#155,#157) ;
#175=LINE('Line',#172,#174) ;
#184=LINE('Line',#181,#183) ;
#191=LINE('Line',#188,#190) ;
#198=LINE('Line',#195,#197) ;
#210=LINE('Line',#207,#209) ;
#217=LINE('Line',#214,#216) ;
#224=LINE('Line',#221,#223) ;
#236=LINE('Line',#233,#235) ;
#243=LINE('Line',#240,#242) ;
#255=LINE('Line',#252,#254) ;
#262=LINE('Line',#259,#261) ;
#279=LINE('Line',#276,#278) ;
#296=LINE('Line',#293,#295) ;
#305=LINE('Line',#302,#304) ;
#312=LINE('Line',#309,#311) ;
#319=LINE('Line',#316,#318) ;
#348=LINE('Line',#345,#347) ;
#355=LINE('Line',#352,#354) ;
#362=LINE('Line',#359,#361) ;
#379=LINE('Line',#376,#378) ;
#388=LINE('Line',#385,#387) ;
#393=LINE('Line',#390,#392) ;
#410=LINE('Line',#407,#409) ;
#415=LINE('Line',#412,#414) ;
#35=PLANE('',#34) ;
#75=PLANE('',#74) ;
#106=PLANE('',#105) ;
#130=PLANE('',#129) ;
#154=PLANE('',#153) ;
#171=PLANE('',#170) ;
#275=PLANE('',#274) ;
#292=PLANE('',#291) ;
#344=PLANE('',#343) ;
#375=PLANE('',#374) ;
#406=PLANE('',#405) ;
#428=PLANE('',#427) ;
#440=PLANE('',#439) ;
#9=PRODUCT_CATEGORY_RELATIONSHIP(' ',' ',#7,#8) ;
#6=PRODUCT_DEFINITION_FORMATION_WITH_SPECIFIED_SOURCE('',' ',#5,.MADE.) ;
#20=SHAPE_DEFINITION_REPRESENTATION(#11,#19) ;
#41=VERTEX_POINT('',#40) ;
#43=VERTEX_POINT('',#42) ;
#50=VERTEX_POINT('',#49) ;
#57=VERTEX_POINT('',#56) ;
#81=VERTEX_POINT('',#80) ;
#83=VERTEX_POINT('',#82) ;
#112=VERTEX_POINT('',#111) ;
#136=VERTEX_POINT('',#135) ;
#177=VERTEX_POINT('',#176) ;
#179=VERTEX_POINT('',#178) ;
#186=VERTEX_POINT('',#185) ;
#193=VERTEX_POINT('',#192) ;
#212=VERTEX_POINT('',#211) ;
#219=VERTEX_POINT('',#218) ;
#238=VERTEX_POINT('',#237) ;
#257=VERTEX_POINT('',#256) ;
#298=VERTEX_POINT('',#297) ;
#300=VERTEX_POINT('',#299) ;
#307=VERTEX_POINT('',#306) ;
#314=VERTEX_POINT('',#313) ;
#350=VERTEX_POINT('',#349) ;
#357=VERTEX_POINT('',#356) ;
#381=VERTEX_POINT('',#380) ;
#383=VERTEX_POINT('',#382) ;
#12=(LENGTH_UNIT()NAMED_UNIT(*)SI_UNIT(.MILLI.,.METRE.)) ;
#13=(NAMED_UNIT(*)PLANE_ANGLE_UNIT()SI_UNIT($,.RADIAN.)) ;
#14=(NAMED_UNIT(*)SI_UNIT($,.STERADIAN.)SOLID_ANGLE_UNIT()) ;
#16=(GEOMETRIC_REPRESENTATION_CONTEXT(3)GLOBAL_UNCERTAINTY_ASSIGNED_CONTEXT((#15))GLOBAL_UNIT_ASSIGNED_CONTEXT((#12,#13,#14))REPRESENTATION_CONTEXT(' ',' ')) ;
ENDSEC;
END-ISO-10303-21;
