ISO-10303-21;
HEADER;
FILE_DESCRIPTION(('CATIA V5 STEP Exchange','CAx-IF Rec.Pracs.--- Model Styling and Organization---1.5--- 2016-08-15','CAx-IF Rec.Pracs.---Supplemental Geometry---1.0---2011-11-01','CAx-IF Rec.Pracs.--- Composite Materials ---1.1---2010-07-15'),'2;1');

FILE_NAME ('D1635216_0', '2024-11-14T11:23:53+00:00', ('none'), ('Weidmueller'), 'CATIA Version 5-6 Release 2022 SP4 HF5', 'CATIA V5 STEP AP214 v3', 'none');

FILE_SCHEMA(('AUTOMOTIVE_DESIGN { 1 0 10303 214 1 1 1 1 }'));

ENDSEC;
DATA;
#5=PRODUCT('S3D_US67_PLATE64_STD','','',(#2)) ;
#2=PRODUCT_CONTEXT(' ',#1,'mechanical') ;
#1=APPLICATION_CONTEXT('automotive design') ;
#10=PRODUCT_DEFINITION('',' ',#6,#3) ;
#3=PRODUCT_DEFINITION_CONTEXT('part definition',#1,' ') ;
#11=PRODUCT_DEFINITION_SHAPE(' ',' ',#10) ;
#195=MECHANICAL_DESIGN_GEOMETRIC_PRESENTATION_REPRESENTATION(' ',(#78,#96,#121,#153,#166,#177,#192,#29),#16) ;
#19=SHAPE_REPRESENTATION(' ',(#18),#16) ;
#18=AXIS2_PLACEMENT_3D(' ',#17,$,$) ;
#34=AXIS2_PLACEMENT_3D('Cylinder Axis2P3D',#31,#32,#33) ;
#38=AXIS2_PLACEMENT_3D('Circle Axis2P3D',#36,#37,$) ;
#54=AXIS2_PLACEMENT_3D('Circle Axis2P3D',#52,#53,$) ;
#81=AXIS2_PLACEMENT_3D('Circle Axis2P3D',#79,#80,$) ;
#86=AXIS2_PLACEMENT_3D('Circle Axis2P3D',#84,#85,$) ;
#100=AXIS2_PLACEMENT_3D('Plane Axis2P3D',#97,#98,#99) ;
#104=AXIS2_PLACEMENT_3D('Circle Axis2P3D',#102,#103,$) ;
#113=AXIS2_PLACEMENT_3D('Circle Axis2P3D',#111,#112,$) ;
#125=AXIS2_PLACEMENT_3D('Cylinder Axis2P3D',#122,#123,#124) ;
#143=AXIS2_PLACEMENT_3D('Circle Axis2P3D',#141,#142,$) ;
#156=AXIS2_PLACEMENT_3D('Circle Axis2P3D',#154,#155,$) ;
#170=AXIS2_PLACEMENT_3D('Plane Axis2P3D',#167,#168,#169) ;
#181=AXIS2_PLACEMENT_3D('Plane Axis2P3D',#178,#179,#180) ;
#17=CARTESIAN_POINT(' ',(0.,0.,0.)) ;
#31=CARTESIAN_POINT('Axis2P3D Location',(32.,32.,2.)) ;
#36=CARTESIAN_POINT('Axis2P3D Location',(32.,32.,4.)) ;
#40=CARTESIAN_POINT('Vertex',(15.0837089208,59.1631937762,4.)) ;
#42=CARTESIAN_POINT('Vertex',(48.9162910792,4.83680622377,4.)) ;
#45=CARTESIAN_POINT('Line Origine',(15.0837089208,59.1631937762,2.)) ;
#49=CARTESIAN_POINT('Vertex',(15.0837089208,59.1631937762,-2.24220809311E-15)) ;
#52=CARTESIAN_POINT('Axis2P3D Location',(32.,32.,-2.44249065418E-15)) ;
#56=CARTESIAN_POINT('Vertex',(48.9162910792,4.83680622377,-2.64277321524E-15)) ;
#59=CARTESIAN_POINT('Line Origine',(48.9162910792,4.83680622377,2.)) ;
#79=CARTESIAN_POINT('Axis2P3D Location',(32.,32.,4.)) ;
#84=CARTESIAN_POINT('Axis2P3D Location',(32.,32.,-2.44249065418E-15)) ;
#97=CARTESIAN_POINT('Axis2P3D Location',(32.,32.,11.5)) ;
#102=CARTESIAN_POINT('Axis2P3D Location',(32.,32.,11.5)) ;
#106=CARTESIAN_POINT('Vertex',(28.0064941069,31.7721608429,11.5)) ;
#108=CARTESIAN_POINT('Vertex',(35.9935058931,32.2278391571,11.5)) ;
#111=CARTESIAN_POINT('Axis2P3D Location',(32.,32.,11.5)) ;
#122=CARTESIAN_POINT('Axis2P3D Location',(32.,32.,7.75)) ;
#127=CARTESIAN_POINT('Line Origine',(35.9935058931,32.2278391571,5.15249999987)) ;
#131=CARTESIAN_POINT('Vertex',(35.9935058931,32.2278391571,4.)) ;
#134=CARTESIAN_POINT('Line Origine',(28.0064941069,31.7721608429,5.15249999987)) ;
#138=CARTESIAN_POINT('Vertex',(28.0064941069,31.7721608429,4.)) ;
#141=CARTESIAN_POINT('Axis2P3D Location',(32.,32.,4.)) ;
#154=CARTESIAN_POINT('Axis2P3D Location',(32.,32.,4.)) ;
#167=CARTESIAN_POINT('Axis2P3D Location',(32.,32.,-1.58206781009E-15)) ;
#178=CARTESIAN_POINT('Axis2P3D Location',(33.8227132566,0.0519528549179,4.)) ;
#32=DIRECTION('Axis2P3D Direction',(4.0676485193E-17,1.79585915617E-17,1.)) ;
#33=DIRECTION('Axis2P3D XDirection',(0.528634096224,-0.848849805507,-6.25883003322E-18)) ;
#37=DIRECTION('Axis2P3D Direction',(4.0676485193E-17,1.79585915617E-17,1.)) ;
#46=DIRECTION('Vector Direction',(0.,0.,1.)) ;
#53=DIRECTION('Axis2P3D Direction',(4.0676485193E-17,1.79585915617E-17,1.)) ;
#60=DIRECTION('Vector Direction',(0.,0.,1.)) ;
#80=DIRECTION('Axis2P3D Direction',(4.0676485193E-17,1.79585915617E-17,1.)) ;
#85=DIRECTION('Axis2P3D Direction',(4.0676485193E-17,1.79585915617E-17,1.)) ;
#98=DIRECTION('Axis2P3D Direction',(4.0676485193E-17,1.79585915617E-17,1.)) ;
#99=DIRECTION('Axis2P3D XDirection',(-0.998376473284,-0.0569597892673,4.16333634234E-17)) ;
#103=DIRECTION('Axis2P3D Direction',(4.0676485193E-17,1.79585915617E-17,1.)) ;
#112=DIRECTION('Axis2P3D Direction',(4.0676485193E-17,1.79585915617E-17,1.)) ;
#123=DIRECTION('Axis2P3D Direction',(4.0676485193E-17,1.79585915617E-17,1.)) ;
#124=DIRECTION('Axis2P3D XDirection',(-0.998376473284,-0.0569597892673,4.16333634234E-17)) ;
#128=DIRECTION('Vector Direction',(0.,0.,1.)) ;
#135=DIRECTION('Vector Direction',(0.,0.,1.)) ;
#142=DIRECTION('Axis2P3D Direction',(4.0676485193E-17,1.79585915617E-17,1.)) ;
#155=DIRECTION('Axis2P3D Direction',(4.0676485193E-17,1.79585915617E-17,1.)) ;
#168=DIRECTION('Axis2P3D Direction',(4.0676485193E-17,1.79585915617E-17,1.)) ;
#169=DIRECTION('Axis2P3D XDirection',(0.998376473284,0.0569597892673,-4.16333634234E-17)) ;
#179=DIRECTION('Axis2P3D Direction',(4.0676485193E-17,1.79585915617E-17,1.)) ;
#180=DIRECTION('Axis2P3D XDirection',(0.998376473284,0.0569597892673,-4.16333634234E-17)) ;
#8=PRODUCT_RELATED_PRODUCT_CATEGORY('part',$,(#5)) ;
#7=PRODUCT_CATEGORY('part','specification') ;
#29=STYLED_ITEM(' ',(#28),#21) ;
#28=PRESENTATION_STYLE_ASSIGNMENT((#27)) ;
#77=PRESENTATION_STYLE_ASSIGNMENT((#76)) ;
#27=SURFACE_STYLE_USAGE(.BOTH.,#26) ;
#76=SURFACE_STYLE_USAGE(.BOTH.,#75) ;
#26=SURFACE_SIDE_STYLE(' ',(#25)) ;
#75=SURFACE_SIDE_STYLE(' ',(#74)) ;
#25=SURFACE_STYLE_FILL_AREA(#24) ;
#74=SURFACE_STYLE_FILL_AREA(#73) ;
#24=FILL_AREA_STYLE(' ',(#23)) ;
#73=FILL_AREA_STYLE(' ',(#72)) ;
#23=FILL_AREA_STYLE_COLOUR(' ',#22) ;
#72=FILL_AREA_STYLE_COLOUR(' ',#71) ;
#47=VECTOR('Line Direction',#46,1.) ;
#61=VECTOR('Line Direction',#60,1.) ;
#129=VECTOR('Line Direction',#128,1.) ;
#136=VECTOR('Line Direction',#135,1.) ;
#15=UNCERTAINTY_MEASURE_WITH_UNIT(LENGTH_MEASURE(0.005),#12,'distance_accuracy_value','CONFUSED CURVE UNCERTAINTY') ;
#194=SHAPE_REPRESENTATION_RELATIONSHIP(' ',' ',#19,#193) ;
#65=ORIENTED_EDGE('',*,*,#44,.F.) ;
#66=ORIENTED_EDGE('',*,*,#51,.T.) ;
#67=ORIENTED_EDGE('',*,*,#58,.T.) ;
#68=ORIENTED_EDGE('',*,*,#63,.F.) ;
#90=ORIENTED_EDGE('',*,*,#83,.F.) ;
#91=ORIENTED_EDGE('',*,*,#63,.T.) ;
#92=ORIENTED_EDGE('',*,*,#88,.T.) ;
#93=ORIENTED_EDGE('',*,*,#51,.F.) ;
#117=ORIENTED_EDGE('',*,*,#110,.T.) ;
#118=ORIENTED_EDGE('',*,*,#115,.T.) ;
#147=ORIENTED_EDGE('',*,*,#133,.F.) ;
#148=ORIENTED_EDGE('',*,*,#110,.F.) ;
#149=ORIENTED_EDGE('',*,*,#140,.T.) ;
#150=ORIENTED_EDGE('',*,*,#145,.T.) ;
#160=ORIENTED_EDGE('',*,*,#140,.F.) ;
#161=ORIENTED_EDGE('',*,*,#115,.F.) ;
#162=ORIENTED_EDGE('',*,*,#133,.T.) ;
#163=ORIENTED_EDGE('',*,*,#158,.T.) ;
#173=ORIENTED_EDGE('',*,*,#88,.F.) ;
#174=ORIENTED_EDGE('',*,*,#58,.F.) ;
#184=ORIENTED_EDGE('',*,*,#44,.T.) ;
#185=ORIENTED_EDGE('',*,*,#83,.T.) ;
#188=ORIENTED_EDGE('',*,*,#145,.F.) ;
#189=ORIENTED_EDGE('',*,*,#158,.F.) ;
#190=FACE_BOUND('',#187,.T.) ;
#30=CLOSED_SHELL('Closed Shell',(#70,#95,#120,#152,#165,#176,#191)) ;
#193=ADVANCED_BREP_SHAPE_REPRESENTATION('NONE',(#21),#16) ;
#70=ADVANCED_FACE('ADAPTER',(#69),#35,.T.) ;
#95=ADVANCED_FACE('ADAPTER',(#94),#35,.T.) ;
#120=ADVANCED_FACE('ADAPTER',(#119),#101,.T.) ;
#152=ADVANCED_FACE('ADAPTER',(#151),#126,.T.) ;
#165=ADVANCED_FACE('ADAPTER',(#164),#126,.T.) ;
#176=ADVANCED_FACE('ADAPTER',(#175),#171,.F.) ;
#191=ADVANCED_FACE('ADAPTER',(#186,#190),#182,.T.) ;
#4=APPLICATION_PROTOCOL_DEFINITION('international standard','automotive_design',2001,#1) ;
#21=MANIFOLD_SOLID_BREP('ADAPTER',#30) ;
#39=CIRCLE('generated circle',#38,32.) ;
#55=CIRCLE('generated circle',#54,32.) ;
#82=CIRCLE('generated circle',#81,32.) ;
#87=CIRCLE('generated circle',#86,32.) ;
#105=CIRCLE('generated circle',#104,4.) ;
#114=CIRCLE('generated circle',#113,4.) ;
#144=CIRCLE('generated circle',#143,4.) ;
#157=CIRCLE('generated circle',#156,4.) ;
#22=COLOUR_RGB('Colour',0.823529411765,0.823529411765,1.) ;
#71=COLOUR_RGB('Colour',0.752941176471,0.752941176471,0.752941176471) ;
#78=OVER_RIDING_STYLED_ITEM(' ',(#77),#70,#29) ;
#96=OVER_RIDING_STYLED_ITEM(' ',(#77),#95,#29) ;
#121=OVER_RIDING_STYLED_ITEM(' ',(#77),#120,#29) ;
#153=OVER_RIDING_STYLED_ITEM(' ',(#77),#152,#29) ;
#166=OVER_RIDING_STYLED_ITEM(' ',(#77),#165,#29) ;
#177=OVER_RIDING_STYLED_ITEM(' ',(#77),#176,#29) ;
#192=OVER_RIDING_STYLED_ITEM(' ',(#77),#191,#29) ;
#35=CYLINDRICAL_SURFACE('generated cylinder',#34,32.) ;
#126=CYLINDRICAL_SURFACE('generated cylinder',#125,4.) ;
#44=EDGE_CURVE('',#41,#43,#39,.T.) ;
#51=EDGE_CURVE('',#41,#50,#48,.F.) ;
#58=EDGE_CURVE('',#50,#57,#55,.T.) ;
#63=EDGE_CURVE('',#43,#57,#62,.F.) ;
#83=EDGE_CURVE('',#43,#41,#82,.T.) ;
#88=EDGE_CURVE('',#57,#50,#87,.T.) ;
#110=EDGE_CURVE('',#107,#109,#105,.T.) ;
#115=EDGE_CURVE('',#109,#107,#114,.T.) ;
#133=EDGE_CURVE('',#109,#132,#130,.F.) ;
#140=EDGE_CURVE('',#107,#139,#137,.F.) ;
#145=EDGE_CURVE('',#139,#132,#144,.T.) ;
#158=EDGE_CURVE('',#132,#139,#157,.T.) ;
#64=EDGE_LOOP('',(#65,#66,#67,#68)) ;
#89=EDGE_LOOP('',(#90,#91,#92,#93)) ;
#116=EDGE_LOOP('',(#117,#118)) ;
#146=EDGE_LOOP('',(#147,#148,#149,#150)) ;
#159=EDGE_LOOP('',(#160,#161,#162,#163)) ;
#172=EDGE_LOOP('',(#173,#174)) ;
#183=EDGE_LOOP('',(#184,#185)) ;
#187=EDGE_LOOP('',(#188,#189)) ;
#69=FACE_OUTER_BOUND('',#64,.T.) ;
#94=FACE_OUTER_BOUND('',#89,.T.) ;
#119=FACE_OUTER_BOUND('',#116,.T.) ;
#151=FACE_OUTER_BOUND('',#146,.T.) ;
#164=FACE_OUTER_BOUND('',#159,.T.) ;
#175=FACE_OUTER_BOUND('',#172,.T.) ;
#186=FACE_OUTER_BOUND('',#183,.T.) ;
#48=LINE('Line',#45,#47) ;
#62=LINE('Line',#59,#61) ;
#130=LINE('Line',#127,#129) ;
#137=LINE('Line',#134,#136) ;
#101=PLANE('',#100) ;
#171=PLANE('',#170) ;
#182=PLANE('',#181) ;
#9=PRODUCT_CATEGORY_RELATIONSHIP(' ',' ',#7,#8) ;
#6=PRODUCT_DEFINITION_FORMATION_WITH_SPECIFIED_SOURCE('',' ',#5,.NOT_KNOWN.) ;
#20=SHAPE_DEFINITION_REPRESENTATION(#11,#19) ;
#41=VERTEX_POINT('',#40) ;
#43=VERTEX_POINT('',#42) ;
#50=VERTEX_POINT('',#49) ;
#57=VERTEX_POINT('',#56) ;
#107=VERTEX_POINT('',#106) ;
#109=VERTEX_POINT('',#108) ;
#132=VERTEX_POINT('',#131) ;
#139=VERTEX_POINT('',#138) ;
#12=(LENGTH_UNIT()NAMED_UNIT(*)SI_UNIT(.MILLI.,.METRE.)) ;
#13=(NAMED_UNIT(*)PLANE_ANGLE_UNIT()SI_UNIT($,.RADIAN.)) ;
#14=(NAMED_UNIT(*)SI_UNIT($,.STERADIAN.)SOLID_ANGLE_UNIT()) ;
#16=(GEOMETRIC_REPRESENTATION_CONTEXT(3)GLOBAL_UNCERTAINTY_ASSIGNED_CONTEXT((#15))GLOBAL_UNIT_ASSIGNED_CONTEXT((#12,#13,#14))REPRESENTATION_CONTEXT(' ',' ')) ;
ENDSEC;
END-ISO-10303-21;
