ISO-10303-21;
HEADER;
FILE_DESCRIPTION(('CATIA V5R24 STEP','CAx-IF Rec.Pracs.--- Model Styling and Organization---1.2---2011-12-15'),'2;1');

FILE_NAME ('D1445736_0_0131400000_0131400000.stp','2017-01-03T13:24:24+00:00',('none'),('Weidmueller'),'CATIA Version 5-6 Release 2014 SP4 HF52','CATIA V5 STEP AP214','none');

FILE_SCHEMA(('AUTOMOTIVE_DESIGN { 1 0 10303 214 1 1 1 1 }'));

ENDSEC;
DATA;
#5=PRODUCT('v5-standard_part','','',(#2)) ;
#2=PRODUCT_CONTEXT(' ',#1,'mechanical') ;
#1=APPLICATION_CONTEXT('automotive design') ;
#10=PRODUCT_DEFINITION('',' ',#6,#3) ;
#3=PRODUCT_DEFINITION_CONTEXT('part definition',#1,' ') ;
#11=PRODUCT_DEFINITION_SHAPE(' ',' ',#10) ;
#329=MECHANICAL_DESIGN_GEOMETRIC_PRESENTATION_REPRESENTATION(' ',(#46),#16) ;
#19=SHAPE_REPRESENTATION(' ',(#18),#16) ;
#18=AXIS2_PLACEMENT_3D(' ',#17,$,$) ;
#24=AXIS2_PLACEMENT_3D('Plane Axis2P3D',#21,#22,#23) ;
#31=AXIS2_PLACEMENT_3D('Plane Axis2P3D',#28,#29,#30) ;
#36=AXIS2_PLACEMENT_3D('Plane Axis2P3D',#33,#34,#35) ;
#52=AXIS2_PLACEMENT_3D('Cylinder Axis2P3D',#49,#50,#51) ;
#56=AXIS2_PLACEMENT_3D('Circle Axis2P3D',#54,#55,$) ;
#72=AXIS2_PLACEMENT_3D('Circle Axis2P3D',#70,#71,$) ;
#91=AXIS2_PLACEMENT_3D('Circle Axis2P3D',#89,#90,$) ;
#96=AXIS2_PLACEMENT_3D('Circle Axis2P3D',#94,#95,$) ;
#109=AXIS2_PLACEMENT_3D('Plane Axis2P3D',#106,#107,#108) ;
#149=AXIS2_PLACEMENT_3D('Plane Axis2P3D',#146,#147,#148) ;
#180=AXIS2_PLACEMENT_3D('Plane Axis2P3D',#177,#178,#179) ;
#211=AXIS2_PLACEMENT_3D('Plane Axis2P3D',#208,#209,#210) ;
#233=AXIS2_PLACEMENT_3D('Plane Axis2P3D',#230,#231,#232) ;
#243=AXIS2_PLACEMENT_3D('Circle Axis2P3D',#241,#242,$) ;
#252=AXIS2_PLACEMENT_3D('Circle Axis2P3D',#250,#251,$) ;
#267=AXIS2_PLACEMENT_3D('Plane Axis2P3D',#264,#265,#266) ;
#277=AXIS2_PLACEMENT_3D('Circle Axis2P3D',#275,#276,$) ;
#286=AXIS2_PLACEMENT_3D('Circle Axis2P3D',#284,#285,$) ;
#301=AXIS2_PLACEMENT_3D('Cylinder Axis2P3D',#298,#299,#300) ;
#17=CARTESIAN_POINT(' ',(0.,0.,0.)) ;
#21=CARTESIAN_POINT('Axis2P3D Location',(0.,0.,0.)) ;
#28=CARTESIAN_POINT('Axis2P3D Location',(0.,0.,0.)) ;
#33=CARTESIAN_POINT('Axis2P3D Location',(0.,0.,0.)) ;
#49=CARTESIAN_POINT('Axis2P3D Location',(17.3,3.,1.9)) ;
#54=CARTESIAN_POINT('Axis2P3D Location',(17.3,3.,2.)) ;
#58=CARTESIAN_POINT('Vertex',(18.8796486114,2.13703403051,2.)) ;
#60=CARTESIAN_POINT('Vertex',(15.7203513886,3.86296596949,2.)) ;
#63=CARTESIAN_POINT('Line Origine',(15.7203513886,3.86296596949,1.15500000002)) ;
#67=CARTESIAN_POINT('Vertex',(15.7203513886,3.86296596949,0.)) ;
#70=CARTESIAN_POINT('Axis2P3D Location',(17.3,3.,0.)) ;
#74=CARTESIAN_POINT('Vertex',(18.8796486114,2.13703403051,0.)) ;
#77=CARTESIAN_POINT('Line Origine',(18.8796486114,2.13703403051,1.15500000002)) ;
#89=CARTESIAN_POINT('Axis2P3D Location',(17.3,3.,2.)) ;
#94=CARTESIAN_POINT('Axis2P3D Location',(17.3,3.,0.)) ;
#106=CARTESIAN_POINT('Axis2P3D Location',(0.,6.,0.)) ;
#111=CARTESIAN_POINT('Line Origine',(0.,6.,1.)) ;
#115=CARTESIAN_POINT('Vertex',(0.,6.,0.)) ;
#117=CARTESIAN_POINT('Vertex',(0.,6.,2.)) ;
#120=CARTESIAN_POINT('Line Origine',(0.,3.,0.)) ;
#124=CARTESIAN_POINT('Vertex',(0.,0.,0.)) ;
#127=CARTESIAN_POINT('Line Origine',(0.,0.,1.)) ;
#131=CARTESIAN_POINT('Vertex',(0.,0.,2.)) ;
#134=CARTESIAN_POINT('Line Origine',(0.,3.,2.)) ;
#146=CARTESIAN_POINT('Axis2P3D Location',(20.7,6.,0.)) ;
#151=CARTESIAN_POINT('Line Origine',(20.7,6.,1.)) ;
#155=CARTESIAN_POINT('Vertex',(20.7,6.,0.)) ;
#157=CARTESIAN_POINT('Vertex',(20.7,6.,2.)) ;
#160=CARTESIAN_POINT('Line Origine',(10.35,6.,0.)) ;
#165=CARTESIAN_POINT('Line Origine',(10.35,6.,2.)) ;
#177=CARTESIAN_POINT('Axis2P3D Location',(20.7,-3.69135457387E-015,0.)) ;
#182=CARTESIAN_POINT('Line Origine',(20.7,-3.69135457387E-015,1.)) ;
#186=CARTESIAN_POINT('Vertex',(20.7,0.,0.)) ;
#188=CARTESIAN_POINT('Vertex',(20.7,0.,2.)) ;
#191=CARTESIAN_POINT('Line Origine',(20.7,3.,0.)) ;
#196=CARTESIAN_POINT('Line Origine',(20.7,3.,2.)) ;
#208=CARTESIAN_POINT('Axis2P3D Location',(0.,0.,0.)) ;
#213=CARTESIAN_POINT('Line Origine',(10.35,0.,0.)) ;
#218=CARTESIAN_POINT('Line Origine',(10.35,0.,2.)) ;
#230=CARTESIAN_POINT('Axis2P3D Location',(0.,0.,2.)) ;
#241=CARTESIAN_POINT('Axis2P3D Location',(3.4,3.,2.)) ;
#245=CARTESIAN_POINT('Vertex',(4.9796486114,2.13703403051,2.)) ;
#247=CARTESIAN_POINT('Vertex',(1.8203513886,3.86296596949,2.)) ;
#250=CARTESIAN_POINT('Axis2P3D Location',(3.4,3.,2.)) ;
#264=CARTESIAN_POINT('Axis2P3D Location',(0.,0.,0.)) ;
#275=CARTESIAN_POINT('Axis2P3D Location',(3.4,3.,0.)) ;
#279=CARTESIAN_POINT('Vertex',(1.8203513886,3.86296596949,0.)) ;
#281=CARTESIAN_POINT('Vertex',(4.9796486114,2.13703403051,0.)) ;
#284=CARTESIAN_POINT('Axis2P3D Location',(3.4,3.,0.)) ;
#298=CARTESIAN_POINT('Axis2P3D Location',(3.4,3.,1.9)) ;
#303=CARTESIAN_POINT('Line Origine',(1.8203513886,3.86296596949,1.15500000002)) ;
#308=CARTESIAN_POINT('Line Origine',(4.9796486114,2.13703403051,1.15500000002)) ;
#22=DIRECTION('Axis2P3D Direction',(0.,0.,1.)) ;
#23=DIRECTION('Axis2P3D XDirection',(1.,0.,0.)) ;
#29=DIRECTION('Axis2P3D Direction',(1.,0.,0.)) ;
#30=DIRECTION('Axis2P3D XDirection',(0.,1.,0.)) ;
#34=DIRECTION('Axis2P3D Direction',(0.,1.,0.)) ;
#35=DIRECTION('Axis2P3D XDirection',(0.,0.,1.)) ;
#50=DIRECTION('Axis2P3D Direction',(0.,-0.,-1.)) ;
#51=DIRECTION('Axis2P3D XDirection',(0.87758256189,-0.479425538604,0.)) ;
#55=DIRECTION('Axis2P3D Direction',(0.,-0.,-1.)) ;
#64=DIRECTION('Vector Direction',(0.,0.,-1.)) ;
#71=DIRECTION('Axis2P3D Direction',(0.,-0.,-1.)) ;
#78=DIRECTION('Vector Direction',(0.,0.,-1.)) ;
#90=DIRECTION('Axis2P3D Direction',(0.,-0.,-1.)) ;
#95=DIRECTION('Axis2P3D Direction',(0.,-0.,-1.)) ;
#107=DIRECTION('Axis2P3D Direction',(-1.,0.,0.)) ;
#108=DIRECTION('Axis2P3D XDirection',(0.,-1.,0.)) ;
#112=DIRECTION('Vector Direction',(0.,0.,1.)) ;
#121=DIRECTION('Vector Direction',(0.,-1.,0.)) ;
#128=DIRECTION('Vector Direction',(0.,0.,1.)) ;
#135=DIRECTION('Vector Direction',(0.,-1.,0.)) ;
#147=DIRECTION('Axis2P3D Direction',(0.,1.,-0.)) ;
#148=DIRECTION('Axis2P3D XDirection',(-1.,0.,0.)) ;
#152=DIRECTION('Vector Direction',(0.,0.,1.)) ;
#161=DIRECTION('Vector Direction',(-1.,0.,0.)) ;
#166=DIRECTION('Vector Direction',(-1.,0.,0.)) ;
#178=DIRECTION('Axis2P3D Direction',(1.,0.,0.)) ;
#179=DIRECTION('Axis2P3D XDirection',(0.,1.,0.)) ;
#183=DIRECTION('Vector Direction',(0.,0.,1.)) ;
#192=DIRECTION('Vector Direction',(0.,1.,0.)) ;
#197=DIRECTION('Vector Direction',(0.,1.,0.)) ;
#209=DIRECTION('Axis2P3D Direction',(0.,-1.,0.)) ;
#210=DIRECTION('Axis2P3D XDirection',(1.,0.,0.)) ;
#214=DIRECTION('Vector Direction',(1.,0.,0.)) ;
#219=DIRECTION('Vector Direction',(1.,0.,0.)) ;
#231=DIRECTION('Axis2P3D Direction',(0.,0.,1.)) ;
#232=DIRECTION('Axis2P3D XDirection',(1.,0.,0.)) ;
#242=DIRECTION('Axis2P3D Direction',(0.,0.,1.)) ;
#251=DIRECTION('Axis2P3D Direction',(0.,0.,1.)) ;
#265=DIRECTION('Axis2P3D Direction',(0.,0.,1.)) ;
#266=DIRECTION('Axis2P3D XDirection',(1.,0.,0.)) ;
#276=DIRECTION('Axis2P3D Direction',(0.,0.,1.)) ;
#285=DIRECTION('Axis2P3D Direction',(0.,0.,1.)) ;
#299=DIRECTION('Axis2P3D Direction',(0.,0.,-1.)) ;
#300=DIRECTION('Axis2P3D XDirection',(0.87758256189,-0.479425538604,0.)) ;
#304=DIRECTION('Vector Direction',(0.,0.,-1.)) ;
#309=DIRECTION('Vector Direction',(0.,0.,-1.)) ;
#47=PRESENTATION_LAYER_ASSIGNMENT('1',' ',(#38)) ;
#8=PRODUCT_RELATED_PRODUCT_CATEGORY('part',$,(#5)) ;
#7=PRODUCT_CATEGORY('part','specification') ;
#46=STYLED_ITEM(' ',(#45),#38) ;
#45=PRESENTATION_STYLE_ASSIGNMENT((#44)) ;
#44=SURFACE_STYLE_USAGE(.BOTH.,#43) ;
#43=SURFACE_SIDE_STYLE(' ',(#42)) ;
#42=SURFACE_STYLE_FILL_AREA(#41) ;
#41=FILL_AREA_STYLE(' ',(#40)) ;
#40=FILL_AREA_STYLE_COLOUR(' ',#39) ;
#65=VECTOR('Line Direction',#64,1.) ;
#79=VECTOR('Line Direction',#78,1.) ;
#113=VECTOR('Line Direction',#112,1.) ;
#122=VECTOR('Line Direction',#121,1.) ;
#129=VECTOR('Line Direction',#128,1.) ;
#136=VECTOR('Line Direction',#135,1.) ;
#153=VECTOR('Line Direction',#152,1.) ;
#162=VECTOR('Line Direction',#161,1.) ;
#167=VECTOR('Line Direction',#166,1.) ;
#184=VECTOR('Line Direction',#183,1.) ;
#193=VECTOR('Line Direction',#192,1.) ;
#198=VECTOR('Line Direction',#197,1.) ;
#215=VECTOR('Line Direction',#214,1.) ;
#220=VECTOR('Line Direction',#219,1.) ;
#305=VECTOR('Line Direction',#304,1.) ;
#310=VECTOR('Line Direction',#309,1.) ;
#15=UNCERTAINTY_MEASURE_WITH_UNIT(LENGTH_MEASURE(0.005),#12,'distance_accuracy_value','CONFUSED CURVE UNCERTAINTY') ;
#328=SHAPE_REPRESENTATION_RELATIONSHIP(' ',' ',#19,#327) ;
#83=ORIENTED_EDGE('',*,*,#62,.T.) ;
#84=ORIENTED_EDGE('',*,*,#69,.F.) ;
#85=ORIENTED_EDGE('',*,*,#76,.T.) ;
#86=ORIENTED_EDGE('',*,*,#81,.T.) ;
#100=ORIENTED_EDGE('',*,*,#93,.T.) ;
#101=ORIENTED_EDGE('',*,*,#81,.F.) ;
#102=ORIENTED_EDGE('',*,*,#98,.T.) ;
#103=ORIENTED_EDGE('',*,*,#69,.T.) ;
#140=ORIENTED_EDGE('',*,*,#119,.F.) ;
#141=ORIENTED_EDGE('',*,*,#126,.T.) ;
#142=ORIENTED_EDGE('',*,*,#133,.T.) ;
#143=ORIENTED_EDGE('',*,*,#138,.F.) ;
#171=ORIENTED_EDGE('',*,*,#159,.F.) ;
#172=ORIENTED_EDGE('',*,*,#164,.T.) ;
#173=ORIENTED_EDGE('',*,*,#119,.T.) ;
#174=ORIENTED_EDGE('',*,*,#169,.F.) ;
#202=ORIENTED_EDGE('',*,*,#190,.F.) ;
#203=ORIENTED_EDGE('',*,*,#195,.T.) ;
#204=ORIENTED_EDGE('',*,*,#159,.T.) ;
#205=ORIENTED_EDGE('',*,*,#200,.F.) ;
#224=ORIENTED_EDGE('',*,*,#133,.F.) ;
#225=ORIENTED_EDGE('',*,*,#217,.T.) ;
#226=ORIENTED_EDGE('',*,*,#190,.T.) ;
#227=ORIENTED_EDGE('',*,*,#222,.F.) ;
#236=ORIENTED_EDGE('',*,*,#222,.T.) ;
#237=ORIENTED_EDGE('',*,*,#200,.T.) ;
#238=ORIENTED_EDGE('',*,*,#169,.T.) ;
#239=ORIENTED_EDGE('',*,*,#138,.T.) ;
#256=ORIENTED_EDGE('',*,*,#249,.F.) ;
#257=ORIENTED_EDGE('',*,*,#254,.F.) ;
#260=ORIENTED_EDGE('',*,*,#93,.F.) ;
#261=ORIENTED_EDGE('',*,*,#62,.F.) ;
#270=ORIENTED_EDGE('',*,*,#126,.F.) ;
#271=ORIENTED_EDGE('',*,*,#164,.F.) ;
#272=ORIENTED_EDGE('',*,*,#195,.F.) ;
#273=ORIENTED_EDGE('',*,*,#217,.F.) ;
#290=ORIENTED_EDGE('',*,*,#283,.F.) ;
#291=ORIENTED_EDGE('',*,*,#288,.F.) ;
#294=ORIENTED_EDGE('',*,*,#98,.F.) ;
#295=ORIENTED_EDGE('',*,*,#76,.F.) ;
#314=ORIENTED_EDGE('',*,*,#249,.T.) ;
#315=ORIENTED_EDGE('',*,*,#307,.F.) ;
#316=ORIENTED_EDGE('',*,*,#283,.T.) ;
#317=ORIENTED_EDGE('',*,*,#312,.T.) ;
#321=ORIENTED_EDGE('',*,*,#254,.T.) ;
#322=ORIENTED_EDGE('',*,*,#312,.F.) ;
#323=ORIENTED_EDGE('',*,*,#288,.T.) ;
#324=ORIENTED_EDGE('',*,*,#307,.T.) ;
#258=FACE_BOUND('',#255,.T.) ;
#262=FACE_BOUND('',#259,.T.) ;
#292=FACE_BOUND('',#289,.T.) ;
#296=FACE_BOUND('',#293,.T.) ;
#48=CLOSED_SHELL('Closed Shell',(#88,#105,#145,#176,#207,#229,#263,#297,#319,#326)) ;
#327=ADVANCED_BREP_SHAPE_REPRESENTATION('NONE',(#38),#16) ;
#88=ADVANCED_FACE('V1',(#87),#53,.F.) ;
#105=ADVANCED_FACE('V1',(#104),#53,.F.) ;
#145=ADVANCED_FACE('V1',(#144),#110,.T.) ;
#176=ADVANCED_FACE('V1',(#175),#150,.T.) ;
#207=ADVANCED_FACE('V1',(#206),#181,.T.) ;
#229=ADVANCED_FACE('V1',(#228),#212,.T.) ;
#263=ADVANCED_FACE('V1',(#240,#258,#262),#234,.T.) ;
#297=ADVANCED_FACE('V1',(#274,#292,#296),#268,.F.) ;
#319=ADVANCED_FACE('V1',(#318),#302,.F.) ;
#326=ADVANCED_FACE('V1',(#325),#302,.F.) ;
#4=APPLICATION_PROTOCOL_DEFINITION('international standard','automotive_design',2001,#1) ;
#38=MANIFOLD_SOLID_BREP('V1',#48) ;
#57=CIRCLE('generated circle',#56,1.8) ;
#73=CIRCLE('generated circle',#72,1.8) ;
#92=CIRCLE('generated circle',#91,1.8) ;
#97=CIRCLE('generated circle',#96,1.8) ;
#244=CIRCLE('generated circle',#243,1.8) ;
#253=CIRCLE('generated circle',#252,1.8) ;
#278=CIRCLE('generated circle',#277,1.8) ;
#287=CIRCLE('generated circle',#286,1.8) ;
#39=COLOUR_RGB('Colour',0.823529411765,0.823529411765,1.) ;
#26=CONSTRUCTIVE_GEOMETRY_REPRESENTATION('supplemental geometry',(#25,#32,#37),#16) ;
#27=CONSTRUCTIVE_GEOMETRY_REPRESENTATION_RELATIONSHIP('supplemental geometry','',#19,#26) ;
#53=CYLINDRICAL_SURFACE('generated cylinder',#52,1.8) ;
#302=CYLINDRICAL_SURFACE('generated cylinder',#301,1.8) ;
#62=EDGE_CURVE('',#59,#61,#57,.F.) ;
#69=EDGE_CURVE('',#68,#61,#66,.F.) ;
#76=EDGE_CURVE('',#68,#75,#73,.T.) ;
#81=EDGE_CURVE('',#75,#59,#80,.F.) ;
#93=EDGE_CURVE('',#61,#59,#92,.F.) ;
#98=EDGE_CURVE('',#75,#68,#97,.T.) ;
#119=EDGE_CURVE('',#116,#118,#114,.T.) ;
#126=EDGE_CURVE('',#116,#125,#123,.T.) ;
#133=EDGE_CURVE('',#125,#132,#130,.T.) ;
#138=EDGE_CURVE('',#118,#132,#137,.T.) ;
#159=EDGE_CURVE('',#156,#158,#154,.T.) ;
#164=EDGE_CURVE('',#156,#116,#163,.T.) ;
#169=EDGE_CURVE('',#158,#118,#168,.T.) ;
#190=EDGE_CURVE('',#187,#189,#185,.T.) ;
#195=EDGE_CURVE('',#187,#156,#194,.T.) ;
#200=EDGE_CURVE('',#189,#158,#199,.T.) ;
#217=EDGE_CURVE('',#125,#187,#216,.T.) ;
#222=EDGE_CURVE('',#132,#189,#221,.T.) ;
#249=EDGE_CURVE('',#246,#248,#244,.T.) ;
#254=EDGE_CURVE('',#248,#246,#253,.T.) ;
#283=EDGE_CURVE('',#280,#282,#278,.F.) ;
#288=EDGE_CURVE('',#282,#280,#287,.F.) ;
#307=EDGE_CURVE('',#280,#248,#306,.F.) ;
#312=EDGE_CURVE('',#282,#246,#311,.F.) ;
#82=EDGE_LOOP('',(#83,#84,#85,#86)) ;
#99=EDGE_LOOP('',(#100,#101,#102,#103)) ;
#139=EDGE_LOOP('',(#140,#141,#142,#143)) ;
#170=EDGE_LOOP('',(#171,#172,#173,#174)) ;
#201=EDGE_LOOP('',(#202,#203,#204,#205)) ;
#223=EDGE_LOOP('',(#224,#225,#226,#227)) ;
#235=EDGE_LOOP('',(#236,#237,#238,#239)) ;
#255=EDGE_LOOP('',(#256,#257)) ;
#259=EDGE_LOOP('',(#260,#261)) ;
#269=EDGE_LOOP('',(#270,#271,#272,#273)) ;
#289=EDGE_LOOP('',(#290,#291)) ;
#293=EDGE_LOOP('',(#294,#295)) ;
#313=EDGE_LOOP('',(#314,#315,#316,#317)) ;
#320=EDGE_LOOP('',(#321,#322,#323,#324)) ;
#87=FACE_OUTER_BOUND('',#82,.T.) ;
#104=FACE_OUTER_BOUND('',#99,.T.) ;
#144=FACE_OUTER_BOUND('',#139,.T.) ;
#175=FACE_OUTER_BOUND('',#170,.T.) ;
#206=FACE_OUTER_BOUND('',#201,.T.) ;
#228=FACE_OUTER_BOUND('',#223,.T.) ;
#240=FACE_OUTER_BOUND('',#235,.T.) ;
#274=FACE_OUTER_BOUND('',#269,.T.) ;
#318=FACE_OUTER_BOUND('',#313,.T.) ;
#325=FACE_OUTER_BOUND('',#320,.T.) ;
#66=LINE('Line',#63,#65) ;
#80=LINE('Line',#77,#79) ;
#114=LINE('Line',#111,#113) ;
#123=LINE('Line',#120,#122) ;
#130=LINE('Line',#127,#129) ;
#137=LINE('Line',#134,#136) ;
#154=LINE('Line',#151,#153) ;
#163=LINE('Line',#160,#162) ;
#168=LINE('Line',#165,#167) ;
#185=LINE('Line',#182,#184) ;
#194=LINE('Line',#191,#193) ;
#199=LINE('Line',#196,#198) ;
#216=LINE('Line',#213,#215) ;
#221=LINE('Line',#218,#220) ;
#306=LINE('Line',#303,#305) ;
#311=LINE('Line',#308,#310) ;
#25=PLANE('Referenz_xy',#24) ;
#32=PLANE('Referenz_yz',#31) ;
#37=PLANE('Referenz_xz',#36) ;
#110=PLANE('',#109) ;
#150=PLANE('',#149) ;
#181=PLANE('',#180) ;
#212=PLANE('',#211) ;
#234=PLANE('',#233) ;
#268=PLANE('',#267) ;
#9=PRODUCT_CATEGORY_RELATIONSHIP(' ',' ',#7,#8) ;
#6=PRODUCT_DEFINITION_FORMATION_WITH_SPECIFIED_SOURCE('',' ',#5,.NOT_KNOWN.) ;
#20=SHAPE_DEFINITION_REPRESENTATION(#11,#19) ;
#59=VERTEX_POINT('',#58) ;
#61=VERTEX_POINT('',#60) ;
#68=VERTEX_POINT('',#67) ;
#75=VERTEX_POINT('',#74) ;
#116=VERTEX_POINT('',#115) ;
#118=VERTEX_POINT('',#117) ;
#125=VERTEX_POINT('',#124) ;
#132=VERTEX_POINT('',#131) ;
#156=VERTEX_POINT('',#155) ;
#158=VERTEX_POINT('',#157) ;
#187=VERTEX_POINT('',#186) ;
#189=VERTEX_POINT('',#188) ;
#246=VERTEX_POINT('',#245) ;
#248=VERTEX_POINT('',#247) ;
#280=VERTEX_POINT('',#279) ;
#282=VERTEX_POINT('',#281) ;
#12=(LENGTH_UNIT()NAMED_UNIT(*)SI_UNIT(.MILLI.,.METRE.)) ;
#13=(NAMED_UNIT(*)PLANE_ANGLE_UNIT()SI_UNIT($,.RADIAN.)) ;
#14=(NAMED_UNIT(*)SI_UNIT($,.STERADIAN.)SOLID_ANGLE_UNIT()) ;
#16=(GEOMETRIC_REPRESENTATION_CONTEXT(3)GLOBAL_UNCERTAINTY_ASSIGNED_CONTEXT((#15))GLOBAL_UNIT_ASSIGNED_CONTEXT((#12,#13,#14))REPRESENTATION_CONTEXT(' ',' ')) ;
ENDSEC;
END-ISO-10303-21;
