ISO-10303-21;
HEADER;
FILE_DESCRIPTION(('CATIA V5 STEP Exchange','CAx-IF Rec.Pracs.--- Model Styling and Organization---1.4--- 2014-01-23'),'2;1');

FILE_NAME ('008228-2_1', '2019-11-20T14:38:06+00:00', ('none'), ('Weidmueller'), 'CATIA Version 5-6 Release 2016 SP3 HF44', 'CATIA V5 STEP AP214', 'none');

FILE_SCHEMA(('AUTOMOTIVE_DESIGN { 1 0 10303 214 1 1 1 1 }'));

ENDSEC;
DATA;
#5=PRODUCT('1170230000','','',(#2)) ;
#2=PRODUCT_CONTEXT(' ',#1,'mechanical') ;
#1=APPLICATION_CONTEXT('automotive design') ;
#10=PRODUCT_DEFINITION('',' ',#6,#3) ;
#3=PRODUCT_DEFINITION_CONTEXT('part definition',#1,' ') ;
#11=PRODUCT_DEFINITION_SHAPE(' ',' ',#10) ;
#537=MECHANICAL_DESIGN_GEOMETRIC_PRESENTATION_REPRESENTATION(' ',(#29),#16) ;
#19=SHAPE_REPRESENTATION(' ',(#18),#16) ;
#18=AXIS2_PLACEMENT_3D(' ',#17,$,$) ;
#34=AXIS2_PLACEMENT_3D('Cylinder Axis2P3D',#31,#32,#33) ;
#38=AXIS2_PLACEMENT_3D('Circle Axis2P3D',#36,#37,$) ;
#54=AXIS2_PLACEMENT_3D('Circle Axis2P3D',#52,#53,$) ;
#74=AXIS2_PLACEMENT_3D('Plane Axis2P3D',#71,#72,#73) ;
#167=AXIS2_PLACEMENT_3D('Cylinder Axis2P3D',#164,#165,#166) ;
#171=AXIS2_PLACEMENT_3D('Circle Axis2P3D',#169,#170,$) ;
#184=AXIS2_PLACEMENT_3D('Plane Axis2P3D',#181,#182,#183) ;
#194=AXIS2_PLACEMENT_3D('Cylinder Axis2P3D',#191,#192,#193) ;
#205=AXIS2_PLACEMENT_3D('Circle Axis2P3D',#203,#204,$) ;
#225=AXIS2_PLACEMENT_3D('Cylinder Axis2P3D',#222,#223,#224) ;
#248=AXIS2_PLACEMENT_3D('Plane Axis2P3D',#245,#246,#247) ;
#256=AXIS2_PLACEMENT_3D('Circle Axis2P3D',#254,#255,$) ;
#265=AXIS2_PLACEMENT_3D('Circle Axis2P3D',#263,#264,$) ;
#276=AXIS2_PLACEMENT_3D('Cylinder Axis2P3D',#273,#274,#275) ;
#287=AXIS2_PLACEMENT_3D('Circle Axis2P3D',#285,#286,$) ;
#307=AXIS2_PLACEMENT_3D('Cylinder Axis2P3D',#304,#305,#306) ;
#330=AXIS2_PLACEMENT_3D('Cone Axis2P3D',#327,#328,#329) ;
#341=AXIS2_PLACEMENT_3D('Circle Axis2P3D',#339,#340,$) ;
#361=AXIS2_PLACEMENT_3D('Cone Axis2P3D',#358,#359,#360) ;
#365=AXIS2_PLACEMENT_3D('Circle Axis2P3D',#363,#364,$) ;
#378=AXIS2_PLACEMENT_3D('Cylinder Axis2P3D',#375,#376,#377) ;
#389=AXIS2_PLACEMENT_3D('Circle Axis2P3D',#387,#388,$) ;
#409=AXIS2_PLACEMENT_3D('Cylinder Axis2P3D',#406,#407,#408) ;
#432=AXIS2_PLACEMENT_3D('Cone Axis2P3D',#429,#430,#431) ;
#443=AXIS2_PLACEMENT_3D('Circle Axis2P3D',#441,#442,$) ;
#463=AXIS2_PLACEMENT_3D('Cone Axis2P3D',#460,#461,#462) ;
#467=AXIS2_PLACEMENT_3D('Circle Axis2P3D',#465,#466,$) ;
#480=AXIS2_PLACEMENT_3D('Cylinder Axis2P3D',#477,#478,#479) ;
#491=AXIS2_PLACEMENT_3D('Circle Axis2P3D',#489,#490,$) ;
#511=AXIS2_PLACEMENT_3D('Cylinder Axis2P3D',#508,#509,#510) ;
#515=AXIS2_PLACEMENT_3D('Circle Axis2P3D',#513,#514,$) ;
#528=AXIS2_PLACEMENT_3D('Plane Axis2P3D',#525,#526,#527) ;
#17=CARTESIAN_POINT(' ',(0.,0.,0.)) ;
#31=CARTESIAN_POINT('Axis2P3D Location',(1.2,1.2,17.)) ;
#36=CARTESIAN_POINT('Axis2P3D Location',(1.2,1.2,-1.06581410364E-014)) ;
#40=CARTESIAN_POINT('Vertex',(1.2,1.95,-1.06581410364E-014)) ;
#42=CARTESIAN_POINT('Vertex',(1.2,0.45,-1.06581410364E-014)) ;
#45=CARTESIAN_POINT('Line Origine',(1.2,1.95,17.)) ;
#49=CARTESIAN_POINT('Vertex',(1.2,1.95,7.)) ;
#52=CARTESIAN_POINT('Axis2P3D Location',(1.2,1.2,7.)) ;
#56=CARTESIAN_POINT('Vertex',(1.2,0.45,7.)) ;
#59=CARTESIAN_POINT('Line Origine',(1.2,0.45,17.)) ;
#71=CARTESIAN_POINT('Axis2P3D Location',(2.2,1.2,0.)) ;
#77=CARTESIAN_POINT('Control Point',(1.2,0.2,0.)) ;
#78=CARTESIAN_POINT('Control Point',(1.29797855681,0.2,0.)) ;
#79=CARTESIAN_POINT('Control Point',(1.39595668937,0.211999746984,0.)) ;
#80=CARTESIAN_POINT('Control Point',(1.49198034652,0.236002419891,0.)) ;
#81=CARTESIAN_POINT('Control Point',(1.67618252637,0.307030969349,0.)) ;
#82=CARTESIAN_POINT('Control Point',(1.83779796501,0.420412108812,0.)) ;
#83=CARTESIAN_POINT('Control Point',(1.91123329188,0.486774185723,0.)) ;
#84=CARTESIAN_POINT('Control Point',(2.04034829324,0.636122145822,0.)) ;
#85=CARTESIAN_POINT('Control Point',(2.12960477549,0.812213349576,0.)) ;
#86=CARTESIAN_POINT('Control Point',(2.1631769691,0.905323934557,0.)) ;
#87=CARTESIAN_POINT('Control Point',(2.20683200961,1.09785895605,0.)) ;
#88=CARTESIAN_POINT('Control Point',(2.20273299981,1.29523684264,0.)) ;
#89=CARTESIAN_POINT('Control Point',(2.18854459464,1.39319275575,0.)) ;
#90=CARTESIAN_POINT('Control Point',(2.13647033878,1.58362324251,0.)) ;
#91=CARTESIAN_POINT('Control Point',(2.03998007875,1.75585698794,0.)) ;
#92=CARTESIAN_POINT('Control Point',(1.98136873771,1.83561525552,0.)) ;
#93=CARTESIAN_POINT('Control Point',(1.84581503995,1.97914467358,0.)) ;
#94=CARTESIAN_POINT('Control Point',(1.67963172796,2.08571831267,0.)) ;
#95=CARTESIAN_POINT('Control Point',(1.59038507443,2.12851674793,0.)) ;
#96=CARTESIAN_POINT('Control Point',(1.45822255235,2.17291189844,0.)) ;
#97=CARTESIAN_POINT('Control Point',(1.32125338294,2.19385653322,0.)) ;
#98=CARTESIAN_POINT('Control Point',(1.2808132256,2.1979591357,0.)) ;
#99=CARTESIAN_POINT('Control Point',(1.24040657672,2.2,0.)) ;
#100=CARTESIAN_POINT('Control Point',(1.2,2.2,0.)) ;
#101=CARTESIAN_POINT('Vertex',(1.2,0.2,-1.06581410364E-014)) ;
#103=CARTESIAN_POINT('Vertex',(1.2,2.2,-1.06581410364E-014)) ;
#107=CARTESIAN_POINT('Control Point',(1.2,2.2,0.)) ;
#108=CARTESIAN_POINT('Control Point',(1.10202144319,2.2,0.)) ;
#109=CARTESIAN_POINT('Control Point',(1.00404331063,2.18800025302,0.)) ;
#110=CARTESIAN_POINT('Control Point',(0.90801965348,2.16399758011,0.)) ;
#111=CARTESIAN_POINT('Control Point',(0.723817473629,2.09296903065,0.)) ;
#112=CARTESIAN_POINT('Control Point',(0.562202034992,1.97958789119,0.)) ;
#113=CARTESIAN_POINT('Control Point',(0.488766708115,1.91322581428,0.)) ;
#114=CARTESIAN_POINT('Control Point',(0.359651706759,1.76387785418,0.)) ;
#115=CARTESIAN_POINT('Control Point',(0.270395224511,1.58778665042,0.)) ;
#116=CARTESIAN_POINT('Control Point',(0.236823030904,1.49467606544,0.)) ;
#117=CARTESIAN_POINT('Control Point',(0.193167990389,1.30214104395,0.)) ;
#118=CARTESIAN_POINT('Control Point',(0.197267000189,1.10476315736,0.)) ;
#119=CARTESIAN_POINT('Control Point',(0.21145540536,1.00680724425,0.)) ;
#120=CARTESIAN_POINT('Control Point',(0.263529661221,0.81637675749,0.)) ;
#121=CARTESIAN_POINT('Control Point',(0.360019921246,0.644143012057,0.)) ;
#122=CARTESIAN_POINT('Control Point',(0.41863126229,0.564384744485,0.)) ;
#123=CARTESIAN_POINT('Control Point',(0.554184960051,0.420855326421,0.)) ;
#124=CARTESIAN_POINT('Control Point',(0.720368272043,0.314281687334,0.)) ;
#125=CARTESIAN_POINT('Control Point',(0.809614925572,0.271483252075,0.)) ;
#126=CARTESIAN_POINT('Control Point',(0.94177744765,0.227088101561,0.)) ;
#127=CARTESIAN_POINT('Control Point',(1.07874661706,0.206143466779,0.)) ;
#128=CARTESIAN_POINT('Control Point',(1.1191867744,0.202040864301,0.)) ;
#129=CARTESIAN_POINT('Control Point',(1.15959342328,0.2,0.)) ;
#130=CARTESIAN_POINT('Control Point',(1.2,0.2,0.)) ;
#137=CARTESIAN_POINT('Control Point',(1.2,0.45,0.)) ;
#138=CARTESIAN_POINT('Control Point',(1.28485127083,0.45,0.)) ;
#139=CARTESIAN_POINT('Control Point',(1.36970197599,0.461999563584,0.)) ;
#140=CARTESIAN_POINT('Control Point',(1.45229724533,0.486004279012,0.)) ;
#141=CARTESIAN_POINT('Control Point',(1.60842812315,0.556703953187,0.)) ;
#142=CARTESIAN_POINT('Control Point',(1.73883028585,0.667923569056,0.)) ;
#143=CARTESIAN_POINT('Control Point',(1.79569258222,0.732459481402,0.)) ;
#144=CARTESIAN_POINT('Control Point',(1.88960696935,0.875830965646,0.)) ;
#145=CARTESIAN_POINT('Control Point',(1.94008215506,1.03961979997,0.)) ;
#146=CARTESIAN_POINT('Control Point',(1.95349562496,1.12458028734,0.)) ;
#147=CARTESIAN_POINT('Control Point',(1.95593382101,1.29595516715,0.)) ;
#148=CARTESIAN_POINT('Control Point',(1.91075612434,1.46128363415,0.)) ;
#149=CARTESIAN_POINT('Control Point',(1.87654170043,1.54019864261,0.)) ;
#150=CARTESIAN_POINT('Control Point',(1.78674406857,1.68618384687,0.)) ;
#151=CARTESIAN_POINT('Control Point',(1.65998892456,1.80154267861,0.)) ;
#152=CARTESIAN_POINT('Control Point',(1.58880635924,1.84982567247,0.)) ;
#153=CARTESIAN_POINT('Control Point',(1.46922125062,1.90813141855,0.)) ;
#154=CARTESIAN_POINT('Control Point',(1.34072755149,1.93892192473,0.)) ;
#155=CARTESIAN_POINT('Control Point',(1.29375830643,1.94633725515,0.)) ;
#156=CARTESIAN_POINT('Control Point',(1.24687906689,1.95,0.)) ;
#157=CARTESIAN_POINT('Control Point',(1.2,1.95,0.)) ;
#164=CARTESIAN_POINT('Axis2P3D Location',(1.2,1.2,17.)) ;
#169=CARTESIAN_POINT('Axis2P3D Location',(1.2,1.2,7.)) ;
#181=CARTESIAN_POINT('Axis2P3D Location',(1.95,1.2,7.)) ;
#191=CARTESIAN_POINT('Axis2P3D Location',(1.2,1.2,17.)) ;
#196=CARTESIAN_POINT('Line Origine',(1.2,2.2,17.)) ;
#200=CARTESIAN_POINT('Vertex',(1.2,2.2,9.80000000075)) ;
#203=CARTESIAN_POINT('Axis2P3D Location',(1.2,1.2,9.80000000075)) ;
#207=CARTESIAN_POINT('Vertex',(1.2,0.2,9.80000000075)) ;
#210=CARTESIAN_POINT('Line Origine',(1.2,0.2,17.)) ;
#222=CARTESIAN_POINT('Axis2P3D Location',(1.2,1.2,17.)) ;
#228=CARTESIAN_POINT('Control Point',(1.2,2.2,9.8)) ;
#229=CARTESIAN_POINT('Control Point',(0.885840734641,2.2,9.80000000007)) ;
#230=CARTESIAN_POINT('Control Point',(0.571681469282,2.07662994499,9.80000000015)) ;
#231=CARTESIAN_POINT('Control Point',(0.323370055014,1.82831853072,9.80000000022)) ;
#232=CARTESIAN_POINT('Control Point',(0.0766299449864,1.2,9.80000000037)) ;
#233=CARTESIAN_POINT('Control Point',(0.323370055014,0.571681469282,9.80000000052)) ;
#234=CARTESIAN_POINT('Control Point',(0.571681469282,0.323370055014,9.8000000006)) ;
#235=CARTESIAN_POINT('Control Point',(0.885840734641,0.2,9.80000000067)) ;
#236=CARTESIAN_POINT('Control Point',(1.2,0.2,9.80000000075)) ;
#245=CARTESIAN_POINT('Axis2P3D Location',(1.95,1.2,9.8)) ;
#254=CARTESIAN_POINT('Axis2P3D Location',(1.2,1.2,9.8)) ;
#258=CARTESIAN_POINT('Vertex',(1.2,0.45,9.80000000075)) ;
#260=CARTESIAN_POINT('Vertex',(1.2,1.95,9.80000000075)) ;
#263=CARTESIAN_POINT('Axis2P3D Location',(1.2,1.2,9.8)) ;
#273=CARTESIAN_POINT('Axis2P3D Location',(1.2,1.2,17.)) ;
#278=CARTESIAN_POINT('Line Origine',(1.2,1.95,17.)) ;
#282=CARTESIAN_POINT('Vertex',(1.2,1.95,11.3000000007)) ;
#285=CARTESIAN_POINT('Axis2P3D Location',(1.2,1.2,11.3000000007)) ;
#289=CARTESIAN_POINT('Vertex',(1.2,0.45,11.3000000007)) ;
#292=CARTESIAN_POINT('Line Origine',(1.2,0.45,17.)) ;
#304=CARTESIAN_POINT('Axis2P3D Location',(1.2,1.2,17.)) ;
#310=CARTESIAN_POINT('Control Point',(1.2,1.95,11.3)) ;
#311=CARTESIAN_POINT('Control Point',(0.964380550981,1.95,11.3000000001)) ;
#312=CARTESIAN_POINT('Control Point',(0.728761101962,1.85747245874,11.3000000001)) ;
#313=CARTESIAN_POINT('Control Point',(0.54252754126,1.67123889804,11.3000000002)) ;
#314=CARTESIAN_POINT('Control Point',(0.35747245874,1.2,11.3000000004)) ;
#315=CARTESIAN_POINT('Control Point',(0.54252754126,0.728761101962,11.3000000005)) ;
#316=CARTESIAN_POINT('Control Point',(0.728761101962,0.54252754126,11.3000000006)) ;
#317=CARTESIAN_POINT('Control Point',(0.964380550981,0.45,11.3000000007)) ;
#318=CARTESIAN_POINT('Control Point',(1.2,0.45,11.3000000007)) ;
#327=CARTESIAN_POINT('Axis2P3D Location',(1.2,1.2,11.55)) ;
#332=CARTESIAN_POINT('Line Origine',(1.20000000004,353555.090593,353564.440593)) ;
#336=CARTESIAN_POINT('Vertex',(1.2,2.2,11.55)) ;
#339=CARTESIAN_POINT('Axis2P3D Location',(1.2,1.2,11.55)) ;
#343=CARTESIAN_POINT('Vertex',(1.2,0.2,11.55)) ;
#346=CARTESIAN_POINT('Line Origine',(1.2,-353552.690593,353564.440593)) ;
#358=CARTESIAN_POINT('Axis2P3D Location',(1.2,1.2,11.55)) ;
#363=CARTESIAN_POINT('Axis2P3D Location',(1.2,1.2,11.55)) ;
#375=CARTESIAN_POINT('Axis2P3D Location',(1.2,1.2,17.)) ;
#380=CARTESIAN_POINT('Line Origine',(1.2,2.2,17.)) ;
#384=CARTESIAN_POINT('Vertex',(1.2,2.2,14.3000000007)) ;
#387=CARTESIAN_POINT('Axis2P3D Location',(1.2,1.2,14.3000000007)) ;
#391=CARTESIAN_POINT('Vertex',(1.2,0.2,14.3000000007)) ;
#394=CARTESIAN_POINT('Line Origine',(1.2,0.2,17.)) ;
#406=CARTESIAN_POINT('Axis2P3D Location',(1.2,1.2,17.)) ;
#412=CARTESIAN_POINT('Control Point',(1.2,2.2,14.3)) ;
#413=CARTESIAN_POINT('Control Point',(0.885840734641,2.2,14.3000000001)) ;
#414=CARTESIAN_POINT('Control Point',(0.571681469282,2.07662994499,14.3000000001)) ;
#415=CARTESIAN_POINT('Control Point',(0.323370055014,1.82831853072,14.3000000002)) ;
#416=CARTESIAN_POINT('Control Point',(0.0766299449864,1.2,14.3000000004)) ;
#417=CARTESIAN_POINT('Control Point',(0.323370055014,0.571681469282,14.3000000005)) ;
#418=CARTESIAN_POINT('Control Point',(0.571681469282,0.323370055014,14.3000000006)) ;
#419=CARTESIAN_POINT('Control Point',(0.885840734641,0.2,14.3000000007)) ;
#420=CARTESIAN_POINT('Control Point',(1.2,0.2,14.3000000007)) ;
#429=CARTESIAN_POINT('Axis2P3D Location',(1.2,1.2,14.5)) ;
#434=CARTESIAN_POINT('Line Origine',(1.20000000004,353555.190593,353567.290593)) ;
#438=CARTESIAN_POINT('Vertex',(1.2,2.4,14.5)) ;
#441=CARTESIAN_POINT('Axis2P3D Location',(1.2,1.2,14.5)) ;
#445=CARTESIAN_POINT('Vertex',(1.2,3.10862446895E-015,14.5)) ;
#448=CARTESIAN_POINT('Line Origine',(1.2,-353552.790593,353567.290593)) ;
#460=CARTESIAN_POINT('Axis2P3D Location',(1.2,1.2,14.5)) ;
#465=CARTESIAN_POINT('Axis2P3D Location',(1.2,1.2,14.5)) ;
#477=CARTESIAN_POINT('Axis2P3D Location',(1.2,1.2,17.)) ;
#482=CARTESIAN_POINT('Line Origine',(1.2,2.4,17.)) ;
#486=CARTESIAN_POINT('Vertex',(1.2,2.4,17.)) ;
#489=CARTESIAN_POINT('Axis2P3D Location',(1.2,1.2,17.)) ;
#493=CARTESIAN_POINT('Vertex',(1.2,8.881784197E-016,17.)) ;
#496=CARTESIAN_POINT('Line Origine',(1.2,8.881784197E-016,17.)) ;
#508=CARTESIAN_POINT('Axis2P3D Location',(1.2,1.2,17.)) ;
#513=CARTESIAN_POINT('Axis2P3D Location',(1.2,1.2,17.)) ;
#525=CARTESIAN_POINT('Axis2P3D Location',(1.2,1.2,17.)) ;
#32=DIRECTION('Axis2P3D Direction',(-0.,0.,1.)) ;
#33=DIRECTION('Axis2P3D XDirection',(1.22464679915E-016,1.,0.)) ;
#37=DIRECTION('Axis2P3D Direction',(-0.,0.,1.)) ;
#46=DIRECTION('Vector Direction',(0.,0.,1.)) ;
#53=DIRECTION('Axis2P3D Direction',(-0.,0.,1.)) ;
#60=DIRECTION('Vector Direction',(0.,0.,1.)) ;
#72=DIRECTION('Axis2P3D Direction',(0.,0.,-1.)) ;
#73=DIRECTION('Axis2P3D XDirection',(0.,1.,0.)) ;
#165=DIRECTION('Axis2P3D Direction',(-0.,0.,1.)) ;
#166=DIRECTION('Axis2P3D XDirection',(0.,-1.,0.)) ;
#170=DIRECTION('Axis2P3D Direction',(-0.,0.,1.)) ;
#182=DIRECTION('Axis2P3D Direction',(0.,0.,-1.)) ;
#183=DIRECTION('Axis2P3D XDirection',(0.,1.,0.)) ;
#192=DIRECTION('Axis2P3D Direction',(-0.,0.,1.)) ;
#193=DIRECTION('Axis2P3D XDirection',(0.,-1.,0.)) ;
#197=DIRECTION('Vector Direction',(0.,0.,1.)) ;
#204=DIRECTION('Axis2P3D Direction',(-0.,0.,1.)) ;
#211=DIRECTION('Vector Direction',(0.,0.,1.)) ;
#223=DIRECTION('Axis2P3D Direction',(-0.,0.,1.)) ;
#224=DIRECTION('Axis2P3D XDirection',(1.22464679915E-016,1.,0.)) ;
#246=DIRECTION('Axis2P3D Direction',(-0.,0.,1.)) ;
#247=DIRECTION('Axis2P3D XDirection',(0.,-1.,0.)) ;
#255=DIRECTION('Axis2P3D Direction',(-0.,0.,1.)) ;
#264=DIRECTION('Axis2P3D Direction',(-0.,0.,1.)) ;
#274=DIRECTION('Axis2P3D Direction',(-0.,0.,1.)) ;
#275=DIRECTION('Axis2P3D XDirection',(0.,-1.,0.)) ;
#279=DIRECTION('Vector Direction',(0.,0.,1.)) ;
#286=DIRECTION('Axis2P3D Direction',(-0.,0.,1.)) ;
#293=DIRECTION('Vector Direction',(0.,0.,1.)) ;
#305=DIRECTION('Axis2P3D Direction',(-0.,0.,1.)) ;
#306=DIRECTION('Axis2P3D XDirection',(1.22464679915E-016,1.,0.)) ;
#328=DIRECTION('Axis2P3D Direction',(0.,0.,1.)) ;
#329=DIRECTION('Axis2P3D XDirection',(0.,-1.,0.)) ;
#333=DIRECTION('Vector Direction',(8.65954970994E-017,0.707106781187,0.707106781187)) ;
#340=DIRECTION('Axis2P3D Direction',(-0.,0.,1.)) ;
#347=DIRECTION('Vector Direction',(0.,-0.707106781187,0.707106781187)) ;
#359=DIRECTION('Axis2P3D Direction',(0.,0.,1.)) ;
#360=DIRECTION('Axis2P3D XDirection',(1.2246468231E-016,1.,0.)) ;
#364=DIRECTION('Axis2P3D Direction',(-0.,0.,1.)) ;
#376=DIRECTION('Axis2P3D Direction',(-0.,0.,1.)) ;
#377=DIRECTION('Axis2P3D XDirection',(0.,-1.,0.)) ;
#381=DIRECTION('Vector Direction',(0.,0.,1.)) ;
#388=DIRECTION('Axis2P3D Direction',(-0.,0.,1.)) ;
#395=DIRECTION('Vector Direction',(0.,0.,1.)) ;
#407=DIRECTION('Axis2P3D Direction',(-0.,0.,1.)) ;
#408=DIRECTION('Axis2P3D XDirection',(1.22464679915E-016,1.,0.)) ;
#430=DIRECTION('Axis2P3D Direction',(0.,0.,1.)) ;
#431=DIRECTION('Axis2P3D XDirection',(0.,-1.,0.)) ;
#435=DIRECTION('Vector Direction',(8.65956946508E-017,0.707106781187,0.707106781187)) ;
#442=DIRECTION('Axis2P3D Direction',(-0.,0.,1.)) ;
#449=DIRECTION('Vector Direction',(0.,-0.707106781187,0.707106781187)) ;
#461=DIRECTION('Axis2P3D Direction',(0.,0.,1.)) ;
#462=DIRECTION('Axis2P3D XDirection',(1.22464678846E-016,1.,0.)) ;
#466=DIRECTION('Axis2P3D Direction',(-0.,0.,1.)) ;
#478=DIRECTION('Axis2P3D Direction',(-0.,0.,1.)) ;
#479=DIRECTION('Axis2P3D XDirection',(0.,-1.,0.)) ;
#483=DIRECTION('Vector Direction',(0.,0.,1.)) ;
#490=DIRECTION('Axis2P3D Direction',(-0.,0.,1.)) ;
#497=DIRECTION('Vector Direction',(0.,0.,1.)) ;
#509=DIRECTION('Axis2P3D Direction',(-0.,0.,1.)) ;
#510=DIRECTION('Axis2P3D XDirection',(1.22464679915E-016,1.,0.)) ;
#514=DIRECTION('Axis2P3D Direction',(-0.,0.,1.)) ;
#526=DIRECTION('Axis2P3D Direction',(-0.,0.,1.)) ;
#527=DIRECTION('Axis2P3D XDirection',(0.,-1.,0.)) ;
#8=PRODUCT_RELATED_PRODUCT_CATEGORY('part',$,(#5)) ;
#7=PRODUCT_CATEGORY('part','specification') ;
#29=STYLED_ITEM(' ',(#28),#21) ;
#28=PRESENTATION_STYLE_ASSIGNMENT((#27)) ;
#27=SURFACE_STYLE_USAGE(.BOTH.,#26) ;
#26=SURFACE_SIDE_STYLE(' ',(#25)) ;
#25=SURFACE_STYLE_FILL_AREA(#24) ;
#24=FILL_AREA_STYLE(' ',(#23)) ;
#23=FILL_AREA_STYLE_COLOUR(' ',#22) ;
#47=VECTOR('Line Direction',#46,1.) ;
#61=VECTOR('Line Direction',#60,1.) ;
#198=VECTOR('Line Direction',#197,1.) ;
#212=VECTOR('Line Direction',#211,1.) ;
#280=VECTOR('Line Direction',#279,1.) ;
#294=VECTOR('Line Direction',#293,1.) ;
#334=VECTOR('Line Direction',#333,1.) ;
#348=VECTOR('Line Direction',#347,1.) ;
#382=VECTOR('Line Direction',#381,1.) ;
#396=VECTOR('Line Direction',#395,1.) ;
#436=VECTOR('Line Direction',#435,1.) ;
#450=VECTOR('Line Direction',#449,1.) ;
#484=VECTOR('Line Direction',#483,1.) ;
#498=VECTOR('Line Direction',#497,1.) ;
#15=UNCERTAINTY_MEASURE_WITH_UNIT(LENGTH_MEASURE(0.005),#12,'distance_accuracy_value','CONFUSED CURVE UNCERTAINTY') ;
#536=SHAPE_REPRESENTATION_RELATIONSHIP(' ',' ',#19,#535) ;
#65=ORIENTED_EDGE('',*,*,#44,.F.) ;
#66=ORIENTED_EDGE('',*,*,#51,.T.) ;
#67=ORIENTED_EDGE('',*,*,#58,.T.) ;
#68=ORIENTED_EDGE('',*,*,#63,.F.) ;
#133=ORIENTED_EDGE('',*,*,#105,.F.) ;
#134=ORIENTED_EDGE('',*,*,#131,.F.) ;
#160=ORIENTED_EDGE('',*,*,#158,.T.) ;
#161=ORIENTED_EDGE('',*,*,#44,.T.) ;
#175=ORIENTED_EDGE('',*,*,#51,.F.) ;
#176=ORIENTED_EDGE('',*,*,#158,.F.) ;
#177=ORIENTED_EDGE('',*,*,#63,.T.) ;
#178=ORIENTED_EDGE('',*,*,#173,.T.) ;
#187=ORIENTED_EDGE('',*,*,#173,.F.) ;
#188=ORIENTED_EDGE('',*,*,#58,.F.) ;
#216=ORIENTED_EDGE('',*,*,#105,.T.) ;
#217=ORIENTED_EDGE('',*,*,#202,.T.) ;
#218=ORIENTED_EDGE('',*,*,#209,.F.) ;
#219=ORIENTED_EDGE('',*,*,#214,.F.) ;
#239=ORIENTED_EDGE('',*,*,#202,.F.) ;
#240=ORIENTED_EDGE('',*,*,#131,.T.) ;
#241=ORIENTED_EDGE('',*,*,#214,.T.) ;
#242=ORIENTED_EDGE('',*,*,#237,.F.) ;
#251=ORIENTED_EDGE('',*,*,#209,.T.) ;
#252=ORIENTED_EDGE('',*,*,#237,.T.) ;
#269=ORIENTED_EDGE('',*,*,#262,.F.) ;
#270=ORIENTED_EDGE('',*,*,#267,.F.) ;
#298=ORIENTED_EDGE('',*,*,#262,.T.) ;
#299=ORIENTED_EDGE('',*,*,#284,.T.) ;
#300=ORIENTED_EDGE('',*,*,#291,.F.) ;
#301=ORIENTED_EDGE('',*,*,#296,.F.) ;
#321=ORIENTED_EDGE('',*,*,#284,.F.) ;
#322=ORIENTED_EDGE('',*,*,#267,.T.) ;
#323=ORIENTED_EDGE('',*,*,#296,.T.) ;
#324=ORIENTED_EDGE('',*,*,#319,.F.) ;
#352=ORIENTED_EDGE('',*,*,#291,.T.) ;
#353=ORIENTED_EDGE('',*,*,#338,.T.) ;
#354=ORIENTED_EDGE('',*,*,#345,.F.) ;
#355=ORIENTED_EDGE('',*,*,#350,.F.) ;
#369=ORIENTED_EDGE('',*,*,#338,.F.) ;
#370=ORIENTED_EDGE('',*,*,#319,.T.) ;
#371=ORIENTED_EDGE('',*,*,#350,.T.) ;
#372=ORIENTED_EDGE('',*,*,#367,.F.) ;
#400=ORIENTED_EDGE('',*,*,#345,.T.) ;
#401=ORIENTED_EDGE('',*,*,#386,.T.) ;
#402=ORIENTED_EDGE('',*,*,#393,.F.) ;
#403=ORIENTED_EDGE('',*,*,#398,.F.) ;
#423=ORIENTED_EDGE('',*,*,#386,.F.) ;
#424=ORIENTED_EDGE('',*,*,#367,.T.) ;
#425=ORIENTED_EDGE('',*,*,#398,.T.) ;
#426=ORIENTED_EDGE('',*,*,#421,.F.) ;
#454=ORIENTED_EDGE('',*,*,#393,.T.) ;
#455=ORIENTED_EDGE('',*,*,#440,.T.) ;
#456=ORIENTED_EDGE('',*,*,#447,.F.) ;
#457=ORIENTED_EDGE('',*,*,#452,.F.) ;
#471=ORIENTED_EDGE('',*,*,#440,.F.) ;
#472=ORIENTED_EDGE('',*,*,#421,.T.) ;
#473=ORIENTED_EDGE('',*,*,#452,.T.) ;
#474=ORIENTED_EDGE('',*,*,#469,.F.) ;
#502=ORIENTED_EDGE('',*,*,#447,.T.) ;
#503=ORIENTED_EDGE('',*,*,#488,.T.) ;
#504=ORIENTED_EDGE('',*,*,#495,.F.) ;
#505=ORIENTED_EDGE('',*,*,#500,.F.) ;
#519=ORIENTED_EDGE('',*,*,#488,.F.) ;
#520=ORIENTED_EDGE('',*,*,#469,.T.) ;
#521=ORIENTED_EDGE('',*,*,#500,.T.) ;
#522=ORIENTED_EDGE('',*,*,#517,.F.) ;
#531=ORIENTED_EDGE('',*,*,#495,.T.) ;
#532=ORIENTED_EDGE('',*,*,#517,.T.) ;
#162=FACE_BOUND('',#159,.T.) ;
#271=FACE_BOUND('',#268,.T.) ;
#30=CLOSED_SHELL('Closed Shell',(#70,#163,#180,#190,#221,#244,#272,#303,#326,#357,#374,#405,#428,#459,#476,#507,#524,#534)) ;
#535=ADVANCED_BREP_SHAPE_REPRESENTATION('NONE',(#21),#16) ;
#70=ADVANCED_FACE('NONE',(#69),#35,.F.) ;
#163=ADVANCED_FACE('NONE',(#135,#162),#75,.T.) ;
#180=ADVANCED_FACE('NONE',(#179),#168,.F.) ;
#190=ADVANCED_FACE('NONE',(#189),#185,.T.) ;
#221=ADVANCED_FACE('NONE',(#220),#195,.T.) ;
#244=ADVANCED_FACE('NONE',(#243),#226,.T.) ;
#272=ADVANCED_FACE('NONE',(#253,#271),#249,.T.) ;
#303=ADVANCED_FACE('NONE',(#302),#277,.T.) ;
#326=ADVANCED_FACE('NONE',(#325),#308,.T.) ;
#357=ADVANCED_FACE('NONE',(#356),#331,.T.) ;
#374=ADVANCED_FACE('NONE',(#373),#362,.T.) ;
#405=ADVANCED_FACE('NONE',(#404),#379,.T.) ;
#428=ADVANCED_FACE('NONE',(#427),#410,.T.) ;
#459=ADVANCED_FACE('NONE',(#458),#433,.T.) ;
#476=ADVANCED_FACE('NONE',(#475),#464,.T.) ;
#507=ADVANCED_FACE('NONE',(#506),#481,.T.) ;
#524=ADVANCED_FACE('NONE',(#523),#512,.T.) ;
#534=ADVANCED_FACE('NONE',(#533),#529,.T.) ;
#4=APPLICATION_PROTOCOL_DEFINITION('international standard','automotive_design',2001,#1) ;
#76=B_SPLINE_CURVE_WITH_KNOTS('',5,(#77,#78,#79,#80,#81,#82,#83,#84,#85,#86,#87,#88,#89,#90,#91,#92,#93,#94,#95,#96,#97,#98,#99,#100),.UNSPECIFIED.,.F.,.U.,(6,3,3,3,3,3,3,6),(0.,0.692813019347,1.3856260256,2.07843902508,2.77125203691,3.46406506002,4.15687807886,4.44259572291),.UNSPECIFIED.) ;
#106=B_SPLINE_CURVE_WITH_KNOTS('',5,(#107,#108,#109,#110,#111,#112,#113,#114,#115,#116,#117,#118,#119,#120,#121,#122,#123,#124,#125,#126,#127,#128,#129,#130),.UNSPECIFIED.,.F.,.U.,(6,3,3,3,3,3,3,6),(0.,0.692813019346,1.3856260256,2.07843902508,2.77125203691,3.46406506002,4.15687807886,4.44259572291),.UNSPECIFIED.) ;
#136=B_SPLINE_CURVE_WITH_KNOTS('',5,(#137,#138,#139,#140,#141,#142,#143,#144,#145,#146,#147,#148,#149,#150,#151,#152,#153,#154,#155,#156,#157),.UNSPECIFIED.,.F.,.U.,(6,3,3,3,3,3,6),(0.,0.599989089944,1.19997818417,1.7999672671,2.39995635412,2.99994544341,3.33143050431),.UNSPECIFIED.) ;
#227=B_SPLINE_CURVE_WITH_KNOTS('',5,(#228,#229,#230,#231,#232,#233,#234,#235,#236),.UNSPECIFIED.,.F.,.U.,(6,3,6),(-1.57079632679,1.11022302463E-016,1.57079632679),.UNSPECIFIED.) ;
#309=B_SPLINE_CURVE_WITH_KNOTS('',5,(#310,#311,#312,#313,#314,#315,#316,#317,#318),.UNSPECIFIED.,.F.,.U.,(6,3,6),(-1.1780972451,1.11022302463E-016,1.1780972451),.UNSPECIFIED.) ;
#411=B_SPLINE_CURVE_WITH_KNOTS('',5,(#412,#413,#414,#415,#416,#417,#418,#419,#420),.UNSPECIFIED.,.F.,.U.,(6,3,6),(-1.57079632679,1.11022302463E-016,1.57079632679),.UNSPECIFIED.) ;
#21=MANIFOLD_SOLID_BREP('NONE',#30) ;
#39=CIRCLE('generated circle',#38,0.75) ;
#55=CIRCLE('generated circle',#54,0.75) ;
#172=CIRCLE('generated circle',#171,0.75) ;
#206=CIRCLE('generated circle',#205,1.) ;
#257=CIRCLE('generated circle',#256,0.75) ;
#266=CIRCLE('generated circle',#265,0.75) ;
#288=CIRCLE('generated circle',#287,0.75) ;
#342=CIRCLE('generated circle',#341,1.) ;
#366=CIRCLE('generated circle',#365,1.) ;
#390=CIRCLE('generated circle',#389,1.) ;
#444=CIRCLE('generated circle',#443,1.2) ;
#468=CIRCLE('generated circle',#467,1.2) ;
#492=CIRCLE('generated circle',#491,1.2) ;
#516=CIRCLE('generated circle',#515,1.2) ;
#22=COLOUR_RGB('Colour',0.827450980392,0.698039215686,0.490196078431) ;
#331=CONICAL_SURFACE('Cone',#330,1.,0.785398163397) ;
#362=CONICAL_SURFACE('Cone',#361,1.,0.785398163397) ;
#433=CONICAL_SURFACE('Cone',#432,1.2,0.785398163397) ;
#464=CONICAL_SURFACE('Cone',#463,1.2,0.785398163397) ;
#35=CYLINDRICAL_SURFACE('generated cylinder',#34,0.75) ;
#168=CYLINDRICAL_SURFACE('generated cylinder',#167,0.75) ;
#195=CYLINDRICAL_SURFACE('generated cylinder',#194,1.) ;
#226=CYLINDRICAL_SURFACE('generated cylinder',#225,1.) ;
#277=CYLINDRICAL_SURFACE('generated cylinder',#276,0.75) ;
#308=CYLINDRICAL_SURFACE('generated cylinder',#307,0.75) ;
#379=CYLINDRICAL_SURFACE('generated cylinder',#378,1.) ;
#410=CYLINDRICAL_SURFACE('generated cylinder',#409,1.) ;
#481=CYLINDRICAL_SURFACE('generated cylinder',#480,1.2) ;
#512=CYLINDRICAL_SURFACE('generated cylinder',#511,1.2) ;
#44=EDGE_CURVE('',#41,#43,#39,.T.) ;
#51=EDGE_CURVE('',#41,#50,#48,.T.) ;
#58=EDGE_CURVE('',#50,#57,#55,.T.) ;
#63=EDGE_CURVE('',#43,#57,#62,.T.) ;
#105=EDGE_CURVE('',#102,#104,#76,.T.) ;
#131=EDGE_CURVE('',#104,#102,#106,.T.) ;
#158=EDGE_CURVE('',#43,#41,#136,.T.) ;
#173=EDGE_CURVE('',#57,#50,#172,.T.) ;
#202=EDGE_CURVE('',#104,#201,#199,.T.) ;
#209=EDGE_CURVE('',#208,#201,#206,.T.) ;
#214=EDGE_CURVE('',#102,#208,#213,.T.) ;
#237=EDGE_CURVE('',#201,#208,#227,.T.) ;
#262=EDGE_CURVE('',#259,#261,#257,.T.) ;
#267=EDGE_CURVE('',#261,#259,#266,.T.) ;
#284=EDGE_CURVE('',#261,#283,#281,.T.) ;
#291=EDGE_CURVE('',#290,#283,#288,.T.) ;
#296=EDGE_CURVE('',#259,#290,#295,.T.) ;
#319=EDGE_CURVE('',#283,#290,#309,.T.) ;
#338=EDGE_CURVE('',#283,#337,#335,.T.) ;
#345=EDGE_CURVE('',#344,#337,#342,.T.) ;
#350=EDGE_CURVE('',#290,#344,#349,.T.) ;
#367=EDGE_CURVE('',#337,#344,#366,.T.) ;
#386=EDGE_CURVE('',#337,#385,#383,.T.) ;
#393=EDGE_CURVE('',#392,#385,#390,.T.) ;
#398=EDGE_CURVE('',#344,#392,#397,.T.) ;
#421=EDGE_CURVE('',#385,#392,#411,.T.) ;
#440=EDGE_CURVE('',#385,#439,#437,.T.) ;
#447=EDGE_CURVE('',#446,#439,#444,.T.) ;
#452=EDGE_CURVE('',#392,#446,#451,.T.) ;
#469=EDGE_CURVE('',#439,#446,#468,.T.) ;
#488=EDGE_CURVE('',#439,#487,#485,.T.) ;
#495=EDGE_CURVE('',#494,#487,#492,.T.) ;
#500=EDGE_CURVE('',#446,#494,#499,.T.) ;
#517=EDGE_CURVE('',#487,#494,#516,.T.) ;
#64=EDGE_LOOP('',(#65,#66,#67,#68)) ;
#132=EDGE_LOOP('',(#133,#134)) ;
#159=EDGE_LOOP('',(#160,#161)) ;
#174=EDGE_LOOP('',(#175,#176,#177,#178)) ;
#186=EDGE_LOOP('',(#187,#188)) ;
#215=EDGE_LOOP('',(#216,#217,#218,#219)) ;
#238=EDGE_LOOP('',(#239,#240,#241,#242)) ;
#250=EDGE_LOOP('',(#251,#252)) ;
#268=EDGE_LOOP('',(#269,#270)) ;
#297=EDGE_LOOP('',(#298,#299,#300,#301)) ;
#320=EDGE_LOOP('',(#321,#322,#323,#324)) ;
#351=EDGE_LOOP('',(#352,#353,#354,#355)) ;
#368=EDGE_LOOP('',(#369,#370,#371,#372)) ;
#399=EDGE_LOOP('',(#400,#401,#402,#403)) ;
#422=EDGE_LOOP('',(#423,#424,#425,#426)) ;
#453=EDGE_LOOP('',(#454,#455,#456,#457)) ;
#470=EDGE_LOOP('',(#471,#472,#473,#474)) ;
#501=EDGE_LOOP('',(#502,#503,#504,#505)) ;
#518=EDGE_LOOP('',(#519,#520,#521,#522)) ;
#530=EDGE_LOOP('',(#531,#532)) ;
#69=FACE_OUTER_BOUND('',#64,.T.) ;
#135=FACE_OUTER_BOUND('',#132,.T.) ;
#179=FACE_OUTER_BOUND('',#174,.T.) ;
#189=FACE_OUTER_BOUND('',#186,.T.) ;
#220=FACE_OUTER_BOUND('',#215,.T.) ;
#243=FACE_OUTER_BOUND('',#238,.T.) ;
#253=FACE_OUTER_BOUND('',#250,.T.) ;
#302=FACE_OUTER_BOUND('',#297,.T.) ;
#325=FACE_OUTER_BOUND('',#320,.T.) ;
#356=FACE_OUTER_BOUND('',#351,.T.) ;
#373=FACE_OUTER_BOUND('',#368,.T.) ;
#404=FACE_OUTER_BOUND('',#399,.T.) ;
#427=FACE_OUTER_BOUND('',#422,.T.) ;
#458=FACE_OUTER_BOUND('',#453,.T.) ;
#475=FACE_OUTER_BOUND('',#470,.T.) ;
#506=FACE_OUTER_BOUND('',#501,.T.) ;
#523=FACE_OUTER_BOUND('',#518,.T.) ;
#533=FACE_OUTER_BOUND('',#530,.T.) ;
#48=LINE('Line',#45,#47) ;
#62=LINE('Line',#59,#61) ;
#199=LINE('Line',#196,#198) ;
#213=LINE('Line',#210,#212) ;
#281=LINE('Line',#278,#280) ;
#295=LINE('Line',#292,#294) ;
#335=LINE('Line',#332,#334) ;
#349=LINE('Line',#346,#348) ;
#383=LINE('Line',#380,#382) ;
#397=LINE('Line',#394,#396) ;
#437=LINE('Line',#434,#436) ;
#451=LINE('Line',#448,#450) ;
#485=LINE('Line',#482,#484) ;
#499=LINE('Line',#496,#498) ;
#75=PLANE('',#74) ;
#185=PLANE('',#184) ;
#249=PLANE('',#248) ;
#529=PLANE('',#528) ;
#9=PRODUCT_CATEGORY_RELATIONSHIP(' ',' ',#7,#8) ;
#6=PRODUCT_DEFINITION_FORMATION_WITH_SPECIFIED_SOURCE('',' ',#5,.NOT_KNOWN.) ;
#20=SHAPE_DEFINITION_REPRESENTATION(#11,#19) ;
#41=VERTEX_POINT('',#40) ;
#43=VERTEX_POINT('',#42) ;
#50=VERTEX_POINT('',#49) ;
#57=VERTEX_POINT('',#56) ;
#102=VERTEX_POINT('',#101) ;
#104=VERTEX_POINT('',#103) ;
#201=VERTEX_POINT('',#200) ;
#208=VERTEX_POINT('',#207) ;
#259=VERTEX_POINT('',#258) ;
#261=VERTEX_POINT('',#260) ;
#283=VERTEX_POINT('',#282) ;
#290=VERTEX_POINT('',#289) ;
#337=VERTEX_POINT('',#336) ;
#344=VERTEX_POINT('',#343) ;
#385=VERTEX_POINT('',#384) ;
#392=VERTEX_POINT('',#391) ;
#439=VERTEX_POINT('',#438) ;
#446=VERTEX_POINT('',#445) ;
#487=VERTEX_POINT('',#486) ;
#494=VERTEX_POINT('',#493) ;
#12=(LENGTH_UNIT()NAMED_UNIT(*)SI_UNIT(.MILLI.,.METRE.)) ;
#13=(NAMED_UNIT(*)PLANE_ANGLE_UNIT()SI_UNIT($,.RADIAN.)) ;
#14=(NAMED_UNIT(*)SI_UNIT($,.STERADIAN.)SOLID_ANGLE_UNIT()) ;
#16=(GEOMETRIC_REPRESENTATION_CONTEXT(3)GLOBAL_UNCERTAINTY_ASSIGNED_CONTEXT((#15))GLOBAL_UNIT_ASSIGNED_CONTEXT((#12,#13,#14))REPRESENTATION_CONTEXT(' ',' ')) ;
ENDSEC;
END-ISO-10303-21;
