ISO-10303-21;
HEADER;
FILE_DESCRIPTION(('CATIA V5R20 STEP214'),'2;1');

FILE_NAME ('D1453323_0_1609801044_1609801044.stp','2014-04-03T09:07:18+00:00',('none'),('Weidmueller'),'CATIA Version 5 Release 20 SP 5 (IN-10)','CATIA V5 STEP AP214','none');

FILE_SCHEMA(('AUTOMOTIVE_DESIGN { 1 0 10303 214 1 1 1 1 }'));

ENDSEC;
/* file written by CATIA V5R20 */
DATA;
#5=PRODUCT('DEK 5/5','','<Q-CHECKER_SEAL> Q-Checker Version 2.6.2  \X2\000A\X0\CATIA-Version         : Catia V5 R18 SP6 Build Date 07-18-2008.22.00\X2\000A\X0\Model size (in KByte) : 0\X2\000A\X0\Checking date         : 2009-06-02 11:59:25\X2\000A\X0\Checking profile      : ADMIN / Release_CATDrawings [CATPart]\X2\000A\X0\Model assessment      : In Ordnung (IO)\X2\000A\X0\Total weight sum      : 0\X2\000A\X0\<CROSS_CHECK_SUM>\X2\000A\X0\  <CHKSUM_DATE> 1419079631 </CHKSUM_DATE>\X2\000A\X0\  <CHKSUM_ENTITIES> 774076970 </CHKSUM_ENTITIES>\X2\000A\X0\  <CHKSUM_PROFILE> 1875091983 </CHKSUM_PROFILE>\X2\000A\X0\  <CHKSUM_DIMENSION> -186917087 </CHKSUM_DIMENSION>\X2\000A\X0\  <CHKSUM_PROJINTERSEC> -896974048 </CHKSUM_PROJINTERSEC>\X2\000A\X0\  <CHKSUM_IDENTCRV> -896974048 </CHKSUM_IDENTCRV>\X2\000A\X0\  <CHKSUM_INFINITY> 138018827 </CHKSUM_INFINITY>\X2\000A\X0\</CROSS_CHECK_SUM>\X2\000A\X0\</Q-CHECKER_SEAL> \X2\000A\X0\ \X2\000A\X0\ \X2\000A\X0\ \X2\000A\X0\ \X2\000A\X0\',(#2)) ;
#2=PRODUCT_CONTEXT(' ',#1,'mechanical') ;
#1=APPLICATION_CONTEXT('automotive design') ;
#10=PRODUCT_DEFINITION('',' ',#6,#3) ;
#3=PRODUCT_DEFINITION_CONTEXT('part definition',#1,' ') ;
#11=PRODUCT_DEFINITION_SHAPE(' ',' ',#10) ;
#452=MECHANICAL_DESIGN_GEOMETRIC_PRESENTATION_REPRESENTATION(' ',(#30),#17) ;
#20=SHAPE_REPRESENTATION(' ',(#19),#17) ;
#19=AXIS2_PLACEMENT_3D(' ',#18,$,$) ;
#36=AXIS2_PLACEMENT_3D('Plane Axis2P3D',#33,#34,#35) ;
#76=AXIS2_PLACEMENT_3D('Plane Axis2P3D',#73,#74,#75) ;
#107=AXIS2_PLACEMENT_3D('Plane Axis2P3D',#104,#105,#106) ;
#131=AXIS2_PLACEMENT_3D('Plane Axis2P3D',#128,#129,#130) ;
#155=AXIS2_PLACEMENT_3D('Plane Axis2P3D',#152,#153,#154) ;
#233=AXIS2_PLACEMENT_3D('Plane Axis2P3D',#230,#231,#232) ;
#276=AXIS2_PLACEMENT_3D('Plane Axis2P3D',#273,#274,#275) ;
#293=AXIS2_PLACEMENT_3D('Plane Axis2P3D',#290,#291,#292) ;
#345=AXIS2_PLACEMENT_3D('Plane Axis2P3D',#342,#343,#344) ;
#385=AXIS2_PLACEMENT_3D('Plane Axis2P3D',#382,#383,#384) ;
#407=AXIS2_PLACEMENT_3D('Plane Axis2P3D',#404,#405,#406) ;
#424=AXIS2_PLACEMENT_3D('Plane Axis2P3D',#421,#422,#423) ;
#441=AXIS2_PLACEMENT_3D('Plane Axis2P3D',#438,#439,#440) ;
#18=CARTESIAN_POINT(' ',(0.,0.,0.)) ;
#33=CARTESIAN_POINT('Axis2P3D Location',(2.45,3.9,-7.20253720297E-017)) ;
#38=CARTESIAN_POINT('Line Origine',(2.45,3.9,1.57279220614)) ;
#42=CARTESIAN_POINT('Vertex',(0.524999999997,3.9,1.57279220614)) ;
#44=CARTESIAN_POINT('Vertex',(4.375,3.9,1.57279220614)) ;
#47=CARTESIAN_POINT('Line Origine',(0.524999999997,3.9,0.786396103068)) ;
#51=CARTESIAN_POINT('Vertex',(0.524999999997,3.9,-2.22044604925E-016)) ;
#54=CARTESIAN_POINT('Line Origine',(2.45,3.9,-7.20253720297E-017)) ;
#58=CARTESIAN_POINT('Vertex',(4.375,3.9,0.)) ;
#61=CARTESIAN_POINT('Line Origine',(4.375,3.9,0.786396103068)) ;
#73=CARTESIAN_POINT('Axis2P3D Location',(4.375,2.6,1.57279220614)) ;
#78=CARTESIAN_POINT('Line Origine',(4.375,4.25,0.)) ;
#82=CARTESIAN_POINT('Vertex',(4.375,4.6,0.)) ;
#85=CARTESIAN_POINT('Line Origine',(4.375,4.6,0.786396103068)) ;
#89=CARTESIAN_POINT('Vertex',(4.375,4.6,1.57279220614)) ;
#92=CARTESIAN_POINT('Line Origine',(4.375,4.25,1.57279220614)) ;
#104=CARTESIAN_POINT('Axis2P3D Location',(2.45,4.6,-7.20253720297E-017)) ;
#109=CARTESIAN_POINT('Line Origine',(0.524999999997,4.25,-1.89897626448E-016)) ;
#113=CARTESIAN_POINT('Vertex',(0.524999999997,4.6,-2.22044604925E-016)) ;
#116=CARTESIAN_POINT('Line Origine',(2.45,4.6,-7.20253720297E-017)) ;
#128=CARTESIAN_POINT('Axis2P3D Location',(0.524999999997,2.6,1.57279220614)) ;
#133=CARTESIAN_POINT('Line Origine',(0.524999999997,4.25,1.57279220614)) ;
#137=CARTESIAN_POINT('Vertex',(0.524999999997,4.6,1.57279220614)) ;
#140=CARTESIAN_POINT('Line Origine',(0.524999999997,4.6,0.786396103068)) ;
#152=CARTESIAN_POINT('Axis2P3D Location',(2.45,4.6,-2.94069976955E-016)) ;
#157=CARTESIAN_POINT('Line Origine',(2.45,4.6,1.57279220614)) ;
#169=CARTESIAN_POINT('Line Origine',(2.45,0.6,-7.20253720297E-017)) ;
#173=CARTESIAN_POINT('Vertex',(0.524999999997,0.6,-2.22044604925E-016)) ;
#175=CARTESIAN_POINT('Vertex',(4.375,0.6,0.)) ;
#178=CARTESIAN_POINT('Line Origine',(0.524999999997,0.95,-1.89897626448E-016)) ;
#182=CARTESIAN_POINT('Vertex',(0.524999999997,1.3,-2.22044604925E-016)) ;
#185=CARTESIAN_POINT('Line Origine',(2.45,1.3,-7.20253720297E-017)) ;
#189=CARTESIAN_POINT('Vertex',(4.375,1.3,0.)) ;
#192=CARTESIAN_POINT('Line Origine',(4.375,0.95,4.58468823883E-017)) ;
#204=CARTESIAN_POINT('Line Origine',(4.375,1.3,0.786396103068)) ;
#208=CARTESIAN_POINT('Vertex',(4.375,1.3,1.57279220614)) ;
#211=CARTESIAN_POINT('Line Origine',(4.375,0.95,1.57279220614)) ;
#215=CARTESIAN_POINT('Vertex',(4.375,0.6,1.57279220614)) ;
#218=CARTESIAN_POINT('Line Origine',(4.375,0.6,0.786396103068)) ;
#230=CARTESIAN_POINT('Axis2P3D Location',(2.45,1.3,1.57279220614)) ;
#235=CARTESIAN_POINT('Line Origine',(0.524999999997,1.3,0.786396103068)) ;
#239=CARTESIAN_POINT('Vertex',(0.524999999997,1.3,1.57279220614)) ;
#242=CARTESIAN_POINT('Line Origine',(2.45,1.3,1.57279220614)) ;
#254=CARTESIAN_POINT('Line Origine',(0.524999999997,0.6,0.786396103068)) ;
#258=CARTESIAN_POINT('Vertex',(0.524999999997,0.6,1.57279220614)) ;
#261=CARTESIAN_POINT('Line Origine',(0.524999999997,0.95,1.57279220614)) ;
#273=CARTESIAN_POINT('Axis2P3D Location',(2.45,0.6,1.57279220614)) ;
#278=CARTESIAN_POINT('Line Origine',(2.45,0.6,1.57279220614)) ;
#290=CARTESIAN_POINT('Axis2P3D Location',(2.45,2.6,1.57279220614)) ;
#295=CARTESIAN_POINT('Line Origine',(4.9,2.6,1.57279220614)) ;
#299=CARTESIAN_POINT('Vertex',(4.9,1.6263376065E-015,1.57279220614)) ;
#301=CARTESIAN_POINT('Vertex',(4.9,5.2,1.57279220614)) ;
#304=CARTESIAN_POINT('Line Origine',(2.45,1.7763568394E-015,1.57279220614)) ;
#308=CARTESIAN_POINT('Vertex',(-2.91322521662E-012,5.94108442746E-016,1.57279220614)) ;
#311=CARTESIAN_POINT('Line Origine',(-2.91322521662E-012,2.6,1.57279220614)) ;
#315=CARTESIAN_POINT('Vertex',(-2.91322521662E-012,5.2,1.57279220614)) ;
#318=CARTESIAN_POINT('Line Origine',(2.45,5.2,1.57279220614)) ;
#342=CARTESIAN_POINT('Axis2P3D Location',(2.45,2.6,2.37279220614)) ;
#347=CARTESIAN_POINT('Line Origine',(2.45,5.2,2.37279220614)) ;
#351=CARTESIAN_POINT('Vertex',(4.9,5.2,2.37279220614)) ;
#353=CARTESIAN_POINT('Vertex',(-2.91322521662E-012,5.2,2.37279220614)) ;
#356=CARTESIAN_POINT('Line Origine',(-2.91322521662E-012,2.6,2.37279220614)) ;
#360=CARTESIAN_POINT('Vertex',(-2.91322521662E-012,5.94108442746E-016,2.37279220614)) ;
#363=CARTESIAN_POINT('Line Origine',(2.45,1.7763568394E-015,2.37279220614)) ;
#367=CARTESIAN_POINT('Vertex',(4.9,1.6263376065E-015,2.37279220614)) ;
#370=CARTESIAN_POINT('Line Origine',(4.9,2.6,2.37279220614)) ;
#382=CARTESIAN_POINT('Axis2P3D Location',(4.9,5.2,1.57279220614)) ;
#387=CARTESIAN_POINT('Line Origine',(4.9,1.49975978266E-033,1.97279220614)) ;
#392=CARTESIAN_POINT('Line Origine',(4.9,5.2,1.97279220614)) ;
#404=CARTESIAN_POINT('Axis2P3D Location',(-2.91332152236E-012,1.7763568394E-015,1.57279220614)) ;
#409=CARTESIAN_POINT('Line Origine',(-2.9133460153E-012,1.7763568394E-015,1.97279220614)) ;
#421=CARTESIAN_POINT('Axis2P3D Location',(-2.91332152236E-012,4.4408920985E-016,1.57279220614)) ;
#426=CARTESIAN_POINT('Line Origine',(-2.91302760713E-012,5.2,1.97279220614)) ;
#438=CARTESIAN_POINT('Axis2P3D Location',(4.9,5.2,1.57279220614)) ;
#34=DIRECTION('Axis2P3D Direction',(6.12323399574E-017,1.,0.)) ;
#35=DIRECTION('Axis2P3D XDirection',(-6.12323399574E-017,3.74939945665E-033,1.)) ;
#39=DIRECTION('Vector Direction',(1.,0.,1.15347846714E-016)) ;
#48=DIRECTION('Vector Direction',(0.,0.,1.)) ;
#55=DIRECTION('Vector Direction',(1.,0.,6.12323399574E-017)) ;
#62=DIRECTION('Vector Direction',(0.,0.,1.)) ;
#74=DIRECTION('Axis2P3D Direction',(1.,-6.12323399574E-017,6.12323399574E-017)) ;
#75=DIRECTION('Axis2P3D XDirection',(6.12323399574E-017,1.,0.)) ;
#79=DIRECTION('Vector Direction',(0.,-1.,0.)) ;
#86=DIRECTION('Vector Direction',(0.,0.,1.)) ;
#93=DIRECTION('Vector Direction',(0.,1.,0.)) ;
#105=DIRECTION('Axis2P3D Direction',(-6.12323399574E-017,3.74939945665E-033,1.)) ;
#106=DIRECTION('Axis2P3D XDirection',(-6.12323399574E-017,-1.,0.)) ;
#110=DIRECTION('Vector Direction',(0.,-1.,0.)) ;
#117=DIRECTION('Vector Direction',(1.,0.,6.12323399574E-017)) ;
#129=DIRECTION('Axis2P3D Direction',(1.,-6.12323399574E-017,6.12323399574E-017)) ;
#130=DIRECTION('Axis2P3D XDirection',(6.12323399574E-017,1.,0.)) ;
#134=DIRECTION('Vector Direction',(0.,1.,0.)) ;
#141=DIRECTION('Vector Direction',(-7.05893010084E-017,0.,1.)) ;
#153=DIRECTION('Axis2P3D Direction',(6.12323399574E-017,1.,0.)) ;
#154=DIRECTION('Axis2P3D XDirection',(-6.12323399574E-017,3.74939945665E-033,1.)) ;
#158=DIRECTION('Vector Direction',(1.,0.,1.15347846714E-016)) ;
#170=DIRECTION('Vector Direction',(1.,-5.76739233572E-017,6.12323399574E-017)) ;
#179=DIRECTION('Vector Direction',(-6.34413156929E-016,-1.,0.)) ;
#186=DIRECTION('Vector Direction',(1.,-1.15347846714E-016,6.12323399574E-017)) ;
#193=DIRECTION('Vector Direction',(-1.26882631386E-015,-1.,0.)) ;
#205=DIRECTION('Vector Direction',(0.,0.,-1.)) ;
#212=DIRECTION('Vector Direction',(0.,1.,0.)) ;
#219=DIRECTION('Vector Direction',(0.,0.,-1.)) ;
#231=DIRECTION('Axis2P3D Direction',(-6.12323399574E-017,-1.,0.)) ;
#232=DIRECTION('Axis2P3D XDirection',(6.12323399574E-017,-3.74939945665E-033,-1.)) ;
#236=DIRECTION('Vector Direction',(0.,0.,-1.)) ;
#243=DIRECTION('Vector Direction',(1.,-1.15347846714E-016,1.15347846714E-016)) ;
#255=DIRECTION('Vector Direction',(7.05893010084E-017,0.,-1.)) ;
#262=DIRECTION('Vector Direction',(0.,1.,0.)) ;
#274=DIRECTION('Axis2P3D Direction',(-6.12323399574E-017,-1.,0.)) ;
#275=DIRECTION('Axis2P3D XDirection',(6.12323399574E-017,-3.74939945665E-033,-1.)) ;
#279=DIRECTION('Vector Direction',(1.,-5.76739233572E-017,1.15347846714E-016)) ;
#291=DIRECTION('Axis2P3D Direction',(-6.12323399574E-017,3.74939945665E-033,1.)) ;
#292=DIRECTION('Axis2P3D XDirection',(-6.12323399574E-017,-1.,0.)) ;
#296=DIRECTION('Vector Direction',(0.,-1.,0.)) ;
#305=DIRECTION('Vector Direction',(1.,-6.12323399574E-017,9.06304509898E-017)) ;
#312=DIRECTION('Vector Direction',(0.,1.,0.)) ;
#319=DIRECTION('Vector Direction',(-1.,0.,-9.06304509898E-017)) ;
#343=DIRECTION('Axis2P3D Direction',(-6.12323399574E-017,3.74939945665E-033,1.)) ;
#344=DIRECTION('Axis2P3D XDirection',(-6.12323399574E-017,-1.,0.)) ;
#348=DIRECTION('Vector Direction',(-1.,0.,0.)) ;
#357=DIRECTION('Vector Direction',(0.,1.,0.)) ;
#364=DIRECTION('Vector Direction',(1.,-6.12323399574E-017,0.)) ;
#371=DIRECTION('Vector Direction',(0.,-1.,0.)) ;
#383=DIRECTION('Axis2P3D Direction',(-1.,6.12323399574E-017,-6.12323399574E-017)) ;
#384=DIRECTION('Axis2P3D XDirection',(-6.12323399574E-017,-1.,0.)) ;
#388=DIRECTION('Vector Direction',(0.,3.74939945665E-033,1.)) ;
#393=DIRECTION('Vector Direction',(0.,0.,1.)) ;
#405=DIRECTION('Axis2P3D Direction',(-6.12323399574E-017,-1.,0.)) ;
#406=DIRECTION('Axis2P3D XDirection',(1.,-6.12323399574E-017,6.12323399574E-017)) ;
#410=DIRECTION('Vector Direction',(-6.12323399575E-017,0.,1.)) ;
#422=DIRECTION('Axis2P3D Direction',(1.,-6.12323399574E-017,6.12323399574E-017)) ;
#423=DIRECTION('Axis2P3D XDirection',(6.12323399574E-017,1.,0.)) ;
#427=DIRECTION('Vector Direction',(-6.12323399575E-017,0.,1.)) ;
#439=DIRECTION('Axis2P3D Direction',(6.12323399574E-017,1.,0.)) ;
#440=DIRECTION('Axis2P3D XDirection',(-1.,6.12323399574E-017,-6.12323399574E-017)) ;
#31=PRESENTATION_LAYER_ASSIGNMENT('1',' ',(#22)) ;
#8=PRODUCT_RELATED_PRODUCT_CATEGORY('part',$,(#5)) ;
#7=PRODUCT_CATEGORY('part','specification') ;
#30=STYLED_ITEM(' ',(#29),#22) ;
#29=PRESENTATION_STYLE_ASSIGNMENT((#28)) ;
#28=SURFACE_STYLE_USAGE(.BOTH.,#27) ;
#27=SURFACE_SIDE_STYLE(' ',(#26)) ;
#26=SURFACE_STYLE_FILL_AREA(#25) ;
#25=FILL_AREA_STYLE(' ',(#24)) ;
#24=FILL_AREA_STYLE_COLOUR(' ',#23) ;
#40=VECTOR('Line Direction',#39,1.) ;
#49=VECTOR('Line Direction',#48,1.) ;
#56=VECTOR('Line Direction',#55,1.) ;
#63=VECTOR('Line Direction',#62,1.) ;
#80=VECTOR('Line Direction',#79,1.) ;
#87=VECTOR('Line Direction',#86,1.) ;
#94=VECTOR('Line Direction',#93,1.) ;
#111=VECTOR('Line Direction',#110,1.) ;
#118=VECTOR('Line Direction',#117,1.) ;
#135=VECTOR('Line Direction',#134,1.) ;
#142=VECTOR('Line Direction',#141,1.) ;
#159=VECTOR('Line Direction',#158,1.) ;
#171=VECTOR('Line Direction',#170,1.) ;
#180=VECTOR('Line Direction',#179,1.) ;
#187=VECTOR('Line Direction',#186,1.) ;
#194=VECTOR('Line Direction',#193,1.) ;
#206=VECTOR('Line Direction',#205,1.) ;
#213=VECTOR('Line Direction',#212,1.) ;
#220=VECTOR('Line Direction',#219,1.) ;
#237=VECTOR('Line Direction',#236,1.) ;
#244=VECTOR('Line Direction',#243,1.) ;
#256=VECTOR('Line Direction',#255,1.) ;
#263=VECTOR('Line Direction',#262,1.) ;
#280=VECTOR('Line Direction',#279,1.) ;
#297=VECTOR('Line Direction',#296,1.) ;
#306=VECTOR('Line Direction',#305,1.) ;
#313=VECTOR('Line Direction',#312,1.) ;
#320=VECTOR('Line Direction',#319,1.) ;
#349=VECTOR('Line Direction',#348,1.) ;
#358=VECTOR('Line Direction',#357,1.) ;
#365=VECTOR('Line Direction',#364,1.) ;
#372=VECTOR('Line Direction',#371,1.) ;
#389=VECTOR('Line Direction',#388,1.) ;
#394=VECTOR('Line Direction',#393,1.) ;
#411=VECTOR('Line Direction',#410,1.) ;
#428=VECTOR('Line Direction',#427,1.) ;
#16=UNCERTAINTY_MEASURE_WITH_UNIT(LENGTH_MEASURE(0.005),#12,'distance_accuracy_value','CONFUSED CURVE UNCERTAINTY') ;
#451=SHAPE_REPRESENTATION_RELATIONSHIP(' ',' ',#20,#450) ;
#67=ORIENTED_EDGE('',*,*,#46,.F.) ;
#68=ORIENTED_EDGE('',*,*,#53,.T.) ;
#69=ORIENTED_EDGE('',*,*,#60,.T.) ;
#70=ORIENTED_EDGE('',*,*,#65,.F.) ;
#98=ORIENTED_EDGE('',*,*,#65,.T.) ;
#99=ORIENTED_EDGE('',*,*,#84,.T.) ;
#100=ORIENTED_EDGE('',*,*,#91,.T.) ;
#101=ORIENTED_EDGE('',*,*,#96,.T.) ;
#122=ORIENTED_EDGE('',*,*,#60,.F.) ;
#123=ORIENTED_EDGE('',*,*,#115,.T.) ;
#124=ORIENTED_EDGE('',*,*,#120,.T.) ;
#125=ORIENTED_EDGE('',*,*,#84,.F.) ;
#146=ORIENTED_EDGE('',*,*,#139,.F.) ;
#147=ORIENTED_EDGE('',*,*,#144,.F.) ;
#148=ORIENTED_EDGE('',*,*,#115,.F.) ;
#149=ORIENTED_EDGE('',*,*,#53,.F.) ;
#163=ORIENTED_EDGE('',*,*,#120,.F.) ;
#164=ORIENTED_EDGE('',*,*,#144,.T.) ;
#165=ORIENTED_EDGE('',*,*,#161,.T.) ;
#166=ORIENTED_EDGE('',*,*,#91,.F.) ;
#198=ORIENTED_EDGE('',*,*,#177,.F.) ;
#199=ORIENTED_EDGE('',*,*,#184,.T.) ;
#200=ORIENTED_EDGE('',*,*,#191,.T.) ;
#201=ORIENTED_EDGE('',*,*,#196,.F.) ;
#224=ORIENTED_EDGE('',*,*,#196,.T.) ;
#225=ORIENTED_EDGE('',*,*,#210,.T.) ;
#226=ORIENTED_EDGE('',*,*,#217,.T.) ;
#227=ORIENTED_EDGE('',*,*,#222,.T.) ;
#248=ORIENTED_EDGE('',*,*,#191,.F.) ;
#249=ORIENTED_EDGE('',*,*,#241,.T.) ;
#250=ORIENTED_EDGE('',*,*,#246,.T.) ;
#251=ORIENTED_EDGE('',*,*,#210,.F.) ;
#267=ORIENTED_EDGE('',*,*,#260,.F.) ;
#268=ORIENTED_EDGE('',*,*,#265,.F.) ;
#269=ORIENTED_EDGE('',*,*,#241,.F.) ;
#270=ORIENTED_EDGE('',*,*,#184,.F.) ;
#284=ORIENTED_EDGE('',*,*,#282,.F.) ;
#285=ORIENTED_EDGE('',*,*,#260,.T.) ;
#286=ORIENTED_EDGE('',*,*,#177,.T.) ;
#287=ORIENTED_EDGE('',*,*,#222,.F.) ;
#324=ORIENTED_EDGE('',*,*,#303,.F.) ;
#325=ORIENTED_EDGE('',*,*,#310,.F.) ;
#326=ORIENTED_EDGE('',*,*,#317,.F.) ;
#327=ORIENTED_EDGE('',*,*,#322,.F.) ;
#330=ORIENTED_EDGE('',*,*,#139,.T.) ;
#331=ORIENTED_EDGE('',*,*,#46,.T.) ;
#332=ORIENTED_EDGE('',*,*,#96,.F.) ;
#333=ORIENTED_EDGE('',*,*,#161,.F.) ;
#336=ORIENTED_EDGE('',*,*,#265,.T.) ;
#337=ORIENTED_EDGE('',*,*,#282,.T.) ;
#338=ORIENTED_EDGE('',*,*,#217,.F.) ;
#339=ORIENTED_EDGE('',*,*,#246,.F.) ;
#376=ORIENTED_EDGE('',*,*,#355,.T.) ;
#377=ORIENTED_EDGE('',*,*,#362,.T.) ;
#378=ORIENTED_EDGE('',*,*,#369,.T.) ;
#379=ORIENTED_EDGE('',*,*,#374,.T.) ;
#398=ORIENTED_EDGE('',*,*,#391,.F.) ;
#399=ORIENTED_EDGE('',*,*,#303,.T.) ;
#400=ORIENTED_EDGE('',*,*,#396,.T.) ;
#401=ORIENTED_EDGE('',*,*,#374,.F.) ;
#415=ORIENTED_EDGE('',*,*,#413,.F.) ;
#416=ORIENTED_EDGE('',*,*,#310,.T.) ;
#417=ORIENTED_EDGE('',*,*,#391,.T.) ;
#418=ORIENTED_EDGE('',*,*,#369,.F.) ;
#432=ORIENTED_EDGE('',*,*,#430,.F.) ;
#433=ORIENTED_EDGE('',*,*,#317,.T.) ;
#434=ORIENTED_EDGE('',*,*,#413,.T.) ;
#435=ORIENTED_EDGE('',*,*,#362,.F.) ;
#444=ORIENTED_EDGE('',*,*,#396,.F.) ;
#445=ORIENTED_EDGE('',*,*,#322,.T.) ;
#446=ORIENTED_EDGE('',*,*,#430,.T.) ;
#447=ORIENTED_EDGE('',*,*,#355,.F.) ;
#334=FACE_BOUND('',#329,.T.) ;
#340=FACE_BOUND('',#335,.T.) ;
#32=CLOSED_SHELL('Closed Shell',(#72,#103,#127,#151,#168,#203,#229,#253,#272,#289,#341,#381,#403,#420,#437,#449)) ;
#450=ADVANCED_BREP_SHAPE_REPRESENTATION('NONE',(#22),#17) ;
#72=ADVANCED_FACE('S3D',(#71),#37,.F.) ;
#103=ADVANCED_FACE('S3D',(#102),#77,.T.) ;
#127=ADVANCED_FACE('S3D',(#126),#108,.F.) ;
#151=ADVANCED_FACE('S3D',(#150),#132,.F.) ;
#168=ADVANCED_FACE('S3D',(#167),#156,.T.) ;
#203=ADVANCED_FACE('S3D',(#202),#108,.F.) ;
#229=ADVANCED_FACE('S3D',(#228),#77,.T.) ;
#253=ADVANCED_FACE('S3D',(#252),#234,.F.) ;
#272=ADVANCED_FACE('S3D',(#271),#132,.F.) ;
#289=ADVANCED_FACE('S3D',(#288),#277,.T.) ;
#341=ADVANCED_FACE('S3D',(#328,#334,#340),#294,.F.) ;
#381=ADVANCED_FACE('S3D',(#380),#346,.T.) ;
#403=ADVANCED_FACE('S3D',(#402),#386,.F.) ;
#420=ADVANCED_FACE('S3D',(#419),#408,.T.) ;
#437=ADVANCED_FACE('S3D',(#436),#425,.F.) ;
#449=ADVANCED_FACE('S3D',(#448),#442,.T.) ;
#4=APPLICATION_PROTOCOL_DEFINITION('international standard','automotive_design',2001,#1) ;
#22=MANIFOLD_SOLID_BREP('S3D',#32) ;
#23=DRAUGHTING_PRE_DEFINED_COLOUR('white') ;
#46=EDGE_CURVE('',#43,#45,#41,.T.) ;
#53=EDGE_CURVE('',#43,#52,#50,.F.) ;
#60=EDGE_CURVE('',#52,#59,#57,.T.) ;
#65=EDGE_CURVE('',#45,#59,#64,.F.) ;
#84=EDGE_CURVE('',#59,#83,#81,.F.) ;
#91=EDGE_CURVE('',#83,#90,#88,.T.) ;
#96=EDGE_CURVE('',#90,#45,#95,.F.) ;
#115=EDGE_CURVE('',#52,#114,#112,.F.) ;
#120=EDGE_CURVE('',#114,#83,#119,.T.) ;
#139=EDGE_CURVE('',#138,#43,#136,.F.) ;
#144=EDGE_CURVE('',#114,#138,#143,.T.) ;
#161=EDGE_CURVE('',#138,#90,#160,.T.) ;
#177=EDGE_CURVE('',#174,#176,#172,.T.) ;
#184=EDGE_CURVE('',#174,#183,#181,.F.) ;
#191=EDGE_CURVE('',#183,#190,#188,.T.) ;
#196=EDGE_CURVE('',#176,#190,#195,.F.) ;
#210=EDGE_CURVE('',#190,#209,#207,.F.) ;
#217=EDGE_CURVE('',#209,#216,#214,.F.) ;
#222=EDGE_CURVE('',#216,#176,#221,.T.) ;
#241=EDGE_CURVE('',#183,#240,#238,.F.) ;
#246=EDGE_CURVE('',#240,#209,#245,.T.) ;
#260=EDGE_CURVE('',#259,#174,#257,.T.) ;
#265=EDGE_CURVE('',#240,#259,#264,.F.) ;
#282=EDGE_CURVE('',#259,#216,#281,.T.) ;
#303=EDGE_CURVE('',#300,#302,#298,.F.) ;
#310=EDGE_CURVE('',#309,#300,#307,.T.) ;
#317=EDGE_CURVE('',#316,#309,#314,.F.) ;
#322=EDGE_CURVE('',#302,#316,#321,.T.) ;
#355=EDGE_CURVE('',#352,#354,#350,.T.) ;
#362=EDGE_CURVE('',#354,#361,#359,.F.) ;
#369=EDGE_CURVE('',#361,#368,#366,.T.) ;
#374=EDGE_CURVE('',#368,#352,#373,.F.) ;
#391=EDGE_CURVE('',#300,#368,#390,.T.) ;
#396=EDGE_CURVE('',#302,#352,#395,.T.) ;
#413=EDGE_CURVE('',#309,#361,#412,.T.) ;
#430=EDGE_CURVE('',#316,#354,#429,.T.) ;
#66=EDGE_LOOP('',(#67,#68,#69,#70)) ;
#97=EDGE_LOOP('',(#98,#99,#100,#101)) ;
#121=EDGE_LOOP('',(#122,#123,#124,#125)) ;
#145=EDGE_LOOP('',(#146,#147,#148,#149)) ;
#162=EDGE_LOOP('',(#163,#164,#165,#166)) ;
#197=EDGE_LOOP('',(#198,#199,#200,#201)) ;
#223=EDGE_LOOP('',(#224,#225,#226,#227)) ;
#247=EDGE_LOOP('',(#248,#249,#250,#251)) ;
#266=EDGE_LOOP('',(#267,#268,#269,#270)) ;
#283=EDGE_LOOP('',(#284,#285,#286,#287)) ;
#323=EDGE_LOOP('',(#324,#325,#326,#327)) ;
#329=EDGE_LOOP('',(#330,#331,#332,#333)) ;
#335=EDGE_LOOP('',(#336,#337,#338,#339)) ;
#375=EDGE_LOOP('',(#376,#377,#378,#379)) ;
#397=EDGE_LOOP('',(#398,#399,#400,#401)) ;
#414=EDGE_LOOP('',(#415,#416,#417,#418)) ;
#431=EDGE_LOOP('',(#432,#433,#434,#435)) ;
#443=EDGE_LOOP('',(#444,#445,#446,#447)) ;
#71=FACE_OUTER_BOUND('',#66,.T.) ;
#102=FACE_OUTER_BOUND('',#97,.T.) ;
#126=FACE_OUTER_BOUND('',#121,.T.) ;
#150=FACE_OUTER_BOUND('',#145,.T.) ;
#167=FACE_OUTER_BOUND('',#162,.T.) ;
#202=FACE_OUTER_BOUND('',#197,.T.) ;
#228=FACE_OUTER_BOUND('',#223,.T.) ;
#252=FACE_OUTER_BOUND('',#247,.T.) ;
#271=FACE_OUTER_BOUND('',#266,.T.) ;
#288=FACE_OUTER_BOUND('',#283,.T.) ;
#328=FACE_OUTER_BOUND('',#323,.T.) ;
#380=FACE_OUTER_BOUND('',#375,.T.) ;
#402=FACE_OUTER_BOUND('',#397,.T.) ;
#419=FACE_OUTER_BOUND('',#414,.T.) ;
#436=FACE_OUTER_BOUND('',#431,.T.) ;
#448=FACE_OUTER_BOUND('',#443,.T.) ;
#41=LINE('Line',#38,#40) ;
#50=LINE('Line',#47,#49) ;
#57=LINE('Line',#54,#56) ;
#64=LINE('Line',#61,#63) ;
#81=LINE('Line',#78,#80) ;
#88=LINE('Line',#85,#87) ;
#95=LINE('Line',#92,#94) ;
#112=LINE('Line',#109,#111) ;
#119=LINE('Line',#116,#118) ;
#136=LINE('Line',#133,#135) ;
#143=LINE('Line',#140,#142) ;
#160=LINE('Line',#157,#159) ;
#172=LINE('Line',#169,#171) ;
#181=LINE('Line',#178,#180) ;
#188=LINE('Line',#185,#187) ;
#195=LINE('Line',#192,#194) ;
#207=LINE('Line',#204,#206) ;
#214=LINE('Line',#211,#213) ;
#221=LINE('Line',#218,#220) ;
#238=LINE('Line',#235,#237) ;
#245=LINE('Line',#242,#244) ;
#257=LINE('Line',#254,#256) ;
#264=LINE('Line',#261,#263) ;
#281=LINE('Line',#278,#280) ;
#298=LINE('Line',#295,#297) ;
#307=LINE('Line',#304,#306) ;
#314=LINE('Line',#311,#313) ;
#321=LINE('Line',#318,#320) ;
#350=LINE('Line',#347,#349) ;
#359=LINE('Line',#356,#358) ;
#366=LINE('Line',#363,#365) ;
#373=LINE('Line',#370,#372) ;
#390=LINE('Line',#387,#389) ;
#395=LINE('Line',#392,#394) ;
#412=LINE('Line',#409,#411) ;
#429=LINE('Line',#426,#428) ;
#37=PLANE('',#36) ;
#77=PLANE('',#76) ;
#108=PLANE('',#107) ;
#132=PLANE('',#131) ;
#156=PLANE('',#155) ;
#234=PLANE('',#233) ;
#277=PLANE('',#276) ;
#294=PLANE('',#293) ;
#346=PLANE('',#345) ;
#386=PLANE('',#385) ;
#408=PLANE('',#407) ;
#425=PLANE('',#424) ;
#442=PLANE('',#441) ;
#14=PLANE_ANGLE_MEASURE_WITH_UNIT(PLANE_ANGLE_MEASURE(0.0174532925199),#13) ;
#9=PRODUCT_CATEGORY_RELATIONSHIP(' ',' ',#7,#8) ;
#6=PRODUCT_DEFINITION_FORMATION_WITH_SPECIFIED_SOURCE('',' ',#5,.NOT_KNOWN.) ;
#21=SHAPE_DEFINITION_REPRESENTATION(#11,#20) ;
#43=VERTEX_POINT('',#42) ;
#45=VERTEX_POINT('',#44) ;
#52=VERTEX_POINT('',#51) ;
#59=VERTEX_POINT('',#58) ;
#83=VERTEX_POINT('',#82) ;
#90=VERTEX_POINT('',#89) ;
#114=VERTEX_POINT('',#113) ;
#138=VERTEX_POINT('',#137) ;
#174=VERTEX_POINT('',#173) ;
#176=VERTEX_POINT('',#175) ;
#183=VERTEX_POINT('',#182) ;
#190=VERTEX_POINT('',#189) ;
#209=VERTEX_POINT('',#208) ;
#216=VERTEX_POINT('',#215) ;
#240=VERTEX_POINT('',#239) ;
#259=VERTEX_POINT('',#258) ;
#300=VERTEX_POINT('',#299) ;
#302=VERTEX_POINT('',#301) ;
#309=VERTEX_POINT('',#308) ;
#316=VERTEX_POINT('',#315) ;
#352=VERTEX_POINT('',#351) ;
#354=VERTEX_POINT('',#353) ;
#361=VERTEX_POINT('',#360) ;
#368=VERTEX_POINT('',#367) ;
#12=(LENGTH_UNIT()NAMED_UNIT(*)SI_UNIT(.MILLI.,.METRE.)) ;
#13=(NAMED_UNIT(*)PLANE_ANGLE_UNIT()SI_UNIT($,.RADIAN.)) ;
#15=(NAMED_UNIT(*)SI_UNIT($,.STERADIAN.)SOLID_ANGLE_UNIT()) ;
#17=(GEOMETRIC_REPRESENTATION_CONTEXT(3)GLOBAL_UNCERTAINTY_ASSIGNED_CONTEXT((#16))GLOBAL_UNIT_ASSIGNED_CONTEXT((#12,#13,#15))REPRESENTATION_CONTEXT(' ',' ')) ;
ENDSEC;
END-ISO-10303-21;
