ISO-10303-21;
HEADER;
FILE_DESCRIPTION(('CATIA V5 STEP Exchange','CAx-IF Rec.Pracs.--- Model Styling and Organization---1.5--- 2016-08-15','CAx-IF Rec.Pracs.---Supplemental Geometry---1.0---2011-11-01','CAx-IF Rec.Pracs.--- Composite Materials ---1.1---2010-07-15'),'2;1');

FILE_NAME ('706712-2_3_2652310000_2652310000.stp','2024-06-11T07:59:56+00:00',('none'),('Weidmueller'),'CATIA Version 5-6 Release 2022 SP4 HF5','CATIA V5 STEP AP214 v3','none');

FILE_SCHEMA(('AUTOMOTIVE_DESIGN { 1 0 10303 214 1 1 1 1 }'));

ENDSEC;
DATA;
#5=PRODUCT('CABTITE BP 3MM PA','CABTITE BP 3MM PA',' ',(#2)) ;
#2=PRODUCT_CONTEXT(' ',#1,'mechanical') ;
#1=APPLICATION_CONTEXT('automotive design') ;
#10=PRODUCT_DEFINITION(' ',' ',#6,#3) ;
#3=PRODUCT_DEFINITION_CONTEXT('part definition',#1,' ') ;
#11=PRODUCT_DEFINITION_SHAPE(' ',' ',#10) ;
#342=MECHANICAL_DESIGN_GEOMETRIC_PRESENTATION_REPRESENTATION(' ',(#87,#113,#178,#202,#214,#231,#238,#270,#283,#315,#328,#339,#29),#16) ;
#19=SHAPE_REPRESENTATION(' ',(#18),#16) ;
#18=AXIS2_PLACEMENT_3D(' ',#17,$,$) ;
#35=AXIS2_PLACEMENT_3D('Cylinder Axis2P3D',#32,#33,#34) ;
#48=AXIS2_PLACEMENT_3D('Circle Axis2P3D',#46,#47,$) ;
#62=AXIS2_PLACEMENT_3D('Circle Axis2P3D',#60,#61,$) ;
#69=AXIS2_PLACEMENT_3D('Circle Axis2P3D',#67,#68,$) ;
#90=AXIS2_PLACEMENT_3D('Circle Axis2P3D',#88,#89,$) ;
#95=AXIS2_PLACEMENT_3D('Circle Axis2P3D',#93,#94,$) ;
#102=AXIS2_PLACEMENT_3D('Circle Axis2P3D',#100,#101,$) ;
#117=AXIS2_PLACEMENT_3D('Plane Axis2P3D',#114,#115,#116) ;
#182=AXIS2_PLACEMENT_3D('Sphere Axis2P3D',#179,#180,#181) ;
#186=AXIS2_PLACEMENT_3D('Circle Axis2P3D',#184,#185,$) ;
#193=AXIS2_PLACEMENT_3D('Circle Axis2P3D',#191,#192,$) ;
#205=AXIS2_PLACEMENT_3D('Circle Axis2P3D',#203,#204,$) ;
#218=AXIS2_PLACEMENT_3D('Sphere Axis2P3D',#215,#216,#217) ;
#222=AXIS2_PLACEMENT_3D('Circle Axis2P3D',#220,#221,$) ;
#242=AXIS2_PLACEMENT_3D('Cylinder Axis2P3D',#239,#240,#241) ;
#253=AXIS2_PLACEMENT_3D('Circle Axis2P3D',#251,#252,$) ;
#273=AXIS2_PLACEMENT_3D('Circle Axis2P3D',#271,#272,$) ;
#287=AXIS2_PLACEMENT_3D('Cone Axis2P3D',#284,#285,#286) ;
#305=AXIS2_PLACEMENT_3D('Circle Axis2P3D',#303,#304,$) ;
#318=AXIS2_PLACEMENT_3D('Circle Axis2P3D',#316,#317,$) ;
#332=AXIS2_PLACEMENT_3D('Plane Axis2P3D',#329,#330,#331) ;
#17=CARTESIAN_POINT(' ',(0.,0.,0.)) ;
#32=CARTESIAN_POINT('Axis2P3D Location',(2.4,2.4,16.5)) ;
#37=CARTESIAN_POINT('Line Origine',(4.8,2.4,16.5)) ;
#41=CARTESIAN_POINT('Vertex',(4.8,2.4,17.)) ;
#43=CARTESIAN_POINT('Vertex',(4.8,2.4,16.5)) ;
#46=CARTESIAN_POINT('Axis2P3D Location',(2.4,2.4,16.5)) ;
#50=CARTESIAN_POINT('Vertex',(0.,2.4,16.5)) ;
#53=CARTESIAN_POINT('Line Origine',(0.,2.4,16.5)) ;
#57=CARTESIAN_POINT('Vertex',(0.,2.4,17.)) ;
#60=CARTESIAN_POINT('Axis2P3D Location',(2.4,2.4,17.)) ;
#64=CARTESIAN_POINT('Vertex',(2.4,4.8,17.)) ;
#67=CARTESIAN_POINT('Axis2P3D Location',(2.4,2.4,17.)) ;
#88=CARTESIAN_POINT('Axis2P3D Location',(2.4,2.4,16.5)) ;
#93=CARTESIAN_POINT('Axis2P3D Location',(2.4,2.4,17.)) ;
#97=CARTESIAN_POINT('Vertex',(2.4,0.,17.)) ;
#100=CARTESIAN_POINT('Axis2P3D Location',(2.4,2.4,17.)) ;
#114=CARTESIAN_POINT('Axis2P3D Location',(2.4,0.,16.5)) ;
#124=CARTESIAN_POINT('Control Point',(3.9,2.40000000037,16.5)) ;
#125=CARTESIAN_POINT('Control Point',(3.9,2.22002047536,16.5)) ;
#126=CARTESIAN_POINT('Control Point',(3.87300613642,2.04004206072,16.5)) ;
#127=CARTESIAN_POINT('Control Point',(3.8189697931,1.86535701909,16.5)) ;
#128=CARTESIAN_POINT('Control Point',(3.6602762649,1.5377854115,16.5)) ;
#129=CARTESIAN_POINT('Control Point',(3.41246964382,1.27118557048,16.5)) ;
#130=CARTESIAN_POINT('Control Point',(3.26923621298,1.15752392595,16.5)) ;
#131=CARTESIAN_POINT('Control Point',(2.9532987872,0.976774539304,16.5)) ;
#132=CARTESIAN_POINT('Control Point',(2.59824104463,0.896664615525,16.5)) ;
#133=CARTESIAN_POINT('Control Point',(2.41584712139,0.883732457089,16.5)) ;
#134=CARTESIAN_POINT('Control Point',(2.05303412062,0.912947565037,16.5)) ;
#135=CARTESIAN_POINT('Control Point',(1.71475971852,1.04731284148,16.5)) ;
#136=CARTESIAN_POINT('Control Point',(1.55692204859,1.13962784811,16.5)) ;
#137=CARTESIAN_POINT('Control Point',(1.27397642682,1.36860212082,16.5)) ;
#138=CARTESIAN_POINT('Control Point',(1.07065649341,1.67050488359,16.5)) ;
#139=CARTESIAN_POINT('Control Point',(0.992514533924,1.83581733962,16.5)) ;
#140=CARTESIAN_POINT('Control Point',(0.928108656858,2.05130341705,16.5)) ;
#141=CARTESIAN_POINT('Control Point',(0.904515386701,2.27260566549,16.5)) ;
#142=CARTESIAN_POINT('Control Point',(0.901500753405,2.31512614379,16.5)) ;
#143=CARTESIAN_POINT('Control Point',(0.9,2.3575630722,16.5)) ;
#144=CARTESIAN_POINT('Control Point',(0.9,2.40000000037,16.5)) ;
#145=CARTESIAN_POINT('Vertex',(3.9,2.4,16.5)) ;
#147=CARTESIAN_POINT('Vertex',(0.9,2.40000000037,16.5)) ;
#151=CARTESIAN_POINT('Control Point',(0.9,2.40000000037,16.5)) ;
#152=CARTESIAN_POINT('Control Point',(0.9,2.57997952564,16.5)) ;
#153=CARTESIAN_POINT('Control Point',(0.926993863659,2.75995794055,16.5)) ;
#154=CARTESIAN_POINT('Control Point',(0.981030206719,2.93464297931,16.5)) ;
#155=CARTESIAN_POINT('Control Point',(1.13972373369,3.26221458464,16.5)) ;
#156=CARTESIAN_POINT('Control Point',(1.38753035229,3.52881442429,16.5)) ;
#157=CARTESIAN_POINT('Control Point',(1.53076378847,3.64247607706,16.5)) ;
#158=CARTESIAN_POINT('Control Point',(1.84670120863,3.82322546024,16.5)) ;
#159=CARTESIAN_POINT('Control Point',(2.20175894436,3.90333538419,16.5)) ;
#160=CARTESIAN_POINT('Control Point',(2.38415288585,3.91626754289,16.5)) ;
#161=CARTESIAN_POINT('Control Point',(2.74696588138,3.88705243448,16.5)) ;
#162=CARTESIAN_POINT('Control Point',(3.08524027897,3.75268716045,16.5)) ;
#163=CARTESIAN_POINT('Control Point',(3.24307795542,3.66037214904,16.5)) ;
#164=CARTESIAN_POINT('Control Point',(3.52602357088,3.43139788091,16.5)) ;
#165=CARTESIAN_POINT('Control Point',(3.72934350136,3.12949512581,16.5)) ;
#166=CARTESIAN_POINT('Control Point',(3.80748547104,2.96418265078,16.5)) ;
#167=CARTESIAN_POINT('Control Point',(3.87189134558,2.74869657891,16.5)) ;
#168=CARTESIAN_POINT('Control Point',(3.89548461537,2.52739433638,16.5)) ;
#169=CARTESIAN_POINT('Control Point',(3.89849924657,2.48487385773,16.5)) ;
#170=CARTESIAN_POINT('Control Point',(3.9,2.44243692893,16.5)) ;
#171=CARTESIAN_POINT('Control Point',(3.9,2.40000000037,16.5)) ;
#179=CARTESIAN_POINT('Axis2P3D Location',(2.4,2.4,11.49)) ;
#184=CARTESIAN_POINT('Axis2P3D Location',(2.4,2.4,11.49)) ;
#188=CARTESIAN_POINT('Vertex',(2.4,2.4,17.5)) ;
#191=CARTESIAN_POINT('Axis2P3D Location',(2.4,2.4,11.49)) ;
#203=CARTESIAN_POINT('Axis2P3D Location',(2.4,2.4,11.49)) ;
#215=CARTESIAN_POINT('Axis2P3D Location',(2.4,2.4,11.49)) ;
#220=CARTESIAN_POINT('Axis2P3D Location',(2.4,2.4,11.49)) ;
#239=CARTESIAN_POINT('Axis2P3D Location',(2.4,2.4,16.5)) ;
#244=CARTESIAN_POINT('Line Origine',(0.9,2.4,16.5)) ;
#248=CARTESIAN_POINT('Vertex',(0.9,2.4,2.)) ;
#251=CARTESIAN_POINT('Axis2P3D Location',(2.4,2.4,2.)) ;
#255=CARTESIAN_POINT('Vertex',(3.9,2.4,2.)) ;
#258=CARTESIAN_POINT('Line Origine',(3.9,2.4,16.5)) ;
#271=CARTESIAN_POINT('Axis2P3D Location',(2.4,2.4,2.)) ;
#284=CARTESIAN_POINT('Axis2P3D Location',(2.4,2.4,0.)) ;
#289=CARTESIAN_POINT('Line Origine',(980583.624583,2.39999999976,4902900.62868)) ;
#293=CARTESIAN_POINT('Vertex',(3.5,2.4,0.)) ;
#296=CARTESIAN_POINT('Line Origine',(-980578.824583,2.40000000012,4902900.62868)) ;
#300=CARTESIAN_POINT('Vertex',(1.30000000003,2.4,-1.31527067521E-10)) ;
#303=CARTESIAN_POINT('Axis2P3D Location',(2.4,2.4,0.)) ;
#316=CARTESIAN_POINT('Axis2P3D Location',(2.4,2.4,0.)) ;
#329=CARTESIAN_POINT('Axis2P3D Location',(2.4,0.9,0.)) ;
#33=DIRECTION('Axis2P3D Direction',(0.,0.,-1.)) ;
#34=DIRECTION('Axis2P3D XDirection',(-1.,0.,0.)) ;
#38=DIRECTION('Vector Direction',(0.,0.,-1.)) ;
#47=DIRECTION('Axis2P3D Direction',(0.,0.,-1.)) ;
#54=DIRECTION('Vector Direction',(0.,0.,-1.)) ;
#61=DIRECTION('Axis2P3D Direction',(0.,0.,-1.)) ;
#68=DIRECTION('Axis2P3D Direction',(0.,0.,-1.)) ;
#89=DIRECTION('Axis2P3D Direction',(0.,0.,-1.)) ;
#94=DIRECTION('Axis2P3D Direction',(0.,0.,-1.)) ;
#101=DIRECTION('Axis2P3D Direction',(0.,0.,-1.)) ;
#115=DIRECTION('Axis2P3D Direction',(0.,0.,1.)) ;
#116=DIRECTION('Axis2P3D XDirection',(1.,0.,0.)) ;
#180=DIRECTION('Axis2P3D Direction',(-0.,0.,-1.)) ;
#181=DIRECTION('Axis2P3D XDirection',(-1.,-3.69458577246E-16,0.)) ;
#185=DIRECTION('Axis2P3D Direction',(3.69458577246E-16,-1.,0.)) ;
#192=DIRECTION('Axis2P3D Direction',(-1.,-4.30690917203E-16,-0.)) ;
#204=DIRECTION('Axis2P3D Direction',(-4.78340473107E-17,1.,0.)) ;
#216=DIRECTION('Axis2P3D Direction',(0.,0.,-1.)) ;
#217=DIRECTION('Axis2P3D XDirection',(1.,2.21675146348E-16,0.)) ;
#221=DIRECTION('Axis2P3D Direction',(1.,2.82907486305E-16,0.)) ;
#240=DIRECTION('Axis2P3D Direction',(0.,0.,-1.)) ;
#241=DIRECTION('Axis2P3D XDirection',(-1.,-2.64687485605E-28,-0.)) ;
#245=DIRECTION('Vector Direction',(0.,0.,-1.)) ;
#252=DIRECTION('Axis2P3D Direction',(0.,0.,-1.)) ;
#259=DIRECTION('Vector Direction',(0.,0.,-1.)) ;
#272=DIRECTION('Axis2P3D Direction',(0.,0.,-1.)) ;
#285=DIRECTION('Axis2P3D Direction',(0.,0.,1.)) ;
#286=DIRECTION('Axis2P3D XDirection',(1.,0.,0.)) ;
#290=DIRECTION('Vector Direction',(0.196116134917,-4.80346159877E-17,0.980580675735)) ;
#297=DIRECTION('Vector Direction',(-0.196116134917,2.40173079938E-17,0.980580675735)) ;
#304=DIRECTION('Axis2P3D Direction',(0.,0.,1.)) ;
#317=DIRECTION('Axis2P3D Direction',(0.,0.,1.)) ;
#330=DIRECTION('Axis2P3D Direction',(0.,0.,1.)) ;
#331=DIRECTION('Axis2P3D XDirection',(1.,0.,0.)) ;
#30=PRESENTATION_LAYER_ASSIGNMENT('1',' ',(#21)) ;
#8=PRODUCT_RELATED_PRODUCT_CATEGORY('part',$,(#5)) ;
#7=PRODUCT_CATEGORY('part','specification') ;
#29=STYLED_ITEM(' ',(#28),#21) ;
#28=PRESENTATION_STYLE_ASSIGNMENT((#27)) ;
#86=PRESENTATION_STYLE_ASSIGNMENT((#85)) ;
#27=SURFACE_STYLE_USAGE(.BOTH.,#26) ;
#85=SURFACE_STYLE_USAGE(.BOTH.,#84) ;
#26=SURFACE_SIDE_STYLE(' ',(#25)) ;
#84=SURFACE_SIDE_STYLE(' ',(#83)) ;
#25=SURFACE_STYLE_FILL_AREA(#24) ;
#83=SURFACE_STYLE_FILL_AREA(#82) ;
#24=FILL_AREA_STYLE(' ',(#23)) ;
#82=FILL_AREA_STYLE(' ',(#81)) ;
#23=FILL_AREA_STYLE_COLOUR(' ',#22) ;
#81=FILL_AREA_STYLE_COLOUR(' ',#80) ;
#39=VECTOR('Line Direction',#38,1.) ;
#55=VECTOR('Line Direction',#54,1.) ;
#246=VECTOR('Line Direction',#245,1.) ;
#260=VECTOR('Line Direction',#259,1.) ;
#291=VECTOR('Line Direction',#290,1.) ;
#298=VECTOR('Line Direction',#297,1.) ;
#15=UNCERTAINTY_MEASURE_WITH_UNIT(LENGTH_MEASURE(0.005),#12,'distance_accuracy_value','CONFUSED CURVE UNCERTAINTY') ;
#341=SHAPE_REPRESENTATION_RELATIONSHIP(' ',' ',#19,#340) ;
#73=ORIENTED_EDGE('',*,*,#45,.T.) ;
#74=ORIENTED_EDGE('',*,*,#52,.F.) ;
#75=ORIENTED_EDGE('',*,*,#59,.T.) ;
#76=ORIENTED_EDGE('',*,*,#66,.T.) ;
#77=ORIENTED_EDGE('',*,*,#71,.T.) ;
#106=ORIENTED_EDGE('',*,*,#59,.F.) ;
#107=ORIENTED_EDGE('',*,*,#92,.F.) ;
#108=ORIENTED_EDGE('',*,*,#45,.F.) ;
#109=ORIENTED_EDGE('',*,*,#99,.T.) ;
#110=ORIENTED_EDGE('',*,*,#104,.T.) ;
#120=ORIENTED_EDGE('',*,*,#52,.T.) ;
#121=ORIENTED_EDGE('',*,*,#92,.T.) ;
#174=ORIENTED_EDGE('',*,*,#149,.F.) ;
#175=ORIENTED_EDGE('',*,*,#172,.F.) ;
#197=ORIENTED_EDGE('',*,*,#190,.F.) ;
#198=ORIENTED_EDGE('',*,*,#195,.T.) ;
#199=ORIENTED_EDGE('',*,*,#66,.F.) ;
#209=ORIENTED_EDGE('',*,*,#207,.T.) ;
#210=ORIENTED_EDGE('',*,*,#71,.F.) ;
#211=ORIENTED_EDGE('',*,*,#195,.F.) ;
#226=ORIENTED_EDGE('',*,*,#207,.F.) ;
#227=ORIENTED_EDGE('',*,*,#224,.T.) ;
#228=ORIENTED_EDGE('',*,*,#99,.F.) ;
#233=ORIENTED_EDGE('',*,*,#190,.T.) ;
#234=ORIENTED_EDGE('',*,*,#104,.F.) ;
#235=ORIENTED_EDGE('',*,*,#224,.F.) ;
#264=ORIENTED_EDGE('',*,*,#250,.F.) ;
#265=ORIENTED_EDGE('',*,*,#257,.T.) ;
#266=ORIENTED_EDGE('',*,*,#262,.F.) ;
#267=ORIENTED_EDGE('',*,*,#149,.T.) ;
#277=ORIENTED_EDGE('',*,*,#262,.T.) ;
#278=ORIENTED_EDGE('',*,*,#275,.T.) ;
#279=ORIENTED_EDGE('',*,*,#250,.T.) ;
#280=ORIENTED_EDGE('',*,*,#172,.T.) ;
#309=ORIENTED_EDGE('',*,*,#295,.F.) ;
#310=ORIENTED_EDGE('',*,*,#257,.F.) ;
#311=ORIENTED_EDGE('',*,*,#302,.F.) ;
#312=ORIENTED_EDGE('',*,*,#307,.F.) ;
#322=ORIENTED_EDGE('',*,*,#302,.T.) ;
#323=ORIENTED_EDGE('',*,*,#275,.F.) ;
#324=ORIENTED_EDGE('',*,*,#295,.T.) ;
#325=ORIENTED_EDGE('',*,*,#320,.F.) ;
#335=ORIENTED_EDGE('',*,*,#307,.T.) ;
#336=ORIENTED_EDGE('',*,*,#320,.T.) ;
#176=FACE_BOUND('',#173,.T.) ;
#31=CLOSED_SHELL('Closed Shell',(#79,#112,#177,#201,#213,#230,#237,#269,#282,#314,#327,#338)) ;
#340=ADVANCED_BREP_SHAPE_REPRESENTATION('NONE',(#21),#16) ;
#79=ADVANCED_FACE('CABTITE BP 3MM PA',(#78),#36,.T.) ;
#112=ADVANCED_FACE('CABTITE BP 3MM PA',(#111),#36,.T.) ;
#177=ADVANCED_FACE('CABTITE BP 3MM PA',(#122,#176),#118,.F.) ;
#201=ADVANCED_FACE('CABTITE BP 3MM PA',(#200),#183,.T.) ;
#213=ADVANCED_FACE('CABTITE BP 3MM PA',(#212),#183,.T.) ;
#230=ADVANCED_FACE('CABTITE BP 3MM PA',(#229),#219,.T.) ;
#237=ADVANCED_FACE('CABTITE BP 3MM PA',(#236),#183,.T.) ;
#269=ADVANCED_FACE('CABTITE BP 3MM PA',(#268),#243,.T.) ;
#282=ADVANCED_FACE('CABTITE BP 3MM PA',(#281),#243,.T.) ;
#314=ADVANCED_FACE('CABTITE BP 3MM PA',(#313),#288,.T.) ;
#327=ADVANCED_FACE('CABTITE BP 3MM PA',(#326),#288,.T.) ;
#338=ADVANCED_FACE('CABTITE BP 3MM PA',(#337),#333,.F.) ;
#4=APPLICATION_PROTOCOL_DEFINITION('international standard','automotive_design',2001,#1) ;
#123=B_SPLINE_CURVE_WITH_KNOTS('',5,(#124,#125,#126,#127,#128,#129,#130,#131,#132,#133,#134,#135,#136,#137,#138,#139,#140,#141,#142,#143,#144),.UNSPECIFIED.,.F.,.U.,(6,3,3,3,3,3,6),(0.,1.27731306384,2.55462615469,3.83193925329,5.10925232654,6.38657165636,6.6877461524),.UNSPECIFIED.) ;
#150=B_SPLINE_CURVE_WITH_KNOTS('',5,(#151,#152,#153,#154,#155,#156,#157,#158,#159,#160,#161,#162,#163,#164,#165,#166,#167,#168,#169,#170,#171),.UNSPECIFIED.,.F.,.U.,(6,3,3,3,3,3,6),(0.,1.27731306902,2.55462614336,3.83193921974,5.10925228668,6.38657157535,6.6877460749),.UNSPECIFIED.) ;
#21=MANIFOLD_SOLID_BREP('CABTITE BP 3MM PA',#31) ;
#49=CIRCLE('generated circle',#48,2.4) ;
#63=CIRCLE('generated circle',#62,2.4) ;
#70=CIRCLE('generated circle',#69,2.4) ;
#91=CIRCLE('generated circle',#90,2.4) ;
#96=CIRCLE('generated circle',#95,2.4) ;
#103=CIRCLE('generated circle',#102,2.4) ;
#187=CIRCLE('generated circle',#186,6.01) ;
#194=CIRCLE('generated circle',#193,6.01) ;
#206=CIRCLE('generated circle',#205,6.01) ;
#223=CIRCLE('generated circle',#222,6.01) ;
#254=CIRCLE('generated circle',#253,1.5) ;
#274=CIRCLE('generated circle',#273,1.5) ;
#306=CIRCLE('generated circle',#305,1.1) ;
#319=CIRCLE('generated circle',#318,1.1) ;
#22=COLOUR_RGB('Colour',0.823529411765,0.823529411765,1.) ;
#80=COLOUR_RGB('Colour',0.964705882353,0.937254901961,0.894117647059) ;
#288=CONICAL_SURFACE('Cone',#287,1.1,0.197395559624) ;
#87=OVER_RIDING_STYLED_ITEM(' ',(#86),#79,#29) ;
#113=OVER_RIDING_STYLED_ITEM(' ',(#86),#112,#29) ;
#178=OVER_RIDING_STYLED_ITEM(' ',(#86),#177,#29) ;
#202=OVER_RIDING_STYLED_ITEM(' ',(#86),#201,#29) ;
#214=OVER_RIDING_STYLED_ITEM(' ',(#86),#213,#29) ;
#231=OVER_RIDING_STYLED_ITEM(' ',(#86),#230,#29) ;
#238=OVER_RIDING_STYLED_ITEM(' ',(#86),#237,#29) ;
#270=OVER_RIDING_STYLED_ITEM(' ',(#86),#269,#29) ;
#283=OVER_RIDING_STYLED_ITEM(' ',(#86),#282,#29) ;
#315=OVER_RIDING_STYLED_ITEM(' ',(#86),#314,#29) ;
#328=OVER_RIDING_STYLED_ITEM(' ',(#86),#327,#29) ;
#339=OVER_RIDING_STYLED_ITEM(' ',(#86),#338,#29) ;
#36=CYLINDRICAL_SURFACE('generated cylinder',#35,2.4) ;
#243=CYLINDRICAL_SURFACE('generated cylinder',#242,1.5) ;
#45=EDGE_CURVE('',#42,#44,#40,.T.) ;
#52=EDGE_CURVE('',#51,#44,#49,.T.) ;
#59=EDGE_CURVE('',#51,#58,#56,.F.) ;
#66=EDGE_CURVE('',#58,#65,#63,.T.) ;
#71=EDGE_CURVE('',#65,#42,#70,.T.) ;
#92=EDGE_CURVE('',#44,#51,#91,.T.) ;
#99=EDGE_CURVE('',#42,#98,#96,.T.) ;
#104=EDGE_CURVE('',#98,#58,#103,.T.) ;
#149=EDGE_CURVE('',#146,#148,#123,.T.) ;
#172=EDGE_CURVE('',#148,#146,#150,.T.) ;
#190=EDGE_CURVE('',#189,#58,#187,.T.) ;
#195=EDGE_CURVE('',#189,#65,#194,.T.) ;
#207=EDGE_CURVE('',#189,#42,#206,.T.) ;
#224=EDGE_CURVE('',#189,#98,#223,.T.) ;
#250=EDGE_CURVE('',#249,#148,#247,.F.) ;
#257=EDGE_CURVE('',#249,#256,#254,.F.) ;
#262=EDGE_CURVE('',#146,#256,#261,.T.) ;
#275=EDGE_CURVE('',#256,#249,#274,.F.) ;
#295=EDGE_CURVE('',#256,#294,#292,.F.) ;
#302=EDGE_CURVE('',#301,#249,#299,.T.) ;
#307=EDGE_CURVE('',#294,#301,#306,.F.) ;
#320=EDGE_CURVE('',#301,#294,#319,.F.) ;
#72=EDGE_LOOP('',(#73,#74,#75,#76,#77)) ;
#105=EDGE_LOOP('',(#106,#107,#108,#109,#110)) ;
#119=EDGE_LOOP('',(#120,#121)) ;
#173=EDGE_LOOP('',(#174,#175)) ;
#196=EDGE_LOOP('',(#197,#198,#199)) ;
#208=EDGE_LOOP('',(#209,#210,#211)) ;
#225=EDGE_LOOP('',(#226,#227,#228)) ;
#232=EDGE_LOOP('',(#233,#234,#235)) ;
#263=EDGE_LOOP('',(#264,#265,#266,#267)) ;
#276=EDGE_LOOP('',(#277,#278,#279,#280)) ;
#308=EDGE_LOOP('',(#309,#310,#311,#312)) ;
#321=EDGE_LOOP('',(#322,#323,#324,#325)) ;
#334=EDGE_LOOP('',(#335,#336)) ;
#78=FACE_OUTER_BOUND('',#72,.T.) ;
#111=FACE_OUTER_BOUND('',#105,.T.) ;
#122=FACE_OUTER_BOUND('',#119,.T.) ;
#200=FACE_OUTER_BOUND('',#196,.T.) ;
#212=FACE_OUTER_BOUND('',#208,.T.) ;
#229=FACE_OUTER_BOUND('',#225,.T.) ;
#236=FACE_OUTER_BOUND('',#232,.T.) ;
#268=FACE_OUTER_BOUND('',#263,.T.) ;
#281=FACE_OUTER_BOUND('',#276,.T.) ;
#313=FACE_OUTER_BOUND('',#308,.T.) ;
#326=FACE_OUTER_BOUND('',#321,.T.) ;
#337=FACE_OUTER_BOUND('',#334,.T.) ;
#40=LINE('Line',#37,#39) ;
#56=LINE('Line',#53,#55) ;
#247=LINE('Line',#244,#246) ;
#261=LINE('Line',#258,#260) ;
#292=LINE('Line',#289,#291) ;
#299=LINE('Line',#296,#298) ;
#118=PLANE('',#117) ;
#333=PLANE('',#332) ;
#9=PRODUCT_CATEGORY_RELATIONSHIP(' ',' ',#7,#8) ;
#6=PRODUCT_DEFINITION_FORMATION_WITH_SPECIFIED_SOURCE(' ',' ',#5,.NOT_KNOWN.) ;
#20=SHAPE_DEFINITION_REPRESENTATION(#11,#19) ;
#183=SPHERICAL_SURFACE('',#182,6.01) ;
#219=SPHERICAL_SURFACE('',#218,6.01) ;
#42=VERTEX_POINT('',#41) ;
#44=VERTEX_POINT('',#43) ;
#51=VERTEX_POINT('',#50) ;
#58=VERTEX_POINT('',#57) ;
#65=VERTEX_POINT('',#64) ;
#98=VERTEX_POINT('',#97) ;
#146=VERTEX_POINT('',#145) ;
#148=VERTEX_POINT('',#147) ;
#189=VERTEX_POINT('',#188) ;
#249=VERTEX_POINT('',#248) ;
#256=VERTEX_POINT('',#255) ;
#294=VERTEX_POINT('',#293) ;
#301=VERTEX_POINT('',#300) ;
#12=(LENGTH_UNIT()NAMED_UNIT(*)SI_UNIT(.MILLI.,.METRE.)) ;
#13=(NAMED_UNIT(*)PLANE_ANGLE_UNIT()SI_UNIT($,.RADIAN.)) ;
#14=(NAMED_UNIT(*)SI_UNIT($,.STERADIAN.)SOLID_ANGLE_UNIT()) ;
#16=(GEOMETRIC_REPRESENTATION_CONTEXT(3)GLOBAL_UNCERTAINTY_ASSIGNED_CONTEXT((#15))GLOBAL_UNIT_ASSIGNED_CONTEXT((#12,#13,#14))REPRESENTATION_CONTEXT(' ',' ')) ;
ENDSEC;
END-ISO-10303-21;
