ISO-10303-21;
HEADER;
FILE_DESCRIPTION(('CATIA V5 STEP Exchange','CAx-IF Rec.Pracs.--- Model Styling and Organization---1.5--- 2016-08-15','CAx-IF Rec.Pracs.---Supplemental Geometry---1.0---2011-11-01','CAx-IF Rec.Pracs.--- Composite Materials ---1.1---2010-07-15'),'2;1');

FILE_NAME ('D1459253_0', '2025-09-22T05:09:47+00:00', ('none'), ('Weidmueller'), 'CATIA Version 5-6 Release 2024 SP4', 'CATIA V5 STEP AP214 v3', 'none');

FILE_SCHEMA(('AUTOMOTIVE_DESIGN { 1 0 10303 214 1 1 1 1 }'));

ENDSEC;
DATA;
#5=PRODUCT('WS 12/5 PLUS','','EINZELMARKIERER WS 12/5 PLUS\X2\000A\X0\<Q-CHECKER_SEAL> Q-Checker Version 2.14.8  \X2\000A\X0\CATIA-Version         : Catia V5 R20 SP5 Build Date 01-06-2014.17.15\X2\000A\X0\Model size (in KByte) : 0\X2\000A\X0\Checking date         : 2014-11-28 14:02:42\X2\000A\X0\Checking profile      : ADMIN / Release_2D-3D [CATPart]\X2\000A\X0\Model assessment      : In Ordnung (IO)\X2\000A\X0\Total weight sum      : 0\X2\000A\X0\<CROSS_CHECK_SUM>\X2\000A\X0\  <CHKSUM_DATE> -1144917240 </CHKSUM_DATE>\X2\000A\X0\  <CHKSUM_ENTITIES> -961988916 </CHKSUM_ENTITIES>\X2\000A\X0\  <CHKSUM_PROFILE> 1594213346 </CHKSUM_PROFILE>\X2\000A\X0\  <CHKSUM_DIMENSION> -186917087 </CHKSUM_DIMENSION>\X2\000A\X0\  <CHKSUM_PROJINTERSEC> -896974048 </CHKSUM_PROJINTERSEC>\X2\000A\X0\  <CHKSUM_IDENTCRV> -896974048 </CHKSUM_IDENTCRV>\X2\000A\X0\  <CHKSUM_INFINITY> 138018827 </CHKSUM_INFINITY>\X2\000A\X0\</CROSS_CHECK_SUM>\X2\000A\X0\</Q-CHECKER_SEAL> \X2\000A\X0\',(#2)) ;
#2=PRODUCT_CONTEXT(' ',#1,'mechanical') ;
#1=APPLICATION_CONTEXT('automotive design') ;
#10=PRODUCT_DEFINITION('',' ',#6,#3) ;
#3=PRODUCT_DEFINITION_CONTEXT('part definition',#1,' ') ;
#11=PRODUCT_DEFINITION_SHAPE(' ',' ',#10) ;
#573=MECHANICAL_DESIGN_GEOMETRIC_PRESENTATION_REPRESENTATION(' ',(#29),#16) ;
#19=SHAPE_REPRESENTATION(' ',(#18),#16) ;
#18=AXIS2_PLACEMENT_3D(' ',#17,$,$) ;
#35=AXIS2_PLACEMENT_3D('Plane Axis2P3D',#32,#33,#34) ;
#75=AXIS2_PLACEMENT_3D('Plane Axis2P3D',#72,#73,#74) ;
#106=AXIS2_PLACEMENT_3D('Plane Axis2P3D',#103,#104,#105) ;
#194=AXIS2_PLACEMENT_3D('Plane Axis2P3D',#191,#192,#193) ;
#218=AXIS2_PLACEMENT_3D('Plane Axis2P3D',#215,#216,#217) ;
#299=AXIS2_PLACEMENT_3D('Plane Axis2P3D',#296,#297,#298) ;
#333=AXIS2_PLACEMENT_3D('Plane Axis2P3D',#330,#331,#332) ;
#350=AXIS2_PLACEMENT_3D('Plane Axis2P3D',#347,#348,#349) ;
#401=AXIS2_PLACEMENT_3D('Plane Axis2P3D',#398,#399,#400) ;
#430=AXIS2_PLACEMENT_3D('Plane Axis2P3D',#427,#428,#429) ;
#454=AXIS2_PLACEMENT_3D('Plane Axis2P3D',#451,#452,#453) ;
#466=AXIS2_PLACEMENT_3D('Plane Axis2P3D',#463,#464,#465) ;
#497=AXIS2_PLACEMENT_3D('Plane Axis2P3D',#494,#495,#496) ;
#521=AXIS2_PLACEMENT_3D('Plane Axis2P3D',#518,#519,#520) ;
#545=AXIS2_PLACEMENT_3D('Plane Axis2P3D',#542,#543,#544) ;
#562=AXIS2_PLACEMENT_3D('Plane Axis2P3D',#559,#560,#561) ;
#17=CARTESIAN_POINT(' ',(0.,0.,0.)) ;
#32=CARTESIAN_POINT('Axis2P3D Location',(2.425,4.8,1.785)) ;
#37=CARTESIAN_POINT('Line Origine',(2.425,4.8,1.785)) ;
#41=CARTESIAN_POINT('Vertex',(4.35000000075,4.8,1.785)) ;
#43=CARTESIAN_POINT('Vertex',(0.499999999255,4.8,1.785)) ;
#46=CARTESIAN_POINT('Line Origine',(4.35000000075,4.60213751368,0.892500000393)) ;
#50=CARTESIAN_POINT('Vertex',(4.35000000075,4.40427502736,7.86291476373E-10)) ;
#53=CARTESIAN_POINT('Line Origine',(2.425,4.40427502736,7.86291476373E-10)) ;
#57=CARTESIAN_POINT('Vertex',(0.499999999255,4.40427502736,7.86291476373E-10)) ;
#60=CARTESIAN_POINT('Line Origine',(0.499999999255,4.60213751368,0.892500000393)) ;
#72=CARTESIAN_POINT('Axis2P3D Location',(2.425,6.,1.785)) ;
#77=CARTESIAN_POINT('Line Origine',(0.499999999255,6.,1.785)) ;
#81=CARTESIAN_POINT('Vertex',(0.499999999255,7.19999999925,1.785)) ;
#84=CARTESIAN_POINT('Line Origine',(2.425,7.19999999925,1.785)) ;
#88=CARTESIAN_POINT('Vertex',(4.35000000075,7.19999999925,1.785)) ;
#91=CARTESIAN_POINT('Line Origine',(4.35000000075,6.,1.785)) ;
#103=CARTESIAN_POINT('Axis2P3D Location',(4.35,9.,2.335)) ;
#108=CARTESIAN_POINT('Line Origine',(4.35,8.60749999993,1.78499999925)) ;
#112=CARTESIAN_POINT('Vertex',(4.35,9.,1.78499999925)) ;
#114=CARTESIAN_POINT('Vertex',(4.35,8.21499999985,1.78499999925)) ;
#117=CARTESIAN_POINT('Line Origine',(4.35,9.,2.05999999963)) ;
#121=CARTESIAN_POINT('Vertex',(4.35,9.,2.335)) ;
#124=CARTESIAN_POINT('Line Origine',(4.35,6.,2.335)) ;
#128=CARTESIAN_POINT('Vertex',(4.35,3.,2.335)) ;
#131=CARTESIAN_POINT('Line Origine',(4.35,3.,2.05999999963)) ;
#135=CARTESIAN_POINT('Vertex',(4.35,3.,1.78499999925)) ;
#138=CARTESIAN_POINT('Line Origine',(4.35,3.39250000007,1.78499999925)) ;
#142=CARTESIAN_POINT('Vertex',(4.35,3.78500000015,1.78499999925)) ;
#145=CARTESIAN_POINT('Line Origine',(4.35,3.78500000015,0.89249999918)) ;
#149=CARTESIAN_POINT('Vertex',(4.35,3.78500000015,-8.94069707158E-10)) ;
#152=CARTESIAN_POINT('Line Origine',(4.35,4.09463751409,-8.94069707158E-10)) ;
#157=CARTESIAN_POINT('Line Origine',(4.35,7.39786248561,0.89249999918)) ;
#161=CARTESIAN_POINT('Vertex',(4.35,7.59572497196,-8.94069707158E-10)) ;
#164=CARTESIAN_POINT('Line Origine',(4.35,7.90536248684,-8.94069707158E-10)) ;
#168=CARTESIAN_POINT('Vertex',(4.35,8.21499999985,-8.94069707158E-10)) ;
#171=CARTESIAN_POINT('Line Origine',(4.35,8.21499999985,0.89249999918)) ;
#191=CARTESIAN_POINT('Axis2P3D Location',(2.425,3.785,1.33226762955E-15)) ;
#196=CARTESIAN_POINT('Line Origine',(2.425,3.785,1.33226762955E-15)) ;
#200=CARTESIAN_POINT('Vertex',(0.499999999255,3.785,1.33226762955E-15)) ;
#203=CARTESIAN_POINT('Line Origine',(0.499999999255,4.09463751394,1.33226762955E-15)) ;
#215=CARTESIAN_POINT('Axis2P3D Location',(0.5,3.,2.335)) ;
#220=CARTESIAN_POINT('Line Origine',(0.5,8.21499999985,0.89249999918)) ;
#224=CARTESIAN_POINT('Vertex',(0.5,8.21499999985,-8.94069707158E-10)) ;
#226=CARTESIAN_POINT('Vertex',(0.5,8.21499999985,1.78499999925)) ;
#229=CARTESIAN_POINT('Line Origine',(0.5,7.90536248684,-8.94069707158E-10)) ;
#233=CARTESIAN_POINT('Vertex',(0.5,7.59572497383,-8.94069707158E-10)) ;
#236=CARTESIAN_POINT('Line Origine',(0.5,7.39786248561,0.89249999918)) ;
#241=CARTESIAN_POINT('Line Origine',(0.5,3.78500000015,0.89249999918)) ;
#245=CARTESIAN_POINT('Vertex',(0.5,3.78500000015,1.78499999925)) ;
#248=CARTESIAN_POINT('Line Origine',(0.5,3.39250000007,1.78499999925)) ;
#252=CARTESIAN_POINT('Vertex',(0.5,3.,1.78499999925)) ;
#255=CARTESIAN_POINT('Line Origine',(0.5,3.,2.05999999963)) ;
#259=CARTESIAN_POINT('Vertex',(0.5,3.,2.335)) ;
#262=CARTESIAN_POINT('Line Origine',(0.5,6.,2.335)) ;
#266=CARTESIAN_POINT('Vertex',(0.5,9.,2.335)) ;
#269=CARTESIAN_POINT('Line Origine',(0.5,9.,2.05999999963)) ;
#273=CARTESIAN_POINT('Vertex',(0.5,9.,1.78499999925)) ;
#276=CARTESIAN_POINT('Line Origine',(0.5,8.60749999993,1.78499999925)) ;
#296=CARTESIAN_POINT('Axis2P3D Location',(2.425,7.2,1.785)) ;
#301=CARTESIAN_POINT('Line Origine',(2.425,7.59572497264,7.86291476373E-10)) ;
#313=CARTESIAN_POINT('Line Origine',(2.42500000093,9.,1.785)) ;
#318=CARTESIAN_POINT('Line Origine',(2.425,8.21499999985,1.785)) ;
#330=CARTESIAN_POINT('Axis2P3D Location',(4.35,9.,2.335)) ;
#335=CARTESIAN_POINT('Line Origine',(2.42499999925,9.,2.335)) ;
#347=CARTESIAN_POINT('Axis2P3D Location',(2.425,6.,2.335)) ;
#352=CARTESIAN_POINT('Line Origine',(2.425,12.,2.335)) ;
#356=CARTESIAN_POINT('Vertex',(4.85000000075,12.,2.335)) ;
#358=CARTESIAN_POINT('Vertex',(-7.45058237328E-10,12.,2.335)) ;
#361=CARTESIAN_POINT('Line Origine',(4.85000000075,6.,2.335)) ;
#365=CARTESIAN_POINT('Vertex',(4.85000000075,0.,2.335)) ;
#368=CARTESIAN_POINT('Line Origine',(2.425,0.,2.335)) ;
#372=CARTESIAN_POINT('Vertex',(-7.45058237328E-10,0.,2.335)) ;
#375=CARTESIAN_POINT('Line Origine',(-7.45058237328E-10,6.,2.335)) ;
#386=CARTESIAN_POINT('Line Origine',(2.42499999907,3.,2.335)) ;
#398=CARTESIAN_POINT('Axis2P3D Location',(0.5,3.,2.335)) ;
#403=CARTESIAN_POINT('Line Origine',(2.42499999981,3.,1.78499999925)) ;
#415=CARTESIAN_POINT('Line Origine',(2.425,3.78500000015,1.785)) ;
#427=CARTESIAN_POINT('Axis2P3D Location',(2.425,3.785,1.785)) ;
#439=CARTESIAN_POINT('Line Origine',(2.425,8.2149999997,1.33226762955E-15)) ;
#451=CARTESIAN_POINT('Axis2P3D Location',(2.425,8.215,1.785)) ;
#463=CARTESIAN_POINT('Axis2P3D Location',(0.,12.,2.335)) ;
#468=CARTESIAN_POINT('Line Origine',(4.84999999963,12.,2.73500000037)) ;
#472=CARTESIAN_POINT('Vertex',(4.84999999963,12.,3.13500000075)) ;
#475=CARTESIAN_POINT('Line Origine',(0.,12.,2.73500000037)) ;
#479=CARTESIAN_POINT('Vertex',(0.,12.,3.13500000075)) ;
#482=CARTESIAN_POINT('Line Origine',(2.42499999981,12.,3.13500000075)) ;
#494=CARTESIAN_POINT('Axis2P3D Location',(4.85,8.881784197E-16,2.335)) ;
#499=CARTESIAN_POINT('Line Origine',(4.85,8.881784197E-16,2.73500000037)) ;
#503=CARTESIAN_POINT('Vertex',(4.85,8.881784197E-16,3.13500000075)) ;
#506=CARTESIAN_POINT('Line Origine',(4.85,6.,3.13500000075)) ;
#518=CARTESIAN_POINT('Axis2P3D Location',(4.85,0.,2.335)) ;
#523=CARTESIAN_POINT('Line Origine',(3.72528674575E-10,0.,2.73500000037)) ;
#527=CARTESIAN_POINT('Vertex',(3.72528674575E-10,0.,3.13500000075)) ;
#530=CARTESIAN_POINT('Line Origine',(2.42500000019,0.,3.13500000075)) ;
#542=CARTESIAN_POINT('Axis2P3D Location',(0.,12.,2.335)) ;
#547=CARTESIAN_POINT('Line Origine',(0.,6.,3.13500000075)) ;
#559=CARTESIAN_POINT('Axis2P3D Location',(2.425,6.,3.135)) ;
#33=DIRECTION('Axis2P3D Direction',(1.79342667021E-16,0.97629600712,-0.216439613938)) ;
#34=DIRECTION('Axis2P3D XDirection',(-3.97593120627E-17,-0.216439613938,-0.97629600712)) ;
#38=DIRECTION('Vector Direction',(-1.,0.,0.)) ;
#47=DIRECTION('Vector Direction',(0.,-0.216439613938,-0.97629600712)) ;
#54=DIRECTION('Vector Direction',(-1.,0.,0.)) ;
#61=DIRECTION('Vector Direction',(0.,-0.216439613938,-0.97629600712)) ;
#73=DIRECTION('Axis2P3D Direction',(0.,0.,-1.)) ;
#74=DIRECTION('Axis2P3D XDirection',(1.,0.,0.)) ;
#78=DIRECTION('Vector Direction',(0.,1.,0.)) ;
#85=DIRECTION('Vector Direction',(-1.,0.,0.)) ;
#92=DIRECTION('Vector Direction',(0.,-1.,0.)) ;
#104=DIRECTION('Axis2P3D Direction',(1.,0.,0.)) ;
#105=DIRECTION('Axis2P3D XDirection',(0.,-1.,0.)) ;
#109=DIRECTION('Vector Direction',(0.,-1.,0.)) ;
#118=DIRECTION('Vector Direction',(0.,0.,-1.)) ;
#125=DIRECTION('Vector Direction',(0.,-1.,0.)) ;
#132=DIRECTION('Vector Direction',(0.,0.,-1.)) ;
#139=DIRECTION('Vector Direction',(0.,-1.,0.)) ;
#146=DIRECTION('Vector Direction',(0.,0.,-1.)) ;
#153=DIRECTION('Vector Direction',(0.,1.,0.)) ;
#158=DIRECTION('Vector Direction',(0.,0.216439613865,-0.976296007136)) ;
#165=DIRECTION('Vector Direction',(0.,-1.,0.)) ;
#172=DIRECTION('Vector Direction',(0.,0.,-1.)) ;
#192=DIRECTION('Axis2P3D Direction',(2.58195522249E-32,-4.74297479814E-48,1.)) ;
#193=DIRECTION('Axis2P3D XDirection',(1.83697019872E-16,1.,-0.)) ;
#197=DIRECTION('Vector Direction',(-1.,2.30695693339E-16,0.)) ;
#204=DIRECTION('Vector Direction',(0.,1.,0.)) ;
#216=DIRECTION('Axis2P3D Direction',(-1.,0.,0.)) ;
#217=DIRECTION('Axis2P3D XDirection',(0.,1.,0.)) ;
#221=DIRECTION('Vector Direction',(0.,0.,-1.)) ;
#230=DIRECTION('Vector Direction',(0.,-1.,0.)) ;
#237=DIRECTION('Vector Direction',(0.,0.216439613865,-0.976296007136)) ;
#242=DIRECTION('Vector Direction',(0.,0.,-1.)) ;
#249=DIRECTION('Vector Direction',(0.,1.,0.)) ;
#256=DIRECTION('Vector Direction',(0.,0.,-1.)) ;
#263=DIRECTION('Vector Direction',(0.,1.,0.)) ;
#270=DIRECTION('Vector Direction',(0.,0.,-1.)) ;
#277=DIRECTION('Vector Direction',(0.,1.,0.)) ;
#297=DIRECTION('Axis2P3D Direction',(1.79342667021E-16,0.97629600712,0.216439613938)) ;
#298=DIRECTION('Axis2P3D XDirection',(3.97593120627E-17,0.216439613938,-0.97629600712)) ;
#302=DIRECTION('Vector Direction',(-1.,0.,0.)) ;
#314=DIRECTION('Vector Direction',(-1.,0.,0.)) ;
#319=DIRECTION('Vector Direction',(-1.,0.,0.)) ;
#331=DIRECTION('Axis2P3D Direction',(0.,-1.,0.)) ;
#332=DIRECTION('Axis2P3D XDirection',(-1.,-0.,0.)) ;
#336=DIRECTION('Vector Direction',(-1.,0.,0.)) ;
#348=DIRECTION('Axis2P3D Direction',(0.,0.,1.)) ;
#349=DIRECTION('Axis2P3D XDirection',(1.,0.,0.)) ;
#353=DIRECTION('Vector Direction',(1.,0.,0.)) ;
#362=DIRECTION('Vector Direction',(0.,1.,0.)) ;
#369=DIRECTION('Vector Direction',(-1.,0.,0.)) ;
#376=DIRECTION('Vector Direction',(0.,-1.,0.)) ;
#387=DIRECTION('Vector Direction',(1.,0.,0.)) ;
#399=DIRECTION('Axis2P3D Direction',(-0.,1.,0.)) ;
#400=DIRECTION('Axis2P3D XDirection',(1.,0.,0.)) ;
#404=DIRECTION('Vector Direction',(1.,0.,0.)) ;
#416=DIRECTION('Vector Direction',(-1.,0.,0.)) ;
#428=DIRECTION('Axis2P3D Direction',(1.83697019872E-16,1.,6.40289931324E-60)) ;
#429=DIRECTION('Axis2P3D XDirection',(-2.58195522249E-32,4.74297479815E-48,-1.)) ;
#440=DIRECTION('Vector Direction',(-1.,0.,0.)) ;
#452=DIRECTION('Axis2P3D Direction',(1.83697019872E-16,1.,6.40289931324E-60)) ;
#453=DIRECTION('Axis2P3D XDirection',(-2.58195522249E-32,4.74297479815E-48,-1.)) ;
#464=DIRECTION('Axis2P3D Direction',(0.,-1.,0.)) ;
#465=DIRECTION('Axis2P3D XDirection',(1.,0.,0.)) ;
#469=DIRECTION('Vector Direction',(0.,0.,1.)) ;
#476=DIRECTION('Vector Direction',(0.,0.,1.)) ;
#483=DIRECTION('Vector Direction',(1.,0.,0.)) ;
#495=DIRECTION('Axis2P3D Direction',(1.,0.,0.)) ;
#496=DIRECTION('Axis2P3D XDirection',(0.,1.,0.)) ;
#500=DIRECTION('Vector Direction',(0.,0.,1.)) ;
#507=DIRECTION('Vector Direction',(0.,1.,0.)) ;
#519=DIRECTION('Axis2P3D Direction',(0.,1.,-0.)) ;
#520=DIRECTION('Axis2P3D XDirection',(-1.,0.,0.)) ;
#524=DIRECTION('Vector Direction',(0.,0.,1.)) ;
#531=DIRECTION('Vector Direction',(-1.,0.,0.)) ;
#543=DIRECTION('Axis2P3D Direction',(-1.,0.,0.)) ;
#544=DIRECTION('Axis2P3D XDirection',(0.,-1.,0.)) ;
#548=DIRECTION('Vector Direction',(0.,-1.,0.)) ;
#560=DIRECTION('Axis2P3D Direction',(0.,0.,1.)) ;
#561=DIRECTION('Axis2P3D XDirection',(1.,0.,0.)) ;
#30=PRESENTATION_LAYER_ASSIGNMENT('1',' ',(#21)) ;
#8=PRODUCT_RELATED_PRODUCT_CATEGORY('part',$,(#5)) ;
#7=PRODUCT_CATEGORY('part','specification') ;
#29=STYLED_ITEM(' ',(#28),#21) ;
#28=PRESENTATION_STYLE_ASSIGNMENT((#27)) ;
#27=SURFACE_STYLE_USAGE(.BOTH.,#26) ;
#26=SURFACE_SIDE_STYLE(' ',(#25)) ;
#25=SURFACE_STYLE_FILL_AREA(#24) ;
#24=FILL_AREA_STYLE(' ',(#23)) ;
#23=FILL_AREA_STYLE_COLOUR(' ',#22) ;
#39=VECTOR('Line Direction',#38,1.) ;
#48=VECTOR('Line Direction',#47,1.) ;
#55=VECTOR('Line Direction',#54,1.) ;
#62=VECTOR('Line Direction',#61,1.) ;
#79=VECTOR('Line Direction',#78,1.) ;
#86=VECTOR('Line Direction',#85,1.) ;
#93=VECTOR('Line Direction',#92,1.) ;
#110=VECTOR('Line Direction',#109,1.) ;
#119=VECTOR('Line Direction',#118,1.) ;
#126=VECTOR('Line Direction',#125,1.) ;
#133=VECTOR('Line Direction',#132,1.) ;
#140=VECTOR('Line Direction',#139,1.) ;
#147=VECTOR('Line Direction',#146,1.) ;
#154=VECTOR('Line Direction',#153,1.) ;
#159=VECTOR('Line Direction',#158,1.) ;
#166=VECTOR('Line Direction',#165,1.) ;
#173=VECTOR('Line Direction',#172,1.) ;
#198=VECTOR('Line Direction',#197,1.) ;
#205=VECTOR('Line Direction',#204,1.) ;
#222=VECTOR('Line Direction',#221,1.) ;
#231=VECTOR('Line Direction',#230,1.) ;
#238=VECTOR('Line Direction',#237,1.) ;
#243=VECTOR('Line Direction',#242,1.) ;
#250=VECTOR('Line Direction',#249,1.) ;
#257=VECTOR('Line Direction',#256,1.) ;
#264=VECTOR('Line Direction',#263,1.) ;
#271=VECTOR('Line Direction',#270,1.) ;
#278=VECTOR('Line Direction',#277,1.) ;
#303=VECTOR('Line Direction',#302,1.) ;
#315=VECTOR('Line Direction',#314,1.) ;
#320=VECTOR('Line Direction',#319,1.) ;
#337=VECTOR('Line Direction',#336,1.) ;
#354=VECTOR('Line Direction',#353,1.) ;
#363=VECTOR('Line Direction',#362,1.) ;
#370=VECTOR('Line Direction',#369,1.) ;
#377=VECTOR('Line Direction',#376,1.) ;
#388=VECTOR('Line Direction',#387,1.) ;
#405=VECTOR('Line Direction',#404,1.) ;
#417=VECTOR('Line Direction',#416,1.) ;
#441=VECTOR('Line Direction',#440,1.) ;
#470=VECTOR('Line Direction',#469,1.) ;
#477=VECTOR('Line Direction',#476,1.) ;
#484=VECTOR('Line Direction',#483,1.) ;
#501=VECTOR('Line Direction',#500,1.) ;
#508=VECTOR('Line Direction',#507,1.) ;
#525=VECTOR('Line Direction',#524,1.) ;
#532=VECTOR('Line Direction',#531,1.) ;
#549=VECTOR('Line Direction',#548,1.) ;
#15=UNCERTAINTY_MEASURE_WITH_UNIT(LENGTH_MEASURE(0.005),#12,'distance_accuracy_value','CONFUSED CURVE UNCERTAINTY') ;
#572=SHAPE_REPRESENTATION_RELATIONSHIP(' ',' ',#19,#571) ;
#66=ORIENTED_EDGE('',*,*,#45,.F.) ;
#67=ORIENTED_EDGE('',*,*,#52,.T.) ;
#68=ORIENTED_EDGE('',*,*,#59,.T.) ;
#69=ORIENTED_EDGE('',*,*,#64,.F.) ;
#97=ORIENTED_EDGE('',*,*,#83,.T.) ;
#98=ORIENTED_EDGE('',*,*,#90,.F.) ;
#99=ORIENTED_EDGE('',*,*,#95,.T.) ;
#100=ORIENTED_EDGE('',*,*,#45,.T.) ;
#177=ORIENTED_EDGE('',*,*,#116,.F.) ;
#178=ORIENTED_EDGE('',*,*,#123,.F.) ;
#179=ORIENTED_EDGE('',*,*,#130,.T.) ;
#180=ORIENTED_EDGE('',*,*,#137,.T.) ;
#181=ORIENTED_EDGE('',*,*,#144,.F.) ;
#182=ORIENTED_EDGE('',*,*,#151,.F.) ;
#183=ORIENTED_EDGE('',*,*,#156,.F.) ;
#184=ORIENTED_EDGE('',*,*,#52,.F.) ;
#185=ORIENTED_EDGE('',*,*,#95,.F.) ;
#186=ORIENTED_EDGE('',*,*,#163,.T.) ;
#187=ORIENTED_EDGE('',*,*,#170,.T.) ;
#188=ORIENTED_EDGE('',*,*,#175,.T.) ;
#209=ORIENTED_EDGE('',*,*,#59,.F.) ;
#210=ORIENTED_EDGE('',*,*,#156,.T.) ;
#211=ORIENTED_EDGE('',*,*,#202,.T.) ;
#212=ORIENTED_EDGE('',*,*,#207,.F.) ;
#282=ORIENTED_EDGE('',*,*,#228,.F.) ;
#283=ORIENTED_EDGE('',*,*,#235,.F.) ;
#284=ORIENTED_EDGE('',*,*,#240,.F.) ;
#285=ORIENTED_EDGE('',*,*,#83,.F.) ;
#286=ORIENTED_EDGE('',*,*,#64,.T.) ;
#287=ORIENTED_EDGE('',*,*,#207,.T.) ;
#288=ORIENTED_EDGE('',*,*,#247,.T.) ;
#289=ORIENTED_EDGE('',*,*,#254,.F.) ;
#290=ORIENTED_EDGE('',*,*,#261,.F.) ;
#291=ORIENTED_EDGE('',*,*,#268,.T.) ;
#292=ORIENTED_EDGE('',*,*,#275,.T.) ;
#293=ORIENTED_EDGE('',*,*,#280,.F.) ;
#307=ORIENTED_EDGE('',*,*,#240,.T.) ;
#308=ORIENTED_EDGE('',*,*,#305,.F.) ;
#309=ORIENTED_EDGE('',*,*,#163,.F.) ;
#310=ORIENTED_EDGE('',*,*,#90,.T.) ;
#324=ORIENTED_EDGE('',*,*,#280,.T.) ;
#325=ORIENTED_EDGE('',*,*,#317,.T.) ;
#326=ORIENTED_EDGE('',*,*,#116,.T.) ;
#327=ORIENTED_EDGE('',*,*,#322,.T.) ;
#341=ORIENTED_EDGE('',*,*,#275,.F.) ;
#342=ORIENTED_EDGE('',*,*,#339,.T.) ;
#343=ORIENTED_EDGE('',*,*,#123,.T.) ;
#344=ORIENTED_EDGE('',*,*,#317,.F.) ;
#381=ORIENTED_EDGE('',*,*,#360,.F.) ;
#382=ORIENTED_EDGE('',*,*,#367,.F.) ;
#383=ORIENTED_EDGE('',*,*,#374,.F.) ;
#384=ORIENTED_EDGE('',*,*,#379,.F.) ;
#392=ORIENTED_EDGE('',*,*,#130,.F.) ;
#393=ORIENTED_EDGE('',*,*,#339,.F.) ;
#394=ORIENTED_EDGE('',*,*,#268,.F.) ;
#395=ORIENTED_EDGE('',*,*,#390,.F.) ;
#409=ORIENTED_EDGE('',*,*,#137,.F.) ;
#410=ORIENTED_EDGE('',*,*,#390,.T.) ;
#411=ORIENTED_EDGE('',*,*,#261,.T.) ;
#412=ORIENTED_EDGE('',*,*,#407,.F.) ;
#421=ORIENTED_EDGE('',*,*,#144,.T.) ;
#422=ORIENTED_EDGE('',*,*,#407,.T.) ;
#423=ORIENTED_EDGE('',*,*,#254,.T.) ;
#424=ORIENTED_EDGE('',*,*,#419,.F.) ;
#433=ORIENTED_EDGE('',*,*,#202,.F.) ;
#434=ORIENTED_EDGE('',*,*,#151,.T.) ;
#435=ORIENTED_EDGE('',*,*,#419,.T.) ;
#436=ORIENTED_EDGE('',*,*,#247,.F.) ;
#445=ORIENTED_EDGE('',*,*,#235,.T.) ;
#446=ORIENTED_EDGE('',*,*,#443,.F.) ;
#447=ORIENTED_EDGE('',*,*,#170,.F.) ;
#448=ORIENTED_EDGE('',*,*,#305,.T.) ;
#457=ORIENTED_EDGE('',*,*,#228,.T.) ;
#458=ORIENTED_EDGE('',*,*,#322,.F.) ;
#459=ORIENTED_EDGE('',*,*,#175,.F.) ;
#460=ORIENTED_EDGE('',*,*,#443,.T.) ;
#488=ORIENTED_EDGE('',*,*,#474,.F.) ;
#489=ORIENTED_EDGE('',*,*,#360,.T.) ;
#490=ORIENTED_EDGE('',*,*,#481,.T.) ;
#491=ORIENTED_EDGE('',*,*,#486,.F.) ;
#512=ORIENTED_EDGE('',*,*,#505,.F.) ;
#513=ORIENTED_EDGE('',*,*,#367,.T.) ;
#514=ORIENTED_EDGE('',*,*,#474,.T.) ;
#515=ORIENTED_EDGE('',*,*,#510,.F.) ;
#536=ORIENTED_EDGE('',*,*,#529,.F.) ;
#537=ORIENTED_EDGE('',*,*,#374,.T.) ;
#538=ORIENTED_EDGE('',*,*,#505,.T.) ;
#539=ORIENTED_EDGE('',*,*,#534,.F.) ;
#553=ORIENTED_EDGE('',*,*,#481,.F.) ;
#554=ORIENTED_EDGE('',*,*,#379,.T.) ;
#555=ORIENTED_EDGE('',*,*,#529,.T.) ;
#556=ORIENTED_EDGE('',*,*,#551,.F.) ;
#565=ORIENTED_EDGE('',*,*,#551,.T.) ;
#566=ORIENTED_EDGE('',*,*,#534,.T.) ;
#567=ORIENTED_EDGE('',*,*,#510,.T.) ;
#568=ORIENTED_EDGE('',*,*,#486,.T.) ;
#396=FACE_BOUND('',#391,.T.) ;
#31=CLOSED_SHELL('Closed Shell',(#71,#102,#190,#214,#295,#312,#329,#346,#397,#414,#426,#438,#450,#462,#493,#517,#541,#558,#570)) ;
#571=ADVANCED_BREP_SHAPE_REPRESENTATION('NONE',(#21),#16) ;
#71=ADVANCED_FACE('S3D - gedreht',(#70),#36,.T.) ;
#102=ADVANCED_FACE('S3D - gedreht',(#101),#76,.T.) ;
#190=ADVANCED_FACE('S3D - gedreht',(#189),#107,.T.) ;
#214=ADVANCED_FACE('S3D - gedreht',(#213),#195,.F.) ;
#295=ADVANCED_FACE('S3D - gedreht',(#294),#219,.T.) ;
#312=ADVANCED_FACE('S3D - gedreht',(#311),#300,.F.) ;
#329=ADVANCED_FACE('S3D - gedreht',(#328),#76,.T.) ;
#346=ADVANCED_FACE('S3D - gedreht',(#345),#334,.F.) ;
#397=ADVANCED_FACE('S3D - gedreht',(#385,#396),#351,.F.) ;
#414=ADVANCED_FACE('S3D - gedreht',(#413),#402,.F.) ;
#426=ADVANCED_FACE('S3D - gedreht',(#425),#76,.T.) ;
#438=ADVANCED_FACE('S3D - gedreht',(#437),#431,.F.) ;
#450=ADVANCED_FACE('S3D - gedreht',(#449),#195,.F.) ;
#462=ADVANCED_FACE('S3D - gedreht',(#461),#455,.T.) ;
#493=ADVANCED_FACE('S3D - gedreht',(#492),#467,.F.) ;
#517=ADVANCED_FACE('S3D - gedreht',(#516),#498,.T.) ;
#541=ADVANCED_FACE('S3D - gedreht',(#540),#522,.F.) ;
#558=ADVANCED_FACE('S3D - gedreht',(#557),#546,.T.) ;
#570=ADVANCED_FACE('S3D - gedreht',(#569),#563,.T.) ;
#4=APPLICATION_PROTOCOL_DEFINITION('international standard','automotive_design',2001,#1) ;
#21=MANIFOLD_SOLID_BREP('S3D - gedreht',#31) ;
#22=DRAUGHTING_PRE_DEFINED_COLOUR('white') ;
#45=EDGE_CURVE('',#42,#44,#40,.T.) ;
#52=EDGE_CURVE('',#42,#51,#49,.T.) ;
#59=EDGE_CURVE('',#51,#58,#56,.T.) ;
#64=EDGE_CURVE('',#44,#58,#63,.T.) ;
#83=EDGE_CURVE('',#44,#82,#80,.T.) ;
#90=EDGE_CURVE('',#89,#82,#87,.T.) ;
#95=EDGE_CURVE('',#89,#42,#94,.T.) ;
#116=EDGE_CURVE('',#113,#115,#111,.T.) ;
#123=EDGE_CURVE('',#122,#113,#120,.T.) ;
#130=EDGE_CURVE('',#122,#129,#127,.T.) ;
#137=EDGE_CURVE('',#129,#136,#134,.T.) ;
#144=EDGE_CURVE('',#143,#136,#141,.T.) ;
#151=EDGE_CURVE('',#150,#143,#148,.F.) ;
#156=EDGE_CURVE('',#51,#150,#155,.F.) ;
#163=EDGE_CURVE('',#89,#162,#160,.T.) ;
#170=EDGE_CURVE('',#162,#169,#167,.F.) ;
#175=EDGE_CURVE('',#169,#115,#174,.F.) ;
#202=EDGE_CURVE('',#150,#201,#199,.T.) ;
#207=EDGE_CURVE('',#58,#201,#206,.F.) ;
#228=EDGE_CURVE('',#225,#227,#223,.F.) ;
#235=EDGE_CURVE('',#234,#225,#232,.F.) ;
#240=EDGE_CURVE('',#82,#234,#239,.T.) ;
#247=EDGE_CURVE('',#201,#246,#244,.F.) ;
#254=EDGE_CURVE('',#253,#246,#251,.T.) ;
#261=EDGE_CURVE('',#260,#253,#258,.T.) ;
#268=EDGE_CURVE('',#260,#267,#265,.T.) ;
#275=EDGE_CURVE('',#267,#274,#272,.T.) ;
#280=EDGE_CURVE('',#227,#274,#279,.T.) ;
#305=EDGE_CURVE('',#162,#234,#304,.T.) ;
#317=EDGE_CURVE('',#274,#113,#316,.F.) ;
#322=EDGE_CURVE('',#115,#227,#321,.T.) ;
#339=EDGE_CURVE('',#267,#122,#338,.F.) ;
#360=EDGE_CURVE('',#357,#359,#355,.F.) ;
#367=EDGE_CURVE('',#366,#357,#364,.T.) ;
#374=EDGE_CURVE('',#373,#366,#371,.F.) ;
#379=EDGE_CURVE('',#359,#373,#378,.T.) ;
#390=EDGE_CURVE('',#129,#260,#389,.F.) ;
#407=EDGE_CURVE('',#136,#253,#406,.F.) ;
#419=EDGE_CURVE('',#143,#246,#418,.T.) ;
#443=EDGE_CURVE('',#169,#225,#442,.T.) ;
#474=EDGE_CURVE('',#357,#473,#471,.T.) ;
#481=EDGE_CURVE('',#359,#480,#478,.T.) ;
#486=EDGE_CURVE('',#473,#480,#485,.F.) ;
#505=EDGE_CURVE('',#366,#504,#502,.T.) ;
#510=EDGE_CURVE('',#504,#473,#509,.T.) ;
#529=EDGE_CURVE('',#373,#528,#526,.T.) ;
#534=EDGE_CURVE('',#528,#504,#533,.F.) ;
#551=EDGE_CURVE('',#480,#528,#550,.T.) ;
#65=EDGE_LOOP('',(#66,#67,#68,#69)) ;
#96=EDGE_LOOP('',(#97,#98,#99,#100)) ;
#176=EDGE_LOOP('',(#177,#178,#179,#180,#181,#182,#183,#184,#185,#186,#187,#188)) ;
#208=EDGE_LOOP('',(#209,#210,#211,#212)) ;
#281=EDGE_LOOP('',(#282,#283,#284,#285,#286,#287,#288,#289,#290,#291,#292,#293)) ;
#306=EDGE_LOOP('',(#307,#308,#309,#310)) ;
#323=EDGE_LOOP('',(#324,#325,#326,#327)) ;
#340=EDGE_LOOP('',(#341,#342,#343,#344)) ;
#380=EDGE_LOOP('',(#381,#382,#383,#384)) ;
#391=EDGE_LOOP('',(#392,#393,#394,#395)) ;
#408=EDGE_LOOP('',(#409,#410,#411,#412)) ;
#420=EDGE_LOOP('',(#421,#422,#423,#424)) ;
#432=EDGE_LOOP('',(#433,#434,#435,#436)) ;
#444=EDGE_LOOP('',(#445,#446,#447,#448)) ;
#456=EDGE_LOOP('',(#457,#458,#459,#460)) ;
#487=EDGE_LOOP('',(#488,#489,#490,#491)) ;
#511=EDGE_LOOP('',(#512,#513,#514,#515)) ;
#535=EDGE_LOOP('',(#536,#537,#538,#539)) ;
#552=EDGE_LOOP('',(#553,#554,#555,#556)) ;
#564=EDGE_LOOP('',(#565,#566,#567,#568)) ;
#70=FACE_OUTER_BOUND('',#65,.T.) ;
#101=FACE_OUTER_BOUND('',#96,.T.) ;
#189=FACE_OUTER_BOUND('',#176,.T.) ;
#213=FACE_OUTER_BOUND('',#208,.T.) ;
#294=FACE_OUTER_BOUND('',#281,.T.) ;
#311=FACE_OUTER_BOUND('',#306,.T.) ;
#328=FACE_OUTER_BOUND('',#323,.T.) ;
#345=FACE_OUTER_BOUND('',#340,.T.) ;
#385=FACE_OUTER_BOUND('',#380,.T.) ;
#413=FACE_OUTER_BOUND('',#408,.T.) ;
#425=FACE_OUTER_BOUND('',#420,.T.) ;
#437=FACE_OUTER_BOUND('',#432,.T.) ;
#449=FACE_OUTER_BOUND('',#444,.T.) ;
#461=FACE_OUTER_BOUND('',#456,.T.) ;
#492=FACE_OUTER_BOUND('',#487,.T.) ;
#516=FACE_OUTER_BOUND('',#511,.T.) ;
#540=FACE_OUTER_BOUND('',#535,.T.) ;
#557=FACE_OUTER_BOUND('',#552,.T.) ;
#569=FACE_OUTER_BOUND('',#564,.T.) ;
#40=LINE('Line',#37,#39) ;
#49=LINE('Line',#46,#48) ;
#56=LINE('Line',#53,#55) ;
#63=LINE('Line',#60,#62) ;
#80=LINE('Line',#77,#79) ;
#87=LINE('Line',#84,#86) ;
#94=LINE('Line',#91,#93) ;
#111=LINE('Line',#108,#110) ;
#120=LINE('Line',#117,#119) ;
#127=LINE('Line',#124,#126) ;
#134=LINE('Line',#131,#133) ;
#141=LINE('Line',#138,#140) ;
#148=LINE('Line',#145,#147) ;
#155=LINE('Line',#152,#154) ;
#160=LINE('Line',#157,#159) ;
#167=LINE('Line',#164,#166) ;
#174=LINE('Line',#171,#173) ;
#199=LINE('Line',#196,#198) ;
#206=LINE('Line',#203,#205) ;
#223=LINE('Line',#220,#222) ;
#232=LINE('Line',#229,#231) ;
#239=LINE('Line',#236,#238) ;
#244=LINE('Line',#241,#243) ;
#251=LINE('Line',#248,#250) ;
#258=LINE('Line',#255,#257) ;
#265=LINE('Line',#262,#264) ;
#272=LINE('Line',#269,#271) ;
#279=LINE('Line',#276,#278) ;
#304=LINE('Line',#301,#303) ;
#316=LINE('Line',#313,#315) ;
#321=LINE('Line',#318,#320) ;
#338=LINE('Line',#335,#337) ;
#355=LINE('Line',#352,#354) ;
#364=LINE('Line',#361,#363) ;
#371=LINE('Line',#368,#370) ;
#378=LINE('Line',#375,#377) ;
#389=LINE('Line',#386,#388) ;
#406=LINE('Line',#403,#405) ;
#418=LINE('Line',#415,#417) ;
#442=LINE('Line',#439,#441) ;
#471=LINE('Line',#468,#470) ;
#478=LINE('Line',#475,#477) ;
#485=LINE('Line',#482,#484) ;
#502=LINE('Line',#499,#501) ;
#509=LINE('Line',#506,#508) ;
#526=LINE('Line',#523,#525) ;
#533=LINE('Line',#530,#532) ;
#550=LINE('Line',#547,#549) ;
#36=PLANE('',#35) ;
#76=PLANE('',#75) ;
#107=PLANE('',#106) ;
#195=PLANE('',#194) ;
#219=PLANE('',#218) ;
#300=PLANE('',#299) ;
#334=PLANE('',#333) ;
#351=PLANE('',#350) ;
#402=PLANE('',#401) ;
#431=PLANE('',#430) ;
#455=PLANE('',#454) ;
#467=PLANE('',#466) ;
#498=PLANE('',#497) ;
#522=PLANE('',#521) ;
#546=PLANE('',#545) ;
#563=PLANE('',#562) ;
#9=PRODUCT_CATEGORY_RELATIONSHIP(' ',' ',#7,#8) ;
#6=PRODUCT_DEFINITION_FORMATION_WITH_SPECIFIED_SOURCE('',' ',#5,.NOT_KNOWN.) ;
#20=SHAPE_DEFINITION_REPRESENTATION(#11,#19) ;
#42=VERTEX_POINT('',#41) ;
#44=VERTEX_POINT('',#43) ;
#51=VERTEX_POINT('',#50) ;
#58=VERTEX_POINT('',#57) ;
#82=VERTEX_POINT('',#81) ;
#89=VERTEX_POINT('',#88) ;
#113=VERTEX_POINT('',#112) ;
#115=VERTEX_POINT('',#114) ;
#122=VERTEX_POINT('',#121) ;
#129=VERTEX_POINT('',#128) ;
#136=VERTEX_POINT('',#135) ;
#143=VERTEX_POINT('',#142) ;
#150=VERTEX_POINT('',#149) ;
#162=VERTEX_POINT('',#161) ;
#169=VERTEX_POINT('',#168) ;
#201=VERTEX_POINT('',#200) ;
#225=VERTEX_POINT('',#224) ;
#227=VERTEX_POINT('',#226) ;
#234=VERTEX_POINT('',#233) ;
#246=VERTEX_POINT('',#245) ;
#253=VERTEX_POINT('',#252) ;
#260=VERTEX_POINT('',#259) ;
#267=VERTEX_POINT('',#266) ;
#274=VERTEX_POINT('',#273) ;
#357=VERTEX_POINT('',#356) ;
#359=VERTEX_POINT('',#358) ;
#366=VERTEX_POINT('',#365) ;
#373=VERTEX_POINT('',#372) ;
#473=VERTEX_POINT('',#472) ;
#480=VERTEX_POINT('',#479) ;
#504=VERTEX_POINT('',#503) ;
#528=VERTEX_POINT('',#527) ;
#12=(LENGTH_UNIT()NAMED_UNIT(*)SI_UNIT(.MILLI.,.METRE.)) ;
#13=(NAMED_UNIT(*)PLANE_ANGLE_UNIT()SI_UNIT($,.RADIAN.)) ;
#14=(NAMED_UNIT(*)SI_UNIT($,.STERADIAN.)SOLID_ANGLE_UNIT()) ;
#16=(GEOMETRIC_REPRESENTATION_CONTEXT(3)GLOBAL_UNCERTAINTY_ASSIGNED_CONTEXT((#15))GLOBAL_UNIT_ASSIGNED_CONTEXT((#12,#13,#14))REPRESENTATION_CONTEXT(' ',' ')) ;
ENDSEC;
END-ISO-10303-21;
