ISO-10303-21;
HEADER;
FILE_DESCRIPTION(('CATIA V5 STEP Exchange','CAx-IF Rec.Pracs.--- Model Styling and Organization---1.4--- 2014-01-23'),'2;1');

FILE_NAME ('014087-1_1', '2019-08-23T14:10:13+00:00', ('none'), ('Weidmueller'), 'CATIA Version 5-6 Release 2016 SP3 HF44', 'CATIA V5 STEP AP214', 'none');

FILE_SCHEMA(('AUTOMOTIVE_DESIGN { 1 0 10303 214 1 1 1 1 }'));

ENDSEC;
DATA;
#5=PRODUCT('1475840000','','',(#2)) ;
#2=PRODUCT_CONTEXT(' ',#1,'mechanical') ;
#1=APPLICATION_CONTEXT('automotive design') ;
#10=PRODUCT_DEFINITION('',' ',#6,#3) ;
#3=PRODUCT_DEFINITION_CONTEXT('part definition',#1,' ') ;
#11=PRODUCT_DEFINITION_SHAPE(' ',' ',#10) ;
#308=MECHANICAL_DESIGN_GEOMETRIC_PRESENTATION_REPRESENTATION(' ',(#29),#16) ;
#19=SHAPE_REPRESENTATION(' ',(#18),#16) ;
#18=AXIS2_PLACEMENT_3D(' ',#17,$,$) ;
#34=AXIS2_PLACEMENT_3D('Cylinder Axis2P3D',#31,#32,#33) ;
#47=AXIS2_PLACEMENT_3D('Circle Axis2P3D',#45,#46,$) ;
#61=AXIS2_PLACEMENT_3D('Circle Axis2P3D',#59,#60,$) ;
#73=AXIS2_PLACEMENT_3D('Circle Axis2P3D',#71,#72,$) ;
#78=AXIS2_PLACEMENT_3D('Circle Axis2P3D',#76,#77,$) ;
#91=AXIS2_PLACEMENT_3D('Plane Axis2P3D',#88,#89,#90) ;
#95=AXIS2_PLACEMENT_3D('Circle Axis2P3D',#93,#94,$) ;
#104=AXIS2_PLACEMENT_3D('Circle Axis2P3D',#102,#103,$) ;
#119=AXIS2_PLACEMENT_3D('Plane Axis2P3D',#116,#117,#118) ;
#129=AXIS2_PLACEMENT_3D('Cylinder Axis2P3D',#126,#127,#128) ;
#133=AXIS2_PLACEMENT_3D('Circle Axis2P3D',#131,#132,$) ;
#149=AXIS2_PLACEMENT_3D('Circle Axis2P3D',#147,#148,$) ;
#168=AXIS2_PLACEMENT_3D('Circle Axis2P3D',#166,#167,$) ;
#191=AXIS2_PLACEMENT_3D('Circle Axis2P3D',#189,#190,$) ;
#207=AXIS2_PLACEMENT_3D('Circle Axis2P3D',#205,#206,$) ;
#212=AXIS2_PLACEMENT_3D('Circle Axis2P3D',#210,#211,$) ;
#236=AXIS2_PLACEMENT_3D('Plane Axis2P3D',#233,#234,#235) ;
#261=AXIS2_PLACEMENT_3D('Plane Axis2P3D',#258,#259,#260) ;
#278=AXIS2_PLACEMENT_3D('Plane Axis2P3D',#275,#276,#277) ;
#297=AXIS2_PLACEMENT_3D('Plane Axis2P3D',#294,#295,#296) ;
#17=CARTESIAN_POINT(' ',(0.,0.,0.)) ;
#31=CARTESIAN_POINT('Axis2P3D Location',(2.5,2.5,3.)) ;
#36=CARTESIAN_POINT('Line Origine',(2.5,4.93902439024,3.)) ;
#40=CARTESIAN_POINT('Vertex',(2.5,4.93902439024,6.)) ;
#42=CARTESIAN_POINT('Vertex',(2.5,4.93902439024,0.)) ;
#45=CARTESIAN_POINT('Axis2P3D Location',(2.5,2.5,6.)) ;
#49=CARTESIAN_POINT('Vertex',(2.5,0.0609756097561,6.)) ;
#52=CARTESIAN_POINT('Line Origine',(2.5,0.0609756097561,3.)) ;
#56=CARTESIAN_POINT('Vertex',(2.5,0.0609756097561,0.)) ;
#59=CARTESIAN_POINT('Axis2P3D Location',(2.5,2.5,0.)) ;
#71=CARTESIAN_POINT('Axis2P3D Location',(2.5,2.5,6.)) ;
#76=CARTESIAN_POINT('Axis2P3D Location',(2.5,2.5,0.)) ;
#88=CARTESIAN_POINT('Axis2P3D Location',(2.5,2.5,6.)) ;
#93=CARTESIAN_POINT('Axis2P3D Location',(2.5,2.5,6.)) ;
#97=CARTESIAN_POINT('Vertex',(2.5,5.,6.)) ;
#99=CARTESIAN_POINT('Vertex',(2.5,-4.4408920985E-016,6.)) ;
#102=CARTESIAN_POINT('Axis2P3D Location',(2.5,2.5,6.)) ;
#116=CARTESIAN_POINT('Axis2P3D Location',(2.5,2.5,0.)) ;
#126=CARTESIAN_POINT('Axis2P3D Location',(2.5,2.5,11.)) ;
#131=CARTESIAN_POINT('Axis2P3D Location',(2.5,2.5,16.)) ;
#135=CARTESIAN_POINT('Vertex',(2.9,0.0322074641494,16.)) ;
#137=CARTESIAN_POINT('Vertex',(2.9,4.96779253585,16.)) ;
#140=CARTESIAN_POINT('Line Origine',(2.9,0.0322074641494,11.)) ;
#144=CARTESIAN_POINT('Vertex',(2.9,0.0322074641494,13.65)) ;
#147=CARTESIAN_POINT('Axis2P3D Location',(2.5,2.5,13.65)) ;
#151=CARTESIAN_POINT('Vertex',(2.5,-4.4408920985E-016,13.65)) ;
#154=CARTESIAN_POINT('Line Origine',(2.5,-4.4408920985E-016,11.)) ;
#159=CARTESIAN_POINT('Line Origine',(2.5,5.,11.)) ;
#163=CARTESIAN_POINT('Vertex',(2.5,5.,13.65)) ;
#166=CARTESIAN_POINT('Axis2P3D Location',(2.5,2.5,13.65)) ;
#170=CARTESIAN_POINT('Vertex',(2.9,4.96779253585,13.65)) ;
#173=CARTESIAN_POINT('Line Origine',(2.9,4.96779253585,11.)) ;
#189=CARTESIAN_POINT('Axis2P3D Location',(2.5,2.5,16.)) ;
#193=CARTESIAN_POINT('Vertex',(2.1,4.96779253585,16.)) ;
#195=CARTESIAN_POINT('Vertex',(2.1,0.0322074641494,16.)) ;
#198=CARTESIAN_POINT('Line Origine',(2.1,4.96779253585,11.)) ;
#202=CARTESIAN_POINT('Vertex',(2.1,4.96779253585,13.65)) ;
#205=CARTESIAN_POINT('Axis2P3D Location',(2.5,2.5,13.65)) ;
#210=CARTESIAN_POINT('Axis2P3D Location',(2.5,2.5,13.65)) ;
#214=CARTESIAN_POINT('Vertex',(2.1,0.0322074641494,13.65)) ;
#217=CARTESIAN_POINT('Line Origine',(2.1,0.0322074641494,11.)) ;
#233=CARTESIAN_POINT('Axis2P3D Location',(2.5,2.5,16.)) ;
#238=CARTESIAN_POINT('Line Origine',(2.9,2.5,16.)) ;
#248=CARTESIAN_POINT('Line Origine',(2.1,2.5,16.)) ;
#258=CARTESIAN_POINT('Axis2P3D Location',(2.9,2.5,16.)) ;
#263=CARTESIAN_POINT('Line Origine',(2.9,2.5,13.65)) ;
#275=CARTESIAN_POINT('Axis2P3D Location',(2.1,2.5,13.65)) ;
#280=CARTESIAN_POINT('Line Origine',(2.1,2.5,13.65)) ;
#294=CARTESIAN_POINT('Axis2P3D Location',(2.1,2.5,13.65)) ;
#32=DIRECTION('Axis2P3D Direction',(0.,0.,-1.)) ;
#33=DIRECTION('Axis2P3D XDirection',(0.,1.,0.)) ;
#37=DIRECTION('Vector Direction',(0.,0.,-1.)) ;
#46=DIRECTION('Axis2P3D Direction',(0.,0.,-1.)) ;
#53=DIRECTION('Vector Direction',(0.,0.,-1.)) ;
#60=DIRECTION('Axis2P3D Direction',(0.,0.,-1.)) ;
#72=DIRECTION('Axis2P3D Direction',(0.,0.,-1.)) ;
#77=DIRECTION('Axis2P3D Direction',(0.,0.,-1.)) ;
#89=DIRECTION('Axis2P3D Direction',(-0.,0.,1.)) ;
#90=DIRECTION('Axis2P3D XDirection',(0.,-1.,0.)) ;
#94=DIRECTION('Axis2P3D Direction',(-0.,0.,1.)) ;
#103=DIRECTION('Axis2P3D Direction',(-0.,0.,1.)) ;
#117=DIRECTION('Axis2P3D Direction',(0.,0.,-1.)) ;
#118=DIRECTION('Axis2P3D XDirection',(0.,1.,0.)) ;
#127=DIRECTION('Axis2P3D Direction',(-0.,0.,1.)) ;
#128=DIRECTION('Axis2P3D XDirection',(0.,-1.,0.)) ;
#132=DIRECTION('Axis2P3D Direction',(-0.,0.,1.)) ;
#141=DIRECTION('Vector Direction',(0.,0.,1.)) ;
#148=DIRECTION('Axis2P3D Direction',(-0.,0.,1.)) ;
#155=DIRECTION('Vector Direction',(0.,0.,1.)) ;
#160=DIRECTION('Vector Direction',(0.,0.,1.)) ;
#167=DIRECTION('Axis2P3D Direction',(-0.,0.,1.)) ;
#174=DIRECTION('Vector Direction',(0.,0.,1.)) ;
#190=DIRECTION('Axis2P3D Direction',(-0.,0.,1.)) ;
#199=DIRECTION('Vector Direction',(0.,0.,1.)) ;
#206=DIRECTION('Axis2P3D Direction',(-0.,0.,1.)) ;
#211=DIRECTION('Axis2P3D Direction',(-0.,0.,1.)) ;
#218=DIRECTION('Vector Direction',(0.,0.,1.)) ;
#234=DIRECTION('Axis2P3D Direction',(-0.,0.,1.)) ;
#235=DIRECTION('Axis2P3D XDirection',(0.,-1.,0.)) ;
#239=DIRECTION('Vector Direction',(0.,1.,0.)) ;
#249=DIRECTION('Vector Direction',(0.,1.,0.)) ;
#259=DIRECTION('Axis2P3D Direction',(1.,-0.,0.)) ;
#260=DIRECTION('Axis2P3D XDirection',(0.,0.,-1.)) ;
#264=DIRECTION('Vector Direction',(0.,1.,0.)) ;
#276=DIRECTION('Axis2P3D Direction',(0.,0.,1.)) ;
#277=DIRECTION('Axis2P3D XDirection',(1.,0.,0.)) ;
#281=DIRECTION('Vector Direction',(0.,1.,0.)) ;
#295=DIRECTION('Axis2P3D Direction',(-1.,0.,0.)) ;
#296=DIRECTION('Axis2P3D XDirection',(0.,0.,1.)) ;
#8=PRODUCT_RELATED_PRODUCT_CATEGORY('part',$,(#5)) ;
#7=PRODUCT_CATEGORY('part','specification') ;
#29=STYLED_ITEM(' ',(#28),#21) ;
#28=PRESENTATION_STYLE_ASSIGNMENT((#27)) ;
#27=SURFACE_STYLE_USAGE(.BOTH.,#26) ;
#26=SURFACE_SIDE_STYLE(' ',(#25)) ;
#25=SURFACE_STYLE_FILL_AREA(#24) ;
#24=FILL_AREA_STYLE(' ',(#23)) ;
#23=FILL_AREA_STYLE_COLOUR(' ',#22) ;
#38=VECTOR('Line Direction',#37,1.) ;
#54=VECTOR('Line Direction',#53,1.) ;
#142=VECTOR('Line Direction',#141,1.) ;
#156=VECTOR('Line Direction',#155,1.) ;
#161=VECTOR('Line Direction',#160,1.) ;
#175=VECTOR('Line Direction',#174,1.) ;
#200=VECTOR('Line Direction',#199,1.) ;
#219=VECTOR('Line Direction',#218,1.) ;
#240=VECTOR('Line Direction',#239,1.) ;
#250=VECTOR('Line Direction',#249,1.) ;
#265=VECTOR('Line Direction',#264,1.) ;
#282=VECTOR('Line Direction',#281,1.) ;
#15=UNCERTAINTY_MEASURE_WITH_UNIT(LENGTH_MEASURE(0.005),#12,'distance_accuracy_value','CONFUSED CURVE UNCERTAINTY') ;
#307=SHAPE_REPRESENTATION_RELATIONSHIP(' ',' ',#19,#306) ;
#65=ORIENTED_EDGE('',*,*,#44,.F.) ;
#66=ORIENTED_EDGE('',*,*,#51,.T.) ;
#67=ORIENTED_EDGE('',*,*,#58,.T.) ;
#68=ORIENTED_EDGE('',*,*,#63,.F.) ;
#82=ORIENTED_EDGE('',*,*,#58,.F.) ;
#83=ORIENTED_EDGE('',*,*,#75,.T.) ;
#84=ORIENTED_EDGE('',*,*,#44,.T.) ;
#85=ORIENTED_EDGE('',*,*,#80,.F.) ;
#108=ORIENTED_EDGE('',*,*,#101,.F.) ;
#109=ORIENTED_EDGE('',*,*,#106,.F.) ;
#112=ORIENTED_EDGE('',*,*,#75,.F.) ;
#113=ORIENTED_EDGE('',*,*,#51,.F.) ;
#122=ORIENTED_EDGE('',*,*,#63,.T.) ;
#123=ORIENTED_EDGE('',*,*,#80,.T.) ;
#179=ORIENTED_EDGE('',*,*,#139,.F.) ;
#180=ORIENTED_EDGE('',*,*,#146,.F.) ;
#181=ORIENTED_EDGE('',*,*,#153,.F.) ;
#182=ORIENTED_EDGE('',*,*,#158,.T.) ;
#183=ORIENTED_EDGE('',*,*,#106,.T.) ;
#184=ORIENTED_EDGE('',*,*,#165,.F.) ;
#185=ORIENTED_EDGE('',*,*,#172,.F.) ;
#186=ORIENTED_EDGE('',*,*,#177,.F.) ;
#223=ORIENTED_EDGE('',*,*,#197,.F.) ;
#224=ORIENTED_EDGE('',*,*,#204,.F.) ;
#225=ORIENTED_EDGE('',*,*,#209,.F.) ;
#226=ORIENTED_EDGE('',*,*,#165,.T.) ;
#227=ORIENTED_EDGE('',*,*,#101,.T.) ;
#228=ORIENTED_EDGE('',*,*,#158,.F.) ;
#229=ORIENTED_EDGE('',*,*,#216,.F.) ;
#230=ORIENTED_EDGE('',*,*,#221,.T.) ;
#244=ORIENTED_EDGE('',*,*,#139,.T.) ;
#245=ORIENTED_EDGE('',*,*,#242,.F.) ;
#254=ORIENTED_EDGE('',*,*,#197,.T.) ;
#255=ORIENTED_EDGE('',*,*,#252,.T.) ;
#269=ORIENTED_EDGE('',*,*,#242,.T.) ;
#270=ORIENTED_EDGE('',*,*,#177,.T.) ;
#271=ORIENTED_EDGE('',*,*,#267,.F.) ;
#272=ORIENTED_EDGE('',*,*,#146,.T.) ;
#286=ORIENTED_EDGE('',*,*,#284,.F.) ;
#287=ORIENTED_EDGE('',*,*,#216,.T.) ;
#288=ORIENTED_EDGE('',*,*,#153,.T.) ;
#289=ORIENTED_EDGE('',*,*,#267,.T.) ;
#290=ORIENTED_EDGE('',*,*,#172,.T.) ;
#291=ORIENTED_EDGE('',*,*,#209,.T.) ;
#300=ORIENTED_EDGE('',*,*,#284,.T.) ;
#301=ORIENTED_EDGE('',*,*,#204,.T.) ;
#302=ORIENTED_EDGE('',*,*,#252,.F.) ;
#303=ORIENTED_EDGE('',*,*,#221,.F.) ;
#114=FACE_BOUND('',#111,.T.) ;
#30=CLOSED_SHELL('Closed Shell',(#70,#87,#115,#125,#188,#232,#247,#257,#274,#293,#305)) ;
#306=ADVANCED_BREP_SHAPE_REPRESENTATION('NONE',(#21),#16) ;
#70=ADVANCED_FACE('Hauptk\X2\00F6\X0\rper',(#69),#35,.T.) ;
#87=ADVANCED_FACE('Hauptk\X2\00F6\X0\rper',(#86),#35,.T.) ;
#115=ADVANCED_FACE('Hauptk\X2\00F6\X0\rper',(#110,#114),#92,.F.) ;
#125=ADVANCED_FACE('Hauptk\X2\00F6\X0\rper',(#124),#120,.T.) ;
#188=ADVANCED_FACE('Hauptk\X2\00F6\X0\rper',(#187),#130,.T.) ;
#232=ADVANCED_FACE('Hauptk\X2\00F6\X0\rper',(#231),#130,.T.) ;
#247=ADVANCED_FACE('Hauptk\X2\00F6\X0\rper',(#246),#237,.T.) ;
#257=ADVANCED_FACE('Hauptk\X2\00F6\X0\rper',(#256),#237,.T.) ;
#274=ADVANCED_FACE('Hauptk\X2\00F6\X0\rper',(#273),#262,.F.) ;
#293=ADVANCED_FACE('Hauptk\X2\00F6\X0\rper',(#292),#279,.T.) ;
#305=ADVANCED_FACE('Hauptk\X2\00F6\X0\rper',(#304),#298,.F.) ;
#4=APPLICATION_PROTOCOL_DEFINITION('international standard','automotive_design',2001,#1) ;
#21=MANIFOLD_SOLID_BREP('Hauptk\X2\00F6\X0\rper',#30) ;
#48=CIRCLE('generated circle',#47,2.43902439024) ;
#62=CIRCLE('generated circle',#61,2.43902439024) ;
#74=CIRCLE('generated circle',#73,2.43902439024) ;
#79=CIRCLE('generated circle',#78,2.43902439024) ;
#96=CIRCLE('generated circle',#95,2.5) ;
#105=CIRCLE('generated circle',#104,2.5) ;
#134=CIRCLE('generated circle',#133,2.5) ;
#150=CIRCLE('generated circle',#149,2.5) ;
#169=CIRCLE('generated circle',#168,2.5) ;
#192=CIRCLE('generated circle',#191,2.5) ;
#208=CIRCLE('generated circle',#207,2.5) ;
#213=CIRCLE('generated circle',#212,2.5) ;
#22=COLOUR_RGB('Colour',0.823529411765,0.823529411765,1.) ;
#35=CYLINDRICAL_SURFACE('generated cylinder',#34,2.43902439024) ;
#130=CYLINDRICAL_SURFACE('generated cylinder',#129,2.5) ;
#44=EDGE_CURVE('',#41,#43,#39,.T.) ;
#51=EDGE_CURVE('',#41,#50,#48,.T.) ;
#58=EDGE_CURVE('',#50,#57,#55,.T.) ;
#63=EDGE_CURVE('',#43,#57,#62,.T.) ;
#75=EDGE_CURVE('',#50,#41,#74,.T.) ;
#80=EDGE_CURVE('',#57,#43,#79,.T.) ;
#101=EDGE_CURVE('',#98,#100,#96,.T.) ;
#106=EDGE_CURVE('',#100,#98,#105,.T.) ;
#139=EDGE_CURVE('',#136,#138,#134,.T.) ;
#146=EDGE_CURVE('',#145,#136,#143,.T.) ;
#153=EDGE_CURVE('',#152,#145,#150,.T.) ;
#158=EDGE_CURVE('',#152,#100,#157,.F.) ;
#165=EDGE_CURVE('',#164,#98,#162,.F.) ;
#172=EDGE_CURVE('',#171,#164,#169,.T.) ;
#177=EDGE_CURVE('',#138,#171,#176,.F.) ;
#197=EDGE_CURVE('',#194,#196,#192,.T.) ;
#204=EDGE_CURVE('',#203,#194,#201,.T.) ;
#209=EDGE_CURVE('',#164,#203,#208,.T.) ;
#216=EDGE_CURVE('',#215,#152,#213,.T.) ;
#221=EDGE_CURVE('',#215,#196,#220,.T.) ;
#242=EDGE_CURVE('',#136,#138,#241,.T.) ;
#252=EDGE_CURVE('',#196,#194,#251,.T.) ;
#267=EDGE_CURVE('',#145,#171,#266,.T.) ;
#284=EDGE_CURVE('',#215,#203,#283,.T.) ;
#64=EDGE_LOOP('',(#65,#66,#67,#68)) ;
#81=EDGE_LOOP('',(#82,#83,#84,#85)) ;
#107=EDGE_LOOP('',(#108,#109)) ;
#111=EDGE_LOOP('',(#112,#113)) ;
#121=EDGE_LOOP('',(#122,#123)) ;
#178=EDGE_LOOP('',(#179,#180,#181,#182,#183,#184,#185,#186)) ;
#222=EDGE_LOOP('',(#223,#224,#225,#226,#227,#228,#229,#230)) ;
#243=EDGE_LOOP('',(#244,#245)) ;
#253=EDGE_LOOP('',(#254,#255)) ;
#268=EDGE_LOOP('',(#269,#270,#271,#272)) ;
#285=EDGE_LOOP('',(#286,#287,#288,#289,#290,#291)) ;
#299=EDGE_LOOP('',(#300,#301,#302,#303)) ;
#69=FACE_OUTER_BOUND('',#64,.T.) ;
#86=FACE_OUTER_BOUND('',#81,.T.) ;
#110=FACE_OUTER_BOUND('',#107,.T.) ;
#124=FACE_OUTER_BOUND('',#121,.T.) ;
#187=FACE_OUTER_BOUND('',#178,.T.) ;
#231=FACE_OUTER_BOUND('',#222,.T.) ;
#246=FACE_OUTER_BOUND('',#243,.T.) ;
#256=FACE_OUTER_BOUND('',#253,.T.) ;
#273=FACE_OUTER_BOUND('',#268,.T.) ;
#292=FACE_OUTER_BOUND('',#285,.T.) ;
#304=FACE_OUTER_BOUND('',#299,.T.) ;
#39=LINE('Line',#36,#38) ;
#55=LINE('Line',#52,#54) ;
#143=LINE('Line',#140,#142) ;
#157=LINE('Line',#154,#156) ;
#162=LINE('Line',#159,#161) ;
#176=LINE('Line',#173,#175) ;
#201=LINE('Line',#198,#200) ;
#220=LINE('Line',#217,#219) ;
#241=LINE('Line',#238,#240) ;
#251=LINE('Line',#248,#250) ;
#266=LINE('Line',#263,#265) ;
#283=LINE('Line',#280,#282) ;
#92=PLANE('',#91) ;
#120=PLANE('',#119) ;
#237=PLANE('',#236) ;
#262=PLANE('',#261) ;
#279=PLANE('',#278) ;
#298=PLANE('',#297) ;
#9=PRODUCT_CATEGORY_RELATIONSHIP(' ',' ',#7,#8) ;
#6=PRODUCT_DEFINITION_FORMATION_WITH_SPECIFIED_SOURCE('',' ',#5,.NOT_KNOWN.) ;
#20=SHAPE_DEFINITION_REPRESENTATION(#11,#19) ;
#41=VERTEX_POINT('',#40) ;
#43=VERTEX_POINT('',#42) ;
#50=VERTEX_POINT('',#49) ;
#57=VERTEX_POINT('',#56) ;
#98=VERTEX_POINT('',#97) ;
#100=VERTEX_POINT('',#99) ;
#136=VERTEX_POINT('',#135) ;
#138=VERTEX_POINT('',#137) ;
#145=VERTEX_POINT('',#144) ;
#152=VERTEX_POINT('',#151) ;
#164=VERTEX_POINT('',#163) ;
#171=VERTEX_POINT('',#170) ;
#194=VERTEX_POINT('',#193) ;
#196=VERTEX_POINT('',#195) ;
#203=VERTEX_POINT('',#202) ;
#215=VERTEX_POINT('',#214) ;
#12=(LENGTH_UNIT()NAMED_UNIT(*)SI_UNIT(.MILLI.,.METRE.)) ;
#13=(NAMED_UNIT(*)PLANE_ANGLE_UNIT()SI_UNIT($,.RADIAN.)) ;
#14=(NAMED_UNIT(*)SI_UNIT($,.STERADIAN.)SOLID_ANGLE_UNIT()) ;
#16=(GEOMETRIC_REPRESENTATION_CONTEXT(3)GLOBAL_UNCERTAINTY_ASSIGNED_CONTEXT((#15))GLOBAL_UNIT_ASSIGNED_CONTEXT((#12,#13,#14))REPRESENTATION_CONTEXT(' ',' ')) ;
ENDSEC;
END-ISO-10303-21;
