ISO-10303-21;
HEADER;
FILE_DESCRIPTION(('CATIA V5R19 STEP'),'2;1');

FILE_NAME ('D1455690_0_1768090000_1768090000.stp','2015-01-21T14:41:35+00:00',('none'),('Weidmueller'),'CATIA Version 5 Release 20 SP 5 (IN-10)','CATIA V5 STEP AP214','none');

FILE_SCHEMA(('AUTOMOTIVE_DESIGN { 1 0 10303 214 1 1 1 1 }'));

ENDSEC;
/* file written by CATIA V5R20 */
DATA;
#5=PRODUCT('WS 14/5','','GESCHNITTEN AUS WS 15x5\X2\000A\X0\<Q-CHECKER_SEAL> Q-Checker Version 2.14.8  \X2\000A\X0\CATIA-Version         : Catia V5 R20 SP5 Build Date 01-06-2014.17.15\X2\000A\X0\Model size (in KByte) : 0\X2\000A\X0\Checking date         : 2014-12-03 11:31:37\X2\000A\X0\Checking profile      : ADMIN / Release_2D-3D [CATPart]\X2\000A\X0\Model assessment      : In Ordnung (IO)\X2\000A\X0\Total weight sum      : 0\X2\000A\X0\<CROSS_CHECK_SUM>\X2\000A\X0\  <CHKSUM_DATE> 1928984521 </CHKSUM_DATE>\X2\000A\X0\  <CHKSUM_ENTITIES> -774862358 </CHKSUM_ENTITIES>\X2\000A\X0\  <CHKSUM_PROFILE> 1594213346 </CHKSUM_PROFILE>\X2\000A\X0\  <CHKSUM_DIMENSION> -186917087 </CHKSUM_DIMENSION>\X2\000A\X0\  <CHKSUM_PROJINTERSEC> -896974048 </CHKSUM_PROJINTERSEC>\X2\000A\X0\  <CHKSUM_IDENTCRV> -896974048 </CHKSUM_IDENTCRV>\X2\000A\X0\  <CHKSUM_INFINITY> 138018827 </CHKSUM_INFINITY>\X2\000A\X0\</CROSS_CHECK_SUM>\X2\000A\X0\</Q-CHECKER_SEAL> \X2\000A\X0\',(#2)) ;
#2=PRODUCT_CONTEXT(' ',#1,'mechanical') ;
#1=APPLICATION_CONTEXT('automotive design') ;
#10=PRODUCT_DEFINITION('',' ',#6,#3) ;
#3=PRODUCT_DEFINITION_CONTEXT('part definition',#1,' ') ;
#11=PRODUCT_DEFINITION_SHAPE(' ',' ',#10) ;
#574=MECHANICAL_DESIGN_GEOMETRIC_PRESENTATION_REPRESENTATION(' ',(#30),#17) ;
#20=SHAPE_REPRESENTATION(' ',(#19),#17) ;
#19=AXIS2_PLACEMENT_3D(' ',#18,$,$) ;
#36=AXIS2_PLACEMENT_3D('Plane Axis2P3D',#33,#34,#35) ;
#76=AXIS2_PLACEMENT_3D('Plane Axis2P3D',#73,#74,#75) ;
#116=AXIS2_PLACEMENT_3D('Plane Axis2P3D',#113,#114,#115) ;
#156=AXIS2_PLACEMENT_3D('Plane Axis2P3D',#153,#154,#155) ;
#248=AXIS2_PLACEMENT_3D('Plane Axis2P3D',#245,#246,#247) ;
#279=AXIS2_PLACEMENT_3D('Plane Axis2P3D',#276,#277,#278) ;
#310=AXIS2_PLACEMENT_3D('Plane Axis2P3D',#307,#308,#309) ;
#341=AXIS2_PLACEMENT_3D('Plane Axis2P3D',#338,#339,#340) ;
#372=AXIS2_PLACEMENT_3D('Plane Axis2P3D',#369,#370,#371) ;
#411=AXIS2_PLACEMENT_3D('Plane Axis2P3D',#408,#409,#410) ;
#436=AXIS2_PLACEMENT_3D('Plane Axis2P3D',#433,#434,#435) ;
#461=AXIS2_PLACEMENT_3D('Plane Axis2P3D',#458,#459,#460) ;
#492=AXIS2_PLACEMENT_3D('Plane Axis2P3D',#489,#490,#491) ;
#516=AXIS2_PLACEMENT_3D('Plane Axis2P3D',#513,#514,#515) ;
#540=AXIS2_PLACEMENT_3D('Plane Axis2P3D',#537,#538,#539) ;
#563=AXIS2_PLACEMENT_3D('Plane Axis2P3D',#560,#561,#562) ;
#18=CARTESIAN_POINT(' ',(0.,0.,0.)) ;
#33=CARTESIAN_POINT('Axis2P3D Location',(2.425,14.,2.335)) ;
#38=CARTESIAN_POINT('Line Origine',(4.85,14.,2.735)) ;
#42=CARTESIAN_POINT('Vertex',(4.85,14.,3.135)) ;
#44=CARTESIAN_POINT('Vertex',(4.85,14.,2.335)) ;
#47=CARTESIAN_POINT('Line Origine',(2.425,14.,2.335)) ;
#51=CARTESIAN_POINT('Vertex',(0.,14.,2.335)) ;
#54=CARTESIAN_POINT('Line Origine',(0.,14.,2.735)) ;
#58=CARTESIAN_POINT('Vertex',(0.,14.,3.135)) ;
#61=CARTESIAN_POINT('Line Origine',(2.425,14.,3.135)) ;
#73=CARTESIAN_POINT('Axis2P3D Location',(2.425,9.5,2.335)) ;
#78=CARTESIAN_POINT('Line Origine',(2.425,9.5,1.785)) ;
#82=CARTESIAN_POINT('Vertex',(0.5,9.5,1.785)) ;
#84=CARTESIAN_POINT('Vertex',(4.35,9.5,1.785)) ;
#87=CARTESIAN_POINT('Line Origine',(0.5,9.5,2.06)) ;
#91=CARTESIAN_POINT('Vertex',(0.5,9.5,2.335)) ;
#94=CARTESIAN_POINT('Line Origine',(2.425,9.5,2.335)) ;
#98=CARTESIAN_POINT('Vertex',(4.35,9.5,2.335)) ;
#101=CARTESIAN_POINT('Line Origine',(4.35,9.5,2.06)) ;
#113=CARTESIAN_POINT('Axis2P3D Location',(2.425,3.5,1.785)) ;
#118=CARTESIAN_POINT('Line Origine',(2.425,3.5,2.335)) ;
#122=CARTESIAN_POINT('Vertex',(0.5,3.5,2.335)) ;
#124=CARTESIAN_POINT('Vertex',(4.35,3.5,2.335)) ;
#127=CARTESIAN_POINT('Line Origine',(0.5,3.5,2.06)) ;
#131=CARTESIAN_POINT('Vertex',(0.5,3.5,1.785)) ;
#134=CARTESIAN_POINT('Line Origine',(2.425,3.5,1.785)) ;
#138=CARTESIAN_POINT('Vertex',(4.35,3.5,1.785)) ;
#141=CARTESIAN_POINT('Line Origine',(4.35,3.5,2.06)) ;
#153=CARTESIAN_POINT('Axis2P3D Location',(2.425,9.5,1.785)) ;
#158=CARTESIAN_POINT('Line Origine',(2.425,8.715,1.785)) ;
#162=CARTESIAN_POINT('Vertex',(0.5,8.715,1.785)) ;
#164=CARTESIAN_POINT('Vertex',(4.35,8.715,1.785)) ;
#167=CARTESIAN_POINT('Line Origine',(0.5,9.1075,1.785)) ;
#172=CARTESIAN_POINT('Line Origine',(4.35,9.1075,1.785)) ;
#184=CARTESIAN_POINT('Line Origine',(2.425,4.285,1.785)) ;
#188=CARTESIAN_POINT('Vertex',(0.5,4.285,1.785)) ;
#190=CARTESIAN_POINT('Vertex',(4.35,4.285,1.785)) ;
#193=CARTESIAN_POINT('Line Origine',(4.35,3.8925,1.785)) ;
#198=CARTESIAN_POINT('Line Origine',(0.5,3.8925,1.785)) ;
#210=CARTESIAN_POINT('Line Origine',(2.425,5.33600036205,1.785)) ;
#214=CARTESIAN_POINT('Vertex',(0.5,5.33600036205,1.785)) ;
#216=CARTESIAN_POINT('Vertex',(4.35,5.33600036205,1.785)) ;
#219=CARTESIAN_POINT('Line Origine',(0.5,6.5,1.785)) ;
#223=CARTESIAN_POINT('Vertex',(0.5,7.66399963795,1.785)) ;
#226=CARTESIAN_POINT('Line Origine',(2.425,7.66399963795,1.785)) ;
#230=CARTESIAN_POINT('Vertex',(4.35,7.66399963795,1.785)) ;
#233=CARTESIAN_POINT('Line Origine',(4.35,6.5,1.785)) ;
#245=CARTESIAN_POINT('Axis2P3D Location',(2.425,7.66399963795,1.785)) ;
#250=CARTESIAN_POINT('Line Origine',(0.5,7.84898995954,0.8925)) ;
#254=CARTESIAN_POINT('Vertex',(0.5,8.03398028112,3.5527136788E-015)) ;
#257=CARTESIAN_POINT('Line Origine',(2.425,8.03398028112,3.77475828373E-015)) ;
#261=CARTESIAN_POINT('Vertex',(4.35,8.03398028112,3.5527136788E-015)) ;
#264=CARTESIAN_POINT('Line Origine',(4.35,7.84898995954,0.8925)) ;
#276=CARTESIAN_POINT('Axis2P3D Location',(2.425,8.715,1.785)) ;
#281=CARTESIAN_POINT('Line Origine',(2.425,8.715,3.5527136788E-015)) ;
#285=CARTESIAN_POINT('Vertex',(0.5,8.715,5.3290705182E-015)) ;
#287=CARTESIAN_POINT('Vertex',(4.35,8.715,5.3290705182E-015)) ;
#290=CARTESIAN_POINT('Line Origine',(0.5,8.715,0.8925)) ;
#295=CARTESIAN_POINT('Line Origine',(4.35,8.715,0.8925)) ;
#307=CARTESIAN_POINT('Axis2P3D Location',(2.425,4.285,1.785)) ;
#312=CARTESIAN_POINT('Line Origine',(4.35,4.285,0.8925)) ;
#316=CARTESIAN_POINT('Vertex',(4.35,4.285,5.3290705182E-015)) ;
#319=CARTESIAN_POINT('Line Origine',(0.5,4.285,0.8925)) ;
#323=CARTESIAN_POINT('Vertex',(0.5,4.285,5.3290705182E-015)) ;
#326=CARTESIAN_POINT('Line Origine',(2.425,4.285,6.2172489379E-015)) ;
#338=CARTESIAN_POINT('Axis2P3D Location',(2.425,5.33600036205,1.785)) ;
#343=CARTESIAN_POINT('Line Origine',(4.35,5.15101004046,0.8925)) ;
#347=CARTESIAN_POINT('Vertex',(4.35,4.96601971888,5.3290705182E-015)) ;
#350=CARTESIAN_POINT('Line Origine',(2.425,4.96601971888,5.10702591328E-015)) ;
#354=CARTESIAN_POINT('Vertex',(0.5,4.96601971888,5.3290705182E-015)) ;
#357=CARTESIAN_POINT('Line Origine',(0.5,5.15101004046,0.8925)) ;
#369=CARTESIAN_POINT('Axis2P3D Location',(2.425,8.715,5.3290705182E-015)) ;
#374=CARTESIAN_POINT('Line Origine',(0.5,8.37449014056,5.3290705182E-015)) ;
#379=CARTESIAN_POINT('Line Origine',(4.35,8.37449014056,5.3290705182E-015)) ;
#391=CARTESIAN_POINT('Line Origine',(4.35,4.62550985944,5.3290705182E-015)) ;
#396=CARTESIAN_POINT('Line Origine',(0.5,4.62550985944,5.3290705182E-015)) ;
#408=CARTESIAN_POINT('Axis2P3D Location',(0.5,14.,3.135)) ;
#413=CARTESIAN_POINT('Line Origine',(0.5,6.5,2.335)) ;
#433=CARTESIAN_POINT('Axis2P3D Location',(4.35,14.,3.135)) ;
#438=CARTESIAN_POINT('Line Origine',(4.35,6.5,2.335)) ;
#458=CARTESIAN_POINT('Axis2P3D Location',(2.425,14.,3.135)) ;
#463=CARTESIAN_POINT('Line Origine',(4.85,7.,3.135)) ;
#467=CARTESIAN_POINT('Vertex',(4.85,0.,3.135)) ;
#470=CARTESIAN_POINT('Line Origine',(-8.881784197E-016,7.,3.135)) ;
#474=CARTESIAN_POINT('Vertex',(-4.88498130835E-015,0.,3.135)) ;
#477=CARTESIAN_POINT('Line Origine',(2.425,0.,3.135)) ;
#489=CARTESIAN_POINT('Axis2P3D Location',(0.,14.,3.135)) ;
#494=CARTESIAN_POINT('Line Origine',(-8.57252759403E-016,7.,2.335)) ;
#498=CARTESIAN_POINT('Vertex',(-1.71450551881E-015,0.,2.335)) ;
#501=CARTESIAN_POINT('Line Origine',(-1.71450551881E-015,0.,2.735)) ;
#513=CARTESIAN_POINT('Axis2P3D Location',(4.85,14.,3.135)) ;
#518=CARTESIAN_POINT('Line Origine',(4.85,0.,2.735)) ;
#522=CARTESIAN_POINT('Vertex',(4.85,0.,2.335)) ;
#525=CARTESIAN_POINT('Line Origine',(4.85,7.,2.335)) ;
#537=CARTESIAN_POINT('Axis2P3D Location',(2.425,-1.,2.335)) ;
#542=CARTESIAN_POINT('Line Origine',(2.425,0.,2.335)) ;
#560=CARTESIAN_POINT('Axis2P3D Location',(-4.88498130835E-015,0.,3.135)) ;
#34=DIRECTION('Axis2P3D Direction',(1.22464679915E-016,1.,-0.)) ;
#35=DIRECTION('Axis2P3D XDirection',(0.,0.,1.)) ;
#39=DIRECTION('Vector Direction',(0.,0.,1.)) ;
#48=DIRECTION('Vector Direction',(1.,0.,0.)) ;
#55=DIRECTION('Vector Direction',(0.,0.,1.)) ;
#62=DIRECTION('Vector Direction',(1.,0.,0.)) ;
#74=DIRECTION('Axis2P3D Direction',(-1.22464679915E-016,-1.,-0.)) ;
#75=DIRECTION('Axis2P3D XDirection',(0.,0.,-1.)) ;
#79=DIRECTION('Vector Direction',(1.,0.,0.)) ;
#88=DIRECTION('Vector Direction',(0.,0.,-1.)) ;
#95=DIRECTION('Vector Direction',(1.,0.,0.)) ;
#102=DIRECTION('Vector Direction',(0.,0.,-1.)) ;
#114=DIRECTION('Axis2P3D Direction',(1.22464679915E-016,1.,-0.)) ;
#115=DIRECTION('Axis2P3D XDirection',(0.,0.,1.)) ;
#119=DIRECTION('Vector Direction',(1.,-2.30695693429E-016,0.)) ;
#128=DIRECTION('Vector Direction',(0.,0.,1.)) ;
#135=DIRECTION('Vector Direction',(1.,-2.30695693429E-016,0.)) ;
#142=DIRECTION('Vector Direction',(0.,0.,1.)) ;
#154=DIRECTION('Axis2P3D Direction',(0.,0.,1.)) ;
#155=DIRECTION('Axis2P3D XDirection',(-1.22464679915E-016,-1.,0.)) ;
#159=DIRECTION('Vector Direction',(1.,0.,0.)) ;
#168=DIRECTION('Vector Direction',(0.,-1.,0.)) ;
#173=DIRECTION('Vector Direction',(0.,-1.,0.)) ;
#185=DIRECTION('Vector Direction',(1.,0.,0.)) ;
#194=DIRECTION('Vector Direction',(0.,-1.,0.)) ;
#199=DIRECTION('Vector Direction',(-5.65718738663E-016,-1.,0.)) ;
#211=DIRECTION('Vector Direction',(1.,0.,0.)) ;
#220=DIRECTION('Vector Direction',(0.,-1.,0.)) ;
#227=DIRECTION('Vector Direction',(1.,0.,0.)) ;
#234=DIRECTION('Vector Direction',(0.,-1.,0.)) ;
#246=DIRECTION('Axis2P3D Direction',(-2.99789679604E-016,-0.979187402648,-0.202958198889)) ;
#247=DIRECTION('Axis2P3D XDirection',(6.21380271574E-017,0.202958198889,-0.979187402648)) ;
#251=DIRECTION('Vector Direction',(0.,0.202958198889,-0.979187402648)) ;
#258=DIRECTION('Vector Direction',(1.,0.,0.)) ;
#265=DIRECTION('Vector Direction',(0.,0.202958198889,-0.979187402648)) ;
#277=DIRECTION('Axis2P3D Direction',(-3.06161699787E-016,-1.,4.86173068583E-063)) ;
#278=DIRECTION('Axis2P3D XDirection',(2.58195522249E-032,-7.90495799691E-048,-1.)) ;
#282=DIRECTION('Vector Direction',(1.,0.,0.)) ;
#291=DIRECTION('Vector Direction',(0.,0.,-1.)) ;
#296=DIRECTION('Vector Direction',(0.,0.,-1.)) ;
#308=DIRECTION('Axis2P3D Direction',(-3.06161699787E-016,-1.,4.86173068583E-063)) ;
#309=DIRECTION('Axis2P3D XDirection',(2.58195522249E-032,-7.90495799691E-048,-1.)) ;
#313=DIRECTION('Vector Direction',(0.,0.,-1.)) ;
#320=DIRECTION('Vector Direction',(0.,0.,-1.)) ;
#327=DIRECTION('Vector Direction',(1.,-4.61391386857E-016,0.)) ;
#339=DIRECTION('Axis2P3D Direction',(-2.99789679604E-016,-0.979187402648,0.202958198889)) ;
#340=DIRECTION('Axis2P3D XDirection',(-6.21380271574E-017,-0.202958198889,-0.979187402648)) ;
#344=DIRECTION('Vector Direction',(0.,-0.202958198889,-0.979187402648)) ;
#351=DIRECTION('Vector Direction',(1.,-4.61391386857E-016,0.)) ;
#358=DIRECTION('Vector Direction',(0.,-0.202958198889,-0.979187402648)) ;
#370=DIRECTION('Axis2P3D Direction',(0.,0.,1.)) ;
#371=DIRECTION('Axis2P3D XDirection',(-3.06161699787E-016,-1.,0.)) ;
#375=DIRECTION('Vector Direction',(0.,-1.,0.)) ;
#380=DIRECTION('Vector Direction',(0.,-1.,0.)) ;
#392=DIRECTION('Vector Direction',(0.,-1.,0.)) ;
#397=DIRECTION('Vector Direction',(0.,-1.,0.)) ;
#409=DIRECTION('Axis2P3D Direction',(1.,-1.22464679915E-016,0.)) ;
#410=DIRECTION('Axis2P3D XDirection',(1.22464679915E-016,1.,0.)) ;
#414=DIRECTION('Vector Direction',(1.20274161001E-016,1.,0.)) ;
#434=DIRECTION('Axis2P3D Direction',(1.,-1.22464679915E-016,0.)) ;
#435=DIRECTION('Axis2P3D XDirection',(1.22464679915E-016,1.,0.)) ;
#439=DIRECTION('Vector Direction',(0.,1.,0.)) ;
#459=DIRECTION('Axis2P3D Direction',(0.,0.,1.)) ;
#460=DIRECTION('Axis2P3D XDirection',(-1.22464679915E-016,-1.,0.)) ;
#464=DIRECTION('Vector Direction',(-1.26882631386E-016,-1.,0.)) ;
#471=DIRECTION('Vector Direction',(-1.26882631386E-016,-1.,0.)) ;
#478=DIRECTION('Vector Direction',(1.,-1.22464679915E-016,0.)) ;
#490=DIRECTION('Axis2P3D Direction',(-1.,1.22464679915E-016,0.)) ;
#491=DIRECTION('Axis2P3D XDirection',(-1.22464679915E-016,-1.,0.)) ;
#495=DIRECTION('Vector Direction',(1.22464679915E-016,1.,0.)) ;
#502=DIRECTION('Vector Direction',(0.,0.,-1.)) ;
#514=DIRECTION('Axis2P3D Direction',(-1.,1.22464679915E-016,0.)) ;
#515=DIRECTION('Axis2P3D XDirection',(-1.22464679915E-016,-1.,0.)) ;
#519=DIRECTION('Vector Direction',(0.,0.,-1.)) ;
#526=DIRECTION('Vector Direction',(1.26882631386E-016,1.,0.)) ;
#538=DIRECTION('Axis2P3D Direction',(0.,0.,-1.)) ;
#539=DIRECTION('Axis2P3D XDirection',(1.22464679915E-016,1.,0.)) ;
#543=DIRECTION('Vector Direction',(-1.,1.22464679915E-016,0.)) ;
#561=DIRECTION('Axis2P3D Direction',(1.22464679915E-016,1.,0.)) ;
#562=DIRECTION('Axis2P3D XDirection',(1.,-1.22464679915E-016,0.)) ;
#31=PRESENTATION_LAYER_ASSIGNMENT('1',' ',(#22)) ;
#8=PRODUCT_RELATED_PRODUCT_CATEGORY('part',$,(#5)) ;
#7=PRODUCT_CATEGORY('part','specification') ;
#30=STYLED_ITEM(' ',(#29),#22) ;
#29=PRESENTATION_STYLE_ASSIGNMENT((#28)) ;
#28=SURFACE_STYLE_USAGE(.BOTH.,#27) ;
#27=SURFACE_SIDE_STYLE(' ',(#26)) ;
#26=SURFACE_STYLE_FILL_AREA(#25) ;
#25=FILL_AREA_STYLE(' ',(#24)) ;
#24=FILL_AREA_STYLE_COLOUR(' ',#23) ;
#40=VECTOR('Line Direction',#39,1.) ;
#49=VECTOR('Line Direction',#48,1.) ;
#56=VECTOR('Line Direction',#55,1.) ;
#63=VECTOR('Line Direction',#62,1.) ;
#80=VECTOR('Line Direction',#79,1.) ;
#89=VECTOR('Line Direction',#88,1.) ;
#96=VECTOR('Line Direction',#95,1.) ;
#103=VECTOR('Line Direction',#102,1.) ;
#120=VECTOR('Line Direction',#119,1.) ;
#129=VECTOR('Line Direction',#128,1.) ;
#136=VECTOR('Line Direction',#135,1.) ;
#143=VECTOR('Line Direction',#142,1.) ;
#160=VECTOR('Line Direction',#159,1.) ;
#169=VECTOR('Line Direction',#168,1.) ;
#174=VECTOR('Line Direction',#173,1.) ;
#186=VECTOR('Line Direction',#185,1.) ;
#195=VECTOR('Line Direction',#194,1.) ;
#200=VECTOR('Line Direction',#199,1.) ;
#212=VECTOR('Line Direction',#211,1.) ;
#221=VECTOR('Line Direction',#220,1.) ;
#228=VECTOR('Line Direction',#227,1.) ;
#235=VECTOR('Line Direction',#234,1.) ;
#252=VECTOR('Line Direction',#251,1.) ;
#259=VECTOR('Line Direction',#258,1.) ;
#266=VECTOR('Line Direction',#265,1.) ;
#283=VECTOR('Line Direction',#282,1.) ;
#292=VECTOR('Line Direction',#291,1.) ;
#297=VECTOR('Line Direction',#296,1.) ;
#314=VECTOR('Line Direction',#313,1.) ;
#321=VECTOR('Line Direction',#320,1.) ;
#328=VECTOR('Line Direction',#327,1.) ;
#345=VECTOR('Line Direction',#344,1.) ;
#352=VECTOR('Line Direction',#351,1.) ;
#359=VECTOR('Line Direction',#358,1.) ;
#376=VECTOR('Line Direction',#375,1.) ;
#381=VECTOR('Line Direction',#380,1.) ;
#393=VECTOR('Line Direction',#392,1.) ;
#398=VECTOR('Line Direction',#397,1.) ;
#415=VECTOR('Line Direction',#414,1.) ;
#440=VECTOR('Line Direction',#439,1.) ;
#465=VECTOR('Line Direction',#464,1.) ;
#472=VECTOR('Line Direction',#471,1.) ;
#479=VECTOR('Line Direction',#478,1.) ;
#496=VECTOR('Line Direction',#495,1.) ;
#503=VECTOR('Line Direction',#502,1.) ;
#520=VECTOR('Line Direction',#519,1.) ;
#527=VECTOR('Line Direction',#526,1.) ;
#544=VECTOR('Line Direction',#543,1.) ;
#16=UNCERTAINTY_MEASURE_WITH_UNIT(LENGTH_MEASURE(0.005),#12,'distance_accuracy_value','CONFUSED CURVE UNCERTAINTY') ;
#573=SHAPE_REPRESENTATION_RELATIONSHIP(' ',' ',#20,#572) ;
#67=ORIENTED_EDGE('',*,*,#46,.T.) ;
#68=ORIENTED_EDGE('',*,*,#53,.F.) ;
#69=ORIENTED_EDGE('',*,*,#60,.F.) ;
#70=ORIENTED_EDGE('',*,*,#65,.T.) ;
#107=ORIENTED_EDGE('',*,*,#86,.F.) ;
#108=ORIENTED_EDGE('',*,*,#93,.T.) ;
#109=ORIENTED_EDGE('',*,*,#100,.T.) ;
#110=ORIENTED_EDGE('',*,*,#105,.F.) ;
#147=ORIENTED_EDGE('',*,*,#126,.F.) ;
#148=ORIENTED_EDGE('',*,*,#133,.T.) ;
#149=ORIENTED_EDGE('',*,*,#140,.T.) ;
#150=ORIENTED_EDGE('',*,*,#145,.F.) ;
#178=ORIENTED_EDGE('',*,*,#166,.F.) ;
#179=ORIENTED_EDGE('',*,*,#171,.T.) ;
#180=ORIENTED_EDGE('',*,*,#86,.T.) ;
#181=ORIENTED_EDGE('',*,*,#176,.F.) ;
#204=ORIENTED_EDGE('',*,*,#192,.T.) ;
#205=ORIENTED_EDGE('',*,*,#197,.F.) ;
#206=ORIENTED_EDGE('',*,*,#140,.F.) ;
#207=ORIENTED_EDGE('',*,*,#202,.T.) ;
#239=ORIENTED_EDGE('',*,*,#218,.F.) ;
#240=ORIENTED_EDGE('',*,*,#225,.T.) ;
#241=ORIENTED_EDGE('',*,*,#232,.T.) ;
#242=ORIENTED_EDGE('',*,*,#237,.F.) ;
#270=ORIENTED_EDGE('',*,*,#232,.F.) ;
#271=ORIENTED_EDGE('',*,*,#256,.T.) ;
#272=ORIENTED_EDGE('',*,*,#263,.T.) ;
#273=ORIENTED_EDGE('',*,*,#268,.F.) ;
#301=ORIENTED_EDGE('',*,*,#289,.F.) ;
#302=ORIENTED_EDGE('',*,*,#294,.T.) ;
#303=ORIENTED_EDGE('',*,*,#166,.T.) ;
#304=ORIENTED_EDGE('',*,*,#299,.F.) ;
#332=ORIENTED_EDGE('',*,*,#318,.T.) ;
#333=ORIENTED_EDGE('',*,*,#192,.F.) ;
#334=ORIENTED_EDGE('',*,*,#325,.F.) ;
#335=ORIENTED_EDGE('',*,*,#330,.T.) ;
#363=ORIENTED_EDGE('',*,*,#349,.T.) ;
#364=ORIENTED_EDGE('',*,*,#356,.F.) ;
#365=ORIENTED_EDGE('',*,*,#361,.F.) ;
#366=ORIENTED_EDGE('',*,*,#218,.T.) ;
#385=ORIENTED_EDGE('',*,*,#263,.F.) ;
#386=ORIENTED_EDGE('',*,*,#378,.T.) ;
#387=ORIENTED_EDGE('',*,*,#289,.T.) ;
#388=ORIENTED_EDGE('',*,*,#383,.F.) ;
#402=ORIENTED_EDGE('',*,*,#395,.T.) ;
#403=ORIENTED_EDGE('',*,*,#330,.F.) ;
#404=ORIENTED_EDGE('',*,*,#400,.F.) ;
#405=ORIENTED_EDGE('',*,*,#356,.T.) ;
#419=ORIENTED_EDGE('',*,*,#133,.F.) ;
#420=ORIENTED_EDGE('',*,*,#417,.F.) ;
#421=ORIENTED_EDGE('',*,*,#93,.F.) ;
#422=ORIENTED_EDGE('',*,*,#171,.F.) ;
#423=ORIENTED_EDGE('',*,*,#294,.F.) ;
#424=ORIENTED_EDGE('',*,*,#378,.F.) ;
#425=ORIENTED_EDGE('',*,*,#256,.F.) ;
#426=ORIENTED_EDGE('',*,*,#225,.F.) ;
#427=ORIENTED_EDGE('',*,*,#361,.T.) ;
#428=ORIENTED_EDGE('',*,*,#400,.T.) ;
#429=ORIENTED_EDGE('',*,*,#325,.T.) ;
#430=ORIENTED_EDGE('',*,*,#202,.F.) ;
#444=ORIENTED_EDGE('',*,*,#197,.T.) ;
#445=ORIENTED_EDGE('',*,*,#318,.F.) ;
#446=ORIENTED_EDGE('',*,*,#395,.F.) ;
#447=ORIENTED_EDGE('',*,*,#349,.F.) ;
#448=ORIENTED_EDGE('',*,*,#237,.T.) ;
#449=ORIENTED_EDGE('',*,*,#268,.T.) ;
#450=ORIENTED_EDGE('',*,*,#383,.T.) ;
#451=ORIENTED_EDGE('',*,*,#299,.T.) ;
#452=ORIENTED_EDGE('',*,*,#176,.T.) ;
#453=ORIENTED_EDGE('',*,*,#105,.T.) ;
#454=ORIENTED_EDGE('',*,*,#442,.T.) ;
#455=ORIENTED_EDGE('',*,*,#145,.T.) ;
#483=ORIENTED_EDGE('',*,*,#469,.T.) ;
#484=ORIENTED_EDGE('',*,*,#65,.F.) ;
#485=ORIENTED_EDGE('',*,*,#476,.F.) ;
#486=ORIENTED_EDGE('',*,*,#481,.F.) ;
#507=ORIENTED_EDGE('',*,*,#476,.T.) ;
#508=ORIENTED_EDGE('',*,*,#60,.T.) ;
#509=ORIENTED_EDGE('',*,*,#500,.T.) ;
#510=ORIENTED_EDGE('',*,*,#505,.F.) ;
#531=ORIENTED_EDGE('',*,*,#524,.T.) ;
#532=ORIENTED_EDGE('',*,*,#529,.F.) ;
#533=ORIENTED_EDGE('',*,*,#46,.F.) ;
#534=ORIENTED_EDGE('',*,*,#469,.F.) ;
#548=ORIENTED_EDGE('',*,*,#500,.F.) ;
#549=ORIENTED_EDGE('',*,*,#53,.T.) ;
#550=ORIENTED_EDGE('',*,*,#529,.T.) ;
#551=ORIENTED_EDGE('',*,*,#546,.T.) ;
#554=ORIENTED_EDGE('',*,*,#100,.F.) ;
#555=ORIENTED_EDGE('',*,*,#417,.T.) ;
#556=ORIENTED_EDGE('',*,*,#126,.T.) ;
#557=ORIENTED_EDGE('',*,*,#442,.F.) ;
#566=ORIENTED_EDGE('',*,*,#546,.F.) ;
#567=ORIENTED_EDGE('',*,*,#524,.F.) ;
#568=ORIENTED_EDGE('',*,*,#481,.T.) ;
#569=ORIENTED_EDGE('',*,*,#505,.T.) ;
#558=FACE_BOUND('',#553,.T.) ;
#32=CLOSED_SHELL('Closed Shell',(#72,#112,#152,#183,#209,#244,#275,#306,#337,#368,#390,#407,#432,#457,#488,#512,#536,#559,#571)) ;
#572=ADVANCED_BREP_SHAPE_REPRESENTATION('NONE',(#22),#17) ;
#72=ADVANCED_FACE('S3D - gedreht',(#71),#37,.T.) ;
#112=ADVANCED_FACE('S3D - gedreht',(#111),#77,.F.) ;
#152=ADVANCED_FACE('S3D - gedreht',(#151),#117,.F.) ;
#183=ADVANCED_FACE('S3D - gedreht',(#182),#157,.F.) ;
#209=ADVANCED_FACE('S3D - gedreht',(#208),#157,.F.) ;
#244=ADVANCED_FACE('S3D - gedreht',(#243),#157,.F.) ;
#275=ADVANCED_FACE('S3D - gedreht',(#274),#249,.T.) ;
#306=ADVANCED_FACE('S3D - gedreht',(#305),#280,.F.) ;
#337=ADVANCED_FACE('S3D - gedreht',(#336),#311,.T.) ;
#368=ADVANCED_FACE('S3D - gedreht',(#367),#342,.F.) ;
#390=ADVANCED_FACE('S3D - gedreht',(#389),#373,.F.) ;
#407=ADVANCED_FACE('S3D - gedreht',(#406),#373,.F.) ;
#432=ADVANCED_FACE('S3D - gedreht',(#431),#412,.F.) ;
#457=ADVANCED_FACE('S3D - gedreht',(#456),#437,.T.) ;
#488=ADVANCED_FACE('S3D - gedreht',(#487),#462,.T.) ;
#512=ADVANCED_FACE('S3D - gedreht',(#511),#493,.T.) ;
#536=ADVANCED_FACE('S3D - gedreht',(#535),#517,.F.) ;
#559=ADVANCED_FACE('S3D - gedreht',(#552,#558),#541,.T.) ;
#571=ADVANCED_FACE('S3D - gedreht',(#570),#564,.F.) ;
#4=APPLICATION_PROTOCOL_DEFINITION('international standard','automotive_design',2001,#1) ;
#22=MANIFOLD_SOLID_BREP('S3D - gedreht',#32) ;
#23=DRAUGHTING_PRE_DEFINED_COLOUR('white') ;
#46=EDGE_CURVE('',#43,#45,#41,.F.) ;
#53=EDGE_CURVE('',#52,#45,#50,.T.) ;
#60=EDGE_CURVE('',#59,#52,#57,.F.) ;
#65=EDGE_CURVE('',#59,#43,#64,.T.) ;
#86=EDGE_CURVE('',#83,#85,#81,.T.) ;
#93=EDGE_CURVE('',#83,#92,#90,.F.) ;
#100=EDGE_CURVE('',#92,#99,#97,.T.) ;
#105=EDGE_CURVE('',#85,#99,#104,.F.) ;
#126=EDGE_CURVE('',#123,#125,#121,.T.) ;
#133=EDGE_CURVE('',#123,#132,#130,.F.) ;
#140=EDGE_CURVE('',#132,#139,#137,.T.) ;
#145=EDGE_CURVE('',#125,#139,#144,.F.) ;
#166=EDGE_CURVE('',#163,#165,#161,.T.) ;
#171=EDGE_CURVE('',#163,#83,#170,.F.) ;
#176=EDGE_CURVE('',#165,#85,#175,.F.) ;
#192=EDGE_CURVE('',#189,#191,#187,.T.) ;
#197=EDGE_CURVE('',#139,#191,#196,.F.) ;
#202=EDGE_CURVE('',#132,#189,#201,.F.) ;
#218=EDGE_CURVE('',#215,#217,#213,.T.) ;
#225=EDGE_CURVE('',#215,#224,#222,.F.) ;
#232=EDGE_CURVE('',#224,#231,#229,.T.) ;
#237=EDGE_CURVE('',#217,#231,#236,.F.) ;
#256=EDGE_CURVE('',#224,#255,#253,.T.) ;
#263=EDGE_CURVE('',#255,#262,#260,.T.) ;
#268=EDGE_CURVE('',#231,#262,#267,.T.) ;
#289=EDGE_CURVE('',#286,#288,#284,.T.) ;
#294=EDGE_CURVE('',#286,#163,#293,.F.) ;
#299=EDGE_CURVE('',#288,#165,#298,.F.) ;
#318=EDGE_CURVE('',#317,#191,#315,.F.) ;
#325=EDGE_CURVE('',#324,#189,#322,.F.) ;
#330=EDGE_CURVE('',#324,#317,#329,.T.) ;
#349=EDGE_CURVE('',#217,#348,#346,.T.) ;
#356=EDGE_CURVE('',#355,#348,#353,.T.) ;
#361=EDGE_CURVE('',#215,#355,#360,.T.) ;
#378=EDGE_CURVE('',#255,#286,#377,.F.) ;
#383=EDGE_CURVE('',#262,#288,#382,.F.) ;
#395=EDGE_CURVE('',#348,#317,#394,.T.) ;
#400=EDGE_CURVE('',#355,#324,#399,.T.) ;
#417=EDGE_CURVE('',#92,#123,#416,.F.) ;
#442=EDGE_CURVE('',#99,#125,#441,.F.) ;
#469=EDGE_CURVE('',#468,#43,#466,.F.) ;
#476=EDGE_CURVE('',#475,#59,#473,.F.) ;
#481=EDGE_CURVE('',#468,#475,#480,.F.) ;
#500=EDGE_CURVE('',#52,#499,#497,.F.) ;
#505=EDGE_CURVE('',#475,#499,#504,.T.) ;
#524=EDGE_CURVE('',#468,#523,#521,.T.) ;
#529=EDGE_CURVE('',#45,#523,#528,.F.) ;
#546=EDGE_CURVE('',#523,#499,#545,.T.) ;
#66=EDGE_LOOP('',(#67,#68,#69,#70)) ;
#106=EDGE_LOOP('',(#107,#108,#109,#110)) ;
#146=EDGE_LOOP('',(#147,#148,#149,#150)) ;
#177=EDGE_LOOP('',(#178,#179,#180,#181)) ;
#203=EDGE_LOOP('',(#204,#205,#206,#207)) ;
#238=EDGE_LOOP('',(#239,#240,#241,#242)) ;
#269=EDGE_LOOP('',(#270,#271,#272,#273)) ;
#300=EDGE_LOOP('',(#301,#302,#303,#304)) ;
#331=EDGE_LOOP('',(#332,#333,#334,#335)) ;
#362=EDGE_LOOP('',(#363,#364,#365,#366)) ;
#384=EDGE_LOOP('',(#385,#386,#387,#388)) ;
#401=EDGE_LOOP('',(#402,#403,#404,#405)) ;
#418=EDGE_LOOP('',(#419,#420,#421,#422,#423,#424,#425,#426,#427,#428,#429,#430)) ;
#443=EDGE_LOOP('',(#444,#445,#446,#447,#448,#449,#450,#451,#452,#453,#454,#455)) ;
#482=EDGE_LOOP('',(#483,#484,#485,#486)) ;
#506=EDGE_LOOP('',(#507,#508,#509,#510)) ;
#530=EDGE_LOOP('',(#531,#532,#533,#534)) ;
#547=EDGE_LOOP('',(#548,#549,#550,#551)) ;
#553=EDGE_LOOP('',(#554,#555,#556,#557)) ;
#565=EDGE_LOOP('',(#566,#567,#568,#569)) ;
#71=FACE_OUTER_BOUND('',#66,.T.) ;
#111=FACE_OUTER_BOUND('',#106,.T.) ;
#151=FACE_OUTER_BOUND('',#146,.T.) ;
#182=FACE_OUTER_BOUND('',#177,.T.) ;
#208=FACE_OUTER_BOUND('',#203,.T.) ;
#243=FACE_OUTER_BOUND('',#238,.T.) ;
#274=FACE_OUTER_BOUND('',#269,.T.) ;
#305=FACE_OUTER_BOUND('',#300,.T.) ;
#336=FACE_OUTER_BOUND('',#331,.T.) ;
#367=FACE_OUTER_BOUND('',#362,.T.) ;
#389=FACE_OUTER_BOUND('',#384,.T.) ;
#406=FACE_OUTER_BOUND('',#401,.T.) ;
#431=FACE_OUTER_BOUND('',#418,.T.) ;
#456=FACE_OUTER_BOUND('',#443,.T.) ;
#487=FACE_OUTER_BOUND('',#482,.T.) ;
#511=FACE_OUTER_BOUND('',#506,.T.) ;
#535=FACE_OUTER_BOUND('',#530,.T.) ;
#552=FACE_OUTER_BOUND('',#547,.T.) ;
#570=FACE_OUTER_BOUND('',#565,.T.) ;
#41=LINE('Line',#38,#40) ;
#50=LINE('Line',#47,#49) ;
#57=LINE('Line',#54,#56) ;
#64=LINE('Line',#61,#63) ;
#81=LINE('Line',#78,#80) ;
#90=LINE('Line',#87,#89) ;
#97=LINE('Line',#94,#96) ;
#104=LINE('Line',#101,#103) ;
#121=LINE('Line',#118,#120) ;
#130=LINE('Line',#127,#129) ;
#137=LINE('Line',#134,#136) ;
#144=LINE('Line',#141,#143) ;
#161=LINE('Line',#158,#160) ;
#170=LINE('Line',#167,#169) ;
#175=LINE('Line',#172,#174) ;
#187=LINE('Line',#184,#186) ;
#196=LINE('Line',#193,#195) ;
#201=LINE('Line',#198,#200) ;
#213=LINE('Line',#210,#212) ;
#222=LINE('Line',#219,#221) ;
#229=LINE('Line',#226,#228) ;
#236=LINE('Line',#233,#235) ;
#253=LINE('Line',#250,#252) ;
#260=LINE('Line',#257,#259) ;
#267=LINE('Line',#264,#266) ;
#284=LINE('Line',#281,#283) ;
#293=LINE('Line',#290,#292) ;
#298=LINE('Line',#295,#297) ;
#315=LINE('Line',#312,#314) ;
#322=LINE('Line',#319,#321) ;
#329=LINE('Line',#326,#328) ;
#346=LINE('Line',#343,#345) ;
#353=LINE('Line',#350,#352) ;
#360=LINE('Line',#357,#359) ;
#377=LINE('Line',#374,#376) ;
#382=LINE('Line',#379,#381) ;
#394=LINE('Line',#391,#393) ;
#399=LINE('Line',#396,#398) ;
#416=LINE('Line',#413,#415) ;
#441=LINE('Line',#438,#440) ;
#466=LINE('Line',#463,#465) ;
#473=LINE('Line',#470,#472) ;
#480=LINE('Line',#477,#479) ;
#497=LINE('Line',#494,#496) ;
#504=LINE('Line',#501,#503) ;
#521=LINE('Line',#518,#520) ;
#528=LINE('Line',#525,#527) ;
#545=LINE('Line',#542,#544) ;
#37=PLANE('',#36) ;
#77=PLANE('',#76) ;
#117=PLANE('',#116) ;
#157=PLANE('',#156) ;
#249=PLANE('',#248) ;
#280=PLANE('',#279) ;
#311=PLANE('',#310) ;
#342=PLANE('',#341) ;
#373=PLANE('',#372) ;
#412=PLANE('',#411) ;
#437=PLANE('',#436) ;
#462=PLANE('',#461) ;
#493=PLANE('',#492) ;
#517=PLANE('',#516) ;
#541=PLANE('',#540) ;
#564=PLANE('',#563) ;
#14=PLANE_ANGLE_MEASURE_WITH_UNIT(PLANE_ANGLE_MEASURE(0.0174532925199),#13) ;
#9=PRODUCT_CATEGORY_RELATIONSHIP(' ',' ',#7,#8) ;
#6=PRODUCT_DEFINITION_FORMATION_WITH_SPECIFIED_SOURCE('',' ',#5,.NOT_KNOWN.) ;
#21=SHAPE_DEFINITION_REPRESENTATION(#11,#20) ;
#43=VERTEX_POINT('',#42) ;
#45=VERTEX_POINT('',#44) ;
#52=VERTEX_POINT('',#51) ;
#59=VERTEX_POINT('',#58) ;
#83=VERTEX_POINT('',#82) ;
#85=VERTEX_POINT('',#84) ;
#92=VERTEX_POINT('',#91) ;
#99=VERTEX_POINT('',#98) ;
#123=VERTEX_POINT('',#122) ;
#125=VERTEX_POINT('',#124) ;
#132=VERTEX_POINT('',#131) ;
#139=VERTEX_POINT('',#138) ;
#163=VERTEX_POINT('',#162) ;
#165=VERTEX_POINT('',#164) ;
#189=VERTEX_POINT('',#188) ;
#191=VERTEX_POINT('',#190) ;
#215=VERTEX_POINT('',#214) ;
#217=VERTEX_POINT('',#216) ;
#224=VERTEX_POINT('',#223) ;
#231=VERTEX_POINT('',#230) ;
#255=VERTEX_POINT('',#254) ;
#262=VERTEX_POINT('',#261) ;
#286=VERTEX_POINT('',#285) ;
#288=VERTEX_POINT('',#287) ;
#317=VERTEX_POINT('',#316) ;
#324=VERTEX_POINT('',#323) ;
#348=VERTEX_POINT('',#347) ;
#355=VERTEX_POINT('',#354) ;
#468=VERTEX_POINT('',#467) ;
#475=VERTEX_POINT('',#474) ;
#499=VERTEX_POINT('',#498) ;
#523=VERTEX_POINT('',#522) ;
#12=(LENGTH_UNIT()NAMED_UNIT(*)SI_UNIT(.MILLI.,.METRE.)) ;
#13=(NAMED_UNIT(*)PLANE_ANGLE_UNIT()SI_UNIT($,.RADIAN.)) ;
#15=(NAMED_UNIT(*)SI_UNIT($,.STERADIAN.)SOLID_ANGLE_UNIT()) ;
#17=(GEOMETRIC_REPRESENTATION_CONTEXT(3)GLOBAL_UNCERTAINTY_ASSIGNED_CONTEXT((#16))GLOBAL_UNIT_ASSIGNED_CONTEXT((#12,#13,#15))REPRESENTATION_CONTEXT(' ',' ')) ;
ENDSEC;
END-ISO-10303-21;
