ISO-10303-21;
HEADER;
FILE_DESCRIPTION(('CATIA V5R24 STEP','CAx-IF Rec.Pracs.--- Model Styling and Organization---1.2---2011-12-15'),'2;1');

FILE_NAME ('D1455985_0_1777960000_1777960000.stp','2018-01-19T13:32:52+00:00',('none'),('Weidmueller'),'CATIA Version 5-6 Release 2014 SP4 HF52','CATIA V5 STEP AP214','none');

FILE_SCHEMA(('AUTOMOTIVE_DESIGN { 1 0 10303 214 1 1 1 1 }'));

ENDSEC;
DATA;
#5=PRODUCT('1777960000_GWDR_M32-PO','','',(#2)) ;
#2=PRODUCT_CONTEXT(' ',#1,'mechanical') ;
#1=APPLICATION_CONTEXT('automotive design') ;
#10=PRODUCT_DEFINITION('',' ',#6,#3) ;
#3=PRODUCT_DEFINITION_CONTEXT('part definition',#1,' ') ;
#11=PRODUCT_DEFINITION_SHAPE(' ',' ',#10) ;
#440=MECHANICAL_DESIGN_GEOMETRIC_PRESENTATION_REPRESENTATION(' ',(#78,#110,#133,#204,#222,#254,#286,#304,#322,#351,#383,#401,#424,#437,#29),#16) ;
#19=SHAPE_REPRESENTATION(' ',(#18),#16) ;
#18=AXIS2_PLACEMENT_3D(' ',#17,$,$) ;
#34=AXIS2_PLACEMENT_3D('Torus Axis2P3D',#31,#32,#33) ;
#38=AXIS2_PLACEMENT_3D('Circle Axis2P3D',#36,#37,$) ;
#47=AXIS2_PLACEMENT_3D('Circle Axis2P3D',#45,#46,$) ;
#54=AXIS2_PLACEMENT_3D('Circle Axis2P3D',#52,#53,$) ;
#61=AXIS2_PLACEMENT_3D('Circle Axis2P3D',#59,#60,$) ;
#82=AXIS2_PLACEMENT_3D('Cylinder Axis2P3D',#79,#80,#81) ;
#93=AXIS2_PLACEMENT_3D('Circle Axis2P3D',#91,#92,$) ;
#114=AXIS2_PLACEMENT_3D('Torus Axis2P3D',#111,#112,#113) ;
#118=AXIS2_PLACEMENT_3D('Circle Axis2P3D',#116,#117,$) ;
#123=AXIS2_PLACEMENT_3D('Circle Axis2P3D',#121,#122,$) ;
#137=AXIS2_PLACEMENT_3D('Plane Axis2P3D',#134,#135,#136) ;
#208=AXIS2_PLACEMENT_3D('Cylinder Axis2P3D',#205,#206,#207) ;
#212=AXIS2_PLACEMENT_3D('Circle Axis2P3D',#210,#211,$) ;
#226=AXIS2_PLACEMENT_3D('Torus Axis2P3D',#223,#224,#225) ;
#230=AXIS2_PLACEMENT_3D('Circle Axis2P3D',#228,#229,$) ;
#239=AXIS2_PLACEMENT_3D('Circle Axis2P3D',#237,#238,$) ;
#244=AXIS2_PLACEMENT_3D('Circle Axis2P3D',#242,#243,$) ;
#258=AXIS2_PLACEMENT_3D('Torus Axis2P3D',#255,#256,#257) ;
#262=AXIS2_PLACEMENT_3D('Circle Axis2P3D',#260,#261,$) ;
#269=AXIS2_PLACEMENT_3D('Circle Axis2P3D',#267,#268,$) ;
#276=AXIS2_PLACEMENT_3D('Circle Axis2P3D',#274,#275,$) ;
#290=AXIS2_PLACEMENT_3D('Torus Axis2P3D',#287,#288,#289) ;
#294=AXIS2_PLACEMENT_3D('Circle Axis2P3D',#292,#293,$) ;
#308=AXIS2_PLACEMENT_3D('Torus Axis2P3D',#305,#306,#307) ;
#312=AXIS2_PLACEMENT_3D('Circle Axis2P3D',#310,#311,$) ;
#326=AXIS2_PLACEMENT_3D('Plane Axis2P3D',#323,#324,#325) ;
#334=AXIS2_PLACEMENT_3D('Circle Axis2P3D',#332,#333,$) ;
#343=AXIS2_PLACEMENT_3D('Circle Axis2P3D',#341,#342,$) ;
#355=AXIS2_PLACEMENT_3D('Cylinder Axis2P3D',#352,#353,#354) ;
#366=AXIS2_PLACEMENT_3D('Circle Axis2P3D',#364,#365,$) ;
#387=AXIS2_PLACEMENT_3D('Cylinder Axis2P3D',#384,#385,#386) ;
#391=AXIS2_PLACEMENT_3D('Circle Axis2P3D',#389,#390,$) ;
#405=AXIS2_PLACEMENT_3D('Torus Axis2P3D',#402,#403,#404) ;
#409=AXIS2_PLACEMENT_3D('Circle Axis2P3D',#407,#408,$) ;
#414=AXIS2_PLACEMENT_3D('Circle Axis2P3D',#412,#413,$) ;
#428=AXIS2_PLACEMENT_3D('Torus Axis2P3D',#425,#426,#427) ;
#17=CARTESIAN_POINT(' ',(0.,0.,0.)) ;
#31=CARTESIAN_POINT('Axis2P3D Location',(18.,18.,1.8)) ;
#36=CARTESIAN_POINT('Axis2P3D Location',(18.,18.,1.8)) ;
#40=CARTESIAN_POINT('Vertex',(0.,18.,1.8)) ;
#42=CARTESIAN_POINT('Vertex',(36.,18.,1.8)) ;
#45=CARTESIAN_POINT('Axis2P3D Location',(0.2,18.,1.8)) ;
#49=CARTESIAN_POINT('Vertex',(0.2,18.,2.)) ;
#52=CARTESIAN_POINT('Axis2P3D Location',(18.,18.,2.)) ;
#56=CARTESIAN_POINT('Vertex',(35.8,18.,2.)) ;
#59=CARTESIAN_POINT('Axis2P3D Location',(35.8,18.,1.8)) ;
#79=CARTESIAN_POINT('Axis2P3D Location',(18.,18.,2.)) ;
#84=CARTESIAN_POINT('Line Origine',(36.,18.,2.)) ;
#88=CARTESIAN_POINT('Vertex',(36.,18.,0.199999999255)) ;
#91=CARTESIAN_POINT('Axis2P3D Location',(18.,18.,0.199999999255)) ;
#95=CARTESIAN_POINT('Vertex',(0.,18.,0.199999999255)) ;
#98=CARTESIAN_POINT('Line Origine',(0.,18.,2.)) ;
#111=CARTESIAN_POINT('Axis2P3D Location',(18.,18.,1.8)) ;
#116=CARTESIAN_POINT('Axis2P3D Location',(18.,18.,1.8)) ;
#121=CARTESIAN_POINT('Axis2P3D Location',(18.,18.,2.)) ;
#134=CARTESIAN_POINT('Axis2P3D Location',(18.,18.,2.)) ;
#144=CARTESIAN_POINT('Control Point',(34.1999999993,18.,2.)) ;
#145=CARTESIAN_POINT('Control Point',(34.1999999993,16.4226205321,2.)) ;
#146=CARTESIAN_POINT('Control Point',(34.0080149687,14.8452416922,2.)) ;
#147=CARTESIAN_POINT('Control Point',(33.6239399438,13.2987712489,2.)) ;
#148=CARTESIAN_POINT('Control Point',(32.4873258966,10.330934768,2.)) ;
#149=CARTESIAN_POINT('Control Point',(30.6720033405,7.7223847836,2.)) ;
#150=CARTESIAN_POINT('Control Point',(29.6090325009,6.53529697048,2.)) ;
#151=CARTESIAN_POINT('Control Point',(27.2159709974,4.44407687307,2.)) ;
#152=CARTESIAN_POINT('Control Point',(24.3911570157,2.9879330125,2.)) ;
#153=CARTESIAN_POINT('Control Point',(22.8963131308,2.43609403669,2.)) ;
#154=CARTESIAN_POINT('Control Point',(19.80292543,1.70746695062,2.)) ;
#155=CARTESIAN_POINT('Control Point',(16.625075828,1.74212108782,2.)) ;
#156=CARTESIAN_POINT('Control Point',(15.0457442635,1.9537722771,2.)) ;
#157=CARTESIAN_POINT('Control Point',(11.9708997603,2.75706315683,2.)) ;
#158=CARTESIAN_POINT('Control Point',(9.17851195964,4.2744620543,2.)) ;
#159=CARTESIAN_POINT('Control Point',(7.88171204399,5.20041797749,2.)) ;
#160=CARTESIAN_POINT('Control Point',(5.53997090756,7.34895083141,2.)) ;
#161=CARTESIAN_POINT('Control Point',(3.7819652383,9.99646761381,2.)) ;
#162=CARTESIAN_POINT('Control Point',(3.06905905399,11.421546264,2.)) ;
#163=CARTESIAN_POINT('Control Point',(2.29587125984,13.5966700868,2.)) ;
#164=CARTESIAN_POINT('Control Point',(1.91806476877,15.8603828983,2.)) ;
#165=CARTESIAN_POINT('Control Point',(1.83935461665,16.5716641967,2.)) ;
#166=CARTESIAN_POINT('Control Point',(1.80000000075,17.2858320771,2.)) ;
#167=CARTESIAN_POINT('Control Point',(1.80000000075,18.,2.)) ;
#168=CARTESIAN_POINT('Vertex',(34.1999999993,18.,2.)) ;
#170=CARTESIAN_POINT('Vertex',(1.80000000075,18.,2.)) ;
#174=CARTESIAN_POINT('Control Point',(1.80000000075,18.,2.)) ;
#175=CARTESIAN_POINT('Control Point',(1.80000000075,19.5773794678,2.)) ;
#176=CARTESIAN_POINT('Control Point',(1.99198503121,21.1547583077,2.)) ;
#177=CARTESIAN_POINT('Control Point',(2.37606005632,22.7012287511,2.)) ;
#178=CARTESIAN_POINT('Control Point',(3.51267410332,25.6690652321,2.)) ;
#179=CARTESIAN_POINT('Control Point',(5.32799665964,28.2776152164,2.)) ;
#180=CARTESIAN_POINT('Control Point',(6.39096749898,29.4647030295,2.)) ;
#181=CARTESIAN_POINT('Control Point',(8.78402900248,31.5559231268,2.)) ;
#182=CARTESIAN_POINT('Control Point',(11.6088429842,33.0120669875,2.)) ;
#183=CARTESIAN_POINT('Control Point',(13.1036868693,33.5639059634,2.)) ;
#184=CARTESIAN_POINT('Control Point',(16.1970745701,34.2925330494,2.)) ;
#185=CARTESIAN_POINT('Control Point',(19.3749241721,34.2578789122,2.)) ;
#186=CARTESIAN_POINT('Control Point',(20.9542557364,34.0462277229,2.)) ;
#187=CARTESIAN_POINT('Control Point',(24.0291002396,33.2429368432,2.)) ;
#188=CARTESIAN_POINT('Control Point',(26.8214880403,31.7255379457,2.)) ;
#189=CARTESIAN_POINT('Control Point',(28.118287956,30.7995820225,2.)) ;
#190=CARTESIAN_POINT('Control Point',(30.4600290924,28.6510491686,2.)) ;
#191=CARTESIAN_POINT('Control Point',(32.2180347616,26.0035323863,2.)) ;
#192=CARTESIAN_POINT('Control Point',(32.9309409461,24.5784537359,2.)) ;
#193=CARTESIAN_POINT('Control Point',(33.7041287403,22.4033299127,2.)) ;
#194=CARTESIAN_POINT('Control Point',(34.0819352314,20.139617101,2.)) ;
#195=CARTESIAN_POINT('Control Point',(34.1606453833,19.428335804,2.)) ;
#196=CARTESIAN_POINT('Control Point',(34.1999999993,18.7141679233,2.)) ;
#197=CARTESIAN_POINT('Control Point',(34.1999999993,18.,2.)) ;
#205=CARTESIAN_POINT('Axis2P3D Location',(18.,18.,2.)) ;
#210=CARTESIAN_POINT('Axis2P3D Location',(18.,18.,0.199999999255)) ;
#223=CARTESIAN_POINT('Axis2P3D Location',(18.,18.,0.2)) ;
#228=CARTESIAN_POINT('Axis2P3D Location',(18.,18.,0.)) ;
#232=CARTESIAN_POINT('Vertex',(0.2,18.,0.)) ;
#234=CARTESIAN_POINT('Vertex',(35.8,18.,0.)) ;
#237=CARTESIAN_POINT('Axis2P3D Location',(0.2,18.,0.2)) ;
#242=CARTESIAN_POINT('Axis2P3D Location',(35.8,18.,0.2)) ;
#255=CARTESIAN_POINT('Axis2P3D Location',(18.,18.,1.8)) ;
#260=CARTESIAN_POINT('Axis2P3D Location',(1.8,18.,1.8)) ;
#264=CARTESIAN_POINT('Vertex',(2.,18.,1.8)) ;
#267=CARTESIAN_POINT('Axis2P3D Location',(34.2,18.,1.8)) ;
#271=CARTESIAN_POINT('Vertex',(34.,18.,1.8)) ;
#274=CARTESIAN_POINT('Axis2P3D Location',(18.,18.,1.8)) ;
#287=CARTESIAN_POINT('Axis2P3D Location',(18.,18.,1.8)) ;
#292=CARTESIAN_POINT('Axis2P3D Location',(18.,18.,1.8)) ;
#305=CARTESIAN_POINT('Axis2P3D Location',(18.,18.,0.2)) ;
#310=CARTESIAN_POINT('Axis2P3D Location',(18.,18.,0.)) ;
#323=CARTESIAN_POINT('Axis2P3D Location',(18.,18.,0.)) ;
#332=CARTESIAN_POINT('Axis2P3D Location',(18.,18.,0.)) ;
#336=CARTESIAN_POINT('Vertex',(34.1999999993,18.,0.)) ;
#338=CARTESIAN_POINT('Vertex',(1.80000000075,18.,0.)) ;
#341=CARTESIAN_POINT('Axis2P3D Location',(18.,18.,0.)) ;
#352=CARTESIAN_POINT('Axis2P3D Location',(18.,18.,2.)) ;
#357=CARTESIAN_POINT('Line Origine',(34.,18.,2.)) ;
#361=CARTESIAN_POINT('Vertex',(34.,18.,0.199999999255)) ;
#364=CARTESIAN_POINT('Axis2P3D Location',(18.,18.,0.199999999255)) ;
#368=CARTESIAN_POINT('Vertex',(2.,18.,0.199999999255)) ;
#371=CARTESIAN_POINT('Line Origine',(2.,18.,2.)) ;
#384=CARTESIAN_POINT('Axis2P3D Location',(18.,18.,2.)) ;
#389=CARTESIAN_POINT('Axis2P3D Location',(18.,18.,0.199999999255)) ;
#402=CARTESIAN_POINT('Axis2P3D Location',(18.,18.,0.2)) ;
#407=CARTESIAN_POINT('Axis2P3D Location',(1.8,18.,0.2)) ;
#412=CARTESIAN_POINT('Axis2P3D Location',(34.2,18.,0.2)) ;
#425=CARTESIAN_POINT('Axis2P3D Location',(18.,18.,0.2)) ;
#32=DIRECTION('Axis2P3D Direction',(0.,0.,1.)) ;
#33=DIRECTION('Axis2P3D XDirection',(1.,0.,0.)) ;
#37=DIRECTION('Axis2P3D Direction',(0.,0.,1.)) ;
#46=DIRECTION('Axis2P3D Direction',(1.22464679915E-016,1.,-0.)) ;
#53=DIRECTION('Axis2P3D Direction',(0.,0.,1.)) ;
#60=DIRECTION('Axis2P3D Direction',(0.,-1.,0.)) ;
#80=DIRECTION('Axis2P3D Direction',(0.,0.,-1.)) ;
#81=DIRECTION('Axis2P3D XDirection',(-1.,0.,0.)) ;
#85=DIRECTION('Vector Direction',(0.,0.,-1.)) ;
#92=DIRECTION('Axis2P3D Direction',(0.,0.,-1.)) ;
#99=DIRECTION('Vector Direction',(0.,0.,-1.)) ;
#112=DIRECTION('Axis2P3D Direction',(0.,0.,1.)) ;
#113=DIRECTION('Axis2P3D XDirection',(-1.,1.97372982156E-016,0.)) ;
#117=DIRECTION('Axis2P3D Direction',(0.,0.,1.)) ;
#122=DIRECTION('Axis2P3D Direction',(0.,0.,1.)) ;
#135=DIRECTION('Axis2P3D Direction',(0.,0.,1.)) ;
#136=DIRECTION('Axis2P3D XDirection',(1.,0.,-0.)) ;
#206=DIRECTION('Axis2P3D Direction',(-0.,0.,-1.)) ;
#207=DIRECTION('Axis2P3D XDirection',(1.,1.22464679915E-016,-0.)) ;
#211=DIRECTION('Axis2P3D Direction',(-0.,0.,-1.)) ;
#224=DIRECTION('Axis2P3D Direction',(0.,0.,1.)) ;
#225=DIRECTION('Axis2P3D XDirection',(1.,0.,0.)) ;
#229=DIRECTION('Axis2P3D Direction',(0.,0.,1.)) ;
#238=DIRECTION('Axis2P3D Direction',(1.22464679915E-016,1.,-0.)) ;
#243=DIRECTION('Axis2P3D Direction',(0.,-1.,0.)) ;
#256=DIRECTION('Axis2P3D Direction',(0.,0.,1.)) ;
#257=DIRECTION('Axis2P3D XDirection',(-1.,2.16628882854E-016,0.)) ;
#261=DIRECTION('Axis2P3D Direction',(2.16628882854E-016,1.,-0.)) ;
#268=DIRECTION('Axis2P3D Direction',(-3.39093562769E-016,-1.,0.)) ;
#275=DIRECTION('Axis2P3D Direction',(0.,0.,1.)) ;
#288=DIRECTION('Axis2P3D Direction',(0.,0.,1.)) ;
#289=DIRECTION('Axis2P3D XDirection',(1.,0.,0.)) ;
#293=DIRECTION('Axis2P3D Direction',(0.,0.,1.)) ;
#306=DIRECTION('Axis2P3D Direction',(0.,0.,1.)) ;
#307=DIRECTION('Axis2P3D XDirection',(-1.,2.0185873175E-016,0.)) ;
#311=DIRECTION('Axis2P3D Direction',(0.,0.,1.)) ;
#324=DIRECTION('Axis2P3D Direction',(0.,0.,1.)) ;
#325=DIRECTION('Axis2P3D XDirection',(1.,0.,-0.)) ;
#333=DIRECTION('Axis2P3D Direction',(0.,0.,1.)) ;
#342=DIRECTION('Axis2P3D Direction',(0.,0.,1.)) ;
#353=DIRECTION('Axis2P3D Direction',(-0.,0.,-1.)) ;
#354=DIRECTION('Axis2P3D XDirection',(1.,1.22464679915E-016,-0.)) ;
#358=DIRECTION('Vector Direction',(0.,0.,-1.)) ;
#365=DIRECTION('Axis2P3D Direction',(-0.,0.,-1.)) ;
#372=DIRECTION('Vector Direction',(0.,0.,-1.)) ;
#385=DIRECTION('Axis2P3D Direction',(0.,0.,-1.)) ;
#386=DIRECTION('Axis2P3D XDirection',(-1.,0.,0.)) ;
#390=DIRECTION('Axis2P3D Direction',(0.,0.,-1.)) ;
#403=DIRECTION('Axis2P3D Direction',(0.,0.,1.)) ;
#404=DIRECTION('Axis2P3D XDirection',(1.,0.,0.)) ;
#408=DIRECTION('Axis2P3D Direction',(1.22464679915E-016,1.,-0.)) ;
#413=DIRECTION('Axis2P3D Direction',(0.,-1.,0.)) ;
#426=DIRECTION('Axis2P3D Direction',(0.,0.,1.)) ;
#427=DIRECTION('Axis2P3D XDirection',(-1.,2.22044604925E-016,0.)) ;
#8=PRODUCT_RELATED_PRODUCT_CATEGORY('part',$,(#5)) ;
#7=PRODUCT_CATEGORY('part','specification') ;
#29=STYLED_ITEM(' ',(#28),#21) ;
#28=PRESENTATION_STYLE_ASSIGNMENT((#27)) ;
#77=PRESENTATION_STYLE_ASSIGNMENT((#76)) ;
#27=SURFACE_STYLE_USAGE(.BOTH.,#26) ;
#76=SURFACE_STYLE_USAGE(.BOTH.,#75) ;
#26=SURFACE_SIDE_STYLE(' ',(#25)) ;
#75=SURFACE_SIDE_STYLE(' ',(#74)) ;
#25=SURFACE_STYLE_FILL_AREA(#24) ;
#74=SURFACE_STYLE_FILL_AREA(#73) ;
#24=FILL_AREA_STYLE(' ',(#23)) ;
#73=FILL_AREA_STYLE(' ',(#72)) ;
#23=FILL_AREA_STYLE_COLOUR(' ',#22) ;
#72=FILL_AREA_STYLE_COLOUR(' ',#71) ;
#86=VECTOR('Line Direction',#85,1.) ;
#100=VECTOR('Line Direction',#99,1.) ;
#359=VECTOR('Line Direction',#358,1.) ;
#373=VECTOR('Line Direction',#372,1.) ;
#15=UNCERTAINTY_MEASURE_WITH_UNIT(LENGTH_MEASURE(0.005),#12,'distance_accuracy_value','CONFUSED CURVE UNCERTAINTY') ;
#439=SHAPE_REPRESENTATION_RELATIONSHIP(' ',' ',#19,#438) ;
#65=ORIENTED_EDGE('',*,*,#44,.F.) ;
#66=ORIENTED_EDGE('',*,*,#51,.T.) ;
#67=ORIENTED_EDGE('',*,*,#58,.F.) ;
#68=ORIENTED_EDGE('',*,*,#63,.F.) ;
#104=ORIENTED_EDGE('',*,*,#44,.T.) ;
#105=ORIENTED_EDGE('',*,*,#90,.T.) ;
#106=ORIENTED_EDGE('',*,*,#97,.T.) ;
#107=ORIENTED_EDGE('',*,*,#102,.F.) ;
#127=ORIENTED_EDGE('',*,*,#51,.F.) ;
#128=ORIENTED_EDGE('',*,*,#120,.F.) ;
#129=ORIENTED_EDGE('',*,*,#63,.T.) ;
#130=ORIENTED_EDGE('',*,*,#125,.F.) ;
#140=ORIENTED_EDGE('',*,*,#58,.T.) ;
#141=ORIENTED_EDGE('',*,*,#125,.T.) ;
#200=ORIENTED_EDGE('',*,*,#172,.T.) ;
#201=ORIENTED_EDGE('',*,*,#198,.T.) ;
#216=ORIENTED_EDGE('',*,*,#90,.F.) ;
#217=ORIENTED_EDGE('',*,*,#120,.T.) ;
#218=ORIENTED_EDGE('',*,*,#102,.T.) ;
#219=ORIENTED_EDGE('',*,*,#214,.T.) ;
#248=ORIENTED_EDGE('',*,*,#236,.F.) ;
#249=ORIENTED_EDGE('',*,*,#241,.T.) ;
#250=ORIENTED_EDGE('',*,*,#97,.F.) ;
#251=ORIENTED_EDGE('',*,*,#246,.F.) ;
#280=ORIENTED_EDGE('',*,*,#266,.F.) ;
#281=ORIENTED_EDGE('',*,*,#172,.F.) ;
#282=ORIENTED_EDGE('',*,*,#273,.T.) ;
#283=ORIENTED_EDGE('',*,*,#278,.F.) ;
#298=ORIENTED_EDGE('',*,*,#198,.F.) ;
#299=ORIENTED_EDGE('',*,*,#266,.T.) ;
#300=ORIENTED_EDGE('',*,*,#296,.F.) ;
#301=ORIENTED_EDGE('',*,*,#273,.F.) ;
#316=ORIENTED_EDGE('',*,*,#241,.F.) ;
#317=ORIENTED_EDGE('',*,*,#314,.F.) ;
#318=ORIENTED_EDGE('',*,*,#246,.T.) ;
#319=ORIENTED_EDGE('',*,*,#214,.F.) ;
#329=ORIENTED_EDGE('',*,*,#314,.T.) ;
#330=ORIENTED_EDGE('',*,*,#236,.T.) ;
#347=ORIENTED_EDGE('',*,*,#340,.T.) ;
#348=ORIENTED_EDGE('',*,*,#345,.T.) ;
#377=ORIENTED_EDGE('',*,*,#278,.T.) ;
#378=ORIENTED_EDGE('',*,*,#363,.T.) ;
#379=ORIENTED_EDGE('',*,*,#370,.T.) ;
#380=ORIENTED_EDGE('',*,*,#375,.F.) ;
#395=ORIENTED_EDGE('',*,*,#363,.F.) ;
#396=ORIENTED_EDGE('',*,*,#296,.T.) ;
#397=ORIENTED_EDGE('',*,*,#375,.T.) ;
#398=ORIENTED_EDGE('',*,*,#393,.T.) ;
#418=ORIENTED_EDGE('',*,*,#393,.F.) ;
#419=ORIENTED_EDGE('',*,*,#411,.T.) ;
#420=ORIENTED_EDGE('',*,*,#340,.F.) ;
#421=ORIENTED_EDGE('',*,*,#416,.F.) ;
#431=ORIENTED_EDGE('',*,*,#411,.F.) ;
#432=ORIENTED_EDGE('',*,*,#370,.F.) ;
#433=ORIENTED_EDGE('',*,*,#416,.T.) ;
#434=ORIENTED_EDGE('',*,*,#345,.F.) ;
#202=FACE_BOUND('',#199,.T.) ;
#349=FACE_BOUND('',#346,.T.) ;
#30=CLOSED_SHELL('Closed Shell',(#70,#109,#132,#203,#221,#253,#285,#303,#321,#350,#382,#400,#423,#436)) ;
#438=ADVANCED_BREP_SHAPE_REPRESENTATION('NONE',(#21),#16) ;
#70=ADVANCED_FACE('Verrundung1',(#69),#35,.T.) ;
#109=ADVANCED_FACE('Verrundung1',(#108),#83,.T.) ;
#132=ADVANCED_FACE('Verrundung1',(#131),#115,.T.) ;
#203=ADVANCED_FACE('Verrundung1',(#142,#202),#138,.T.) ;
#221=ADVANCED_FACE('Verrundung1',(#220),#209,.T.) ;
#253=ADVANCED_FACE('Verrundung1',(#252),#227,.T.) ;
#285=ADVANCED_FACE('Verrundung1',(#284),#259,.T.) ;
#303=ADVANCED_FACE('Verrundung1',(#302),#291,.T.) ;
#321=ADVANCED_FACE('Verrundung1',(#320),#309,.T.) ;
#350=ADVANCED_FACE('Verrundung1',(#331,#349),#327,.F.) ;
#382=ADVANCED_FACE('Verrundung1',(#381),#356,.F.) ;
#400=ADVANCED_FACE('Verrundung1',(#399),#388,.F.) ;
#423=ADVANCED_FACE('Verrundung1',(#422),#406,.T.) ;
#436=ADVANCED_FACE('Verrundung1',(#435),#429,.T.) ;
#4=APPLICATION_PROTOCOL_DEFINITION('international standard','automotive_design',2001,#1) ;
#143=B_SPLINE_CURVE_WITH_KNOTS('',5,(#144,#145,#146,#147,#148,#149,#150,#151,#152,#153,#154,#155,#156,#157,#158,#159,#160,#161,#162,#163,#164,#165,#166,#167),.UNSPECIFIED.,.F.,.U.,(6,3,3,3,3,3,3,6),(0.,11.1799400975,22.3598801804,33.5398202525,44.7197603724,55.8997004972,67.0796406271,72.1414249094),.UNSPECIFIED.) ;
#173=B_SPLINE_CURVE_WITH_KNOTS('',5,(#174,#175,#176,#177,#178,#179,#180,#181,#182,#183,#184,#185,#186,#187,#188,#189,#190,#191,#192,#193,#194,#195,#196,#197),.UNSPECIFIED.,.F.,.U.,(6,3,3,3,3,3,3,6),(0.,11.1799400973,22.3598801806,33.5398202524,44.7197603728,55.8997004975,67.0796406268,72.1414249117),.UNSPECIFIED.) ;
#21=MANIFOLD_SOLID_BREP('Verrundung1',#30) ;
#39=CIRCLE('generated circle',#38,18.) ;
#48=CIRCLE('generated circle',#47,0.2) ;
#55=CIRCLE('generated circle',#54,17.8) ;
#62=CIRCLE('generated circle',#61,0.2) ;
#94=CIRCLE('generated circle',#93,18.) ;
#119=CIRCLE('generated circle',#118,18.) ;
#124=CIRCLE('generated circle',#123,17.8) ;
#213=CIRCLE('generated circle',#212,18.) ;
#231=CIRCLE('generated circle',#230,17.8) ;
#240=CIRCLE('generated circle',#239,0.2) ;
#245=CIRCLE('generated circle',#244,0.2) ;
#263=CIRCLE('generated circle',#262,0.2) ;
#270=CIRCLE('generated circle',#269,0.2) ;
#277=CIRCLE('generated circle',#276,16.) ;
#295=CIRCLE('generated circle',#294,16.) ;
#313=CIRCLE('generated circle',#312,17.8) ;
#335=CIRCLE('generated circle',#334,16.1999999993) ;
#344=CIRCLE('generated circle',#343,16.1999999993) ;
#367=CIRCLE('generated circle',#366,16.) ;
#392=CIRCLE('generated circle',#391,16.) ;
#410=CIRCLE('generated circle',#409,0.2) ;
#415=CIRCLE('generated circle',#414,0.2) ;
#22=COLOUR_RGB('Colour',0.823529411765,0.823529411765,1.) ;
#71=COLOUR_RGB('Colour',0.760784313725,0.749019607843,0.721568627451) ;
#78=OVER_RIDING_STYLED_ITEM(' ',(#77),#70,#29) ;
#110=OVER_RIDING_STYLED_ITEM(' ',(#77),#109,#29) ;
#133=OVER_RIDING_STYLED_ITEM(' ',(#77),#132,#29) ;
#204=OVER_RIDING_STYLED_ITEM(' ',(#77),#203,#29) ;
#222=OVER_RIDING_STYLED_ITEM(' ',(#77),#221,#29) ;
#254=OVER_RIDING_STYLED_ITEM(' ',(#77),#253,#29) ;
#286=OVER_RIDING_STYLED_ITEM(' ',(#77),#285,#29) ;
#304=OVER_RIDING_STYLED_ITEM(' ',(#77),#303,#29) ;
#322=OVER_RIDING_STYLED_ITEM(' ',(#77),#321,#29) ;
#351=OVER_RIDING_STYLED_ITEM(' ',(#77),#350,#29) ;
#383=OVER_RIDING_STYLED_ITEM(' ',(#77),#382,#29) ;
#401=OVER_RIDING_STYLED_ITEM(' ',(#77),#400,#29) ;
#424=OVER_RIDING_STYLED_ITEM(' ',(#77),#423,#29) ;
#437=OVER_RIDING_STYLED_ITEM(' ',(#77),#436,#29) ;
#83=CYLINDRICAL_SURFACE('generated cylinder',#82,18.) ;
#209=CYLINDRICAL_SURFACE('generated cylinder',#208,18.) ;
#356=CYLINDRICAL_SURFACE('generated cylinder',#355,16.) ;
#388=CYLINDRICAL_SURFACE('generated cylinder',#387,16.) ;
#35=TOROIDAL_SURFACE('homeo Torus',#34,17.8,0.2) ;
#115=TOROIDAL_SURFACE('homeo Torus',#114,17.8,0.2) ;
#227=TOROIDAL_SURFACE('homeo Torus',#226,17.8,0.2) ;
#259=TOROIDAL_SURFACE('homeo Torus',#258,16.2,0.2) ;
#291=TOROIDAL_SURFACE('homeo Torus',#290,16.2,0.2) ;
#309=TOROIDAL_SURFACE('homeo Torus',#308,17.8,0.2) ;
#406=TOROIDAL_SURFACE('homeo Torus',#405,16.2,0.2) ;
#429=TOROIDAL_SURFACE('homeo Torus',#428,16.2,0.2) ;
#44=EDGE_CURVE('',#41,#43,#39,.F.) ;
#51=EDGE_CURVE('',#41,#50,#48,.T.) ;
#58=EDGE_CURVE('',#57,#50,#55,.T.) ;
#63=EDGE_CURVE('',#43,#57,#62,.T.) ;
#90=EDGE_CURVE('',#43,#89,#87,.T.) ;
#97=EDGE_CURVE('',#89,#96,#94,.F.) ;
#102=EDGE_CURVE('',#41,#96,#101,.T.) ;
#120=EDGE_CURVE('',#43,#41,#119,.F.) ;
#125=EDGE_CURVE('',#50,#57,#124,.T.) ;
#172=EDGE_CURVE('',#169,#171,#143,.T.) ;
#198=EDGE_CURVE('',#171,#169,#173,.T.) ;
#214=EDGE_CURVE('',#96,#89,#213,.F.) ;
#236=EDGE_CURVE('',#233,#235,#231,.F.) ;
#241=EDGE_CURVE('',#233,#96,#240,.T.) ;
#246=EDGE_CURVE('',#235,#89,#245,.T.) ;
#266=EDGE_CURVE('',#171,#265,#263,.T.) ;
#273=EDGE_CURVE('',#169,#272,#270,.T.) ;
#278=EDGE_CURVE('',#265,#272,#277,.T.) ;
#296=EDGE_CURVE('',#272,#265,#295,.T.) ;
#314=EDGE_CURVE('',#235,#233,#313,.F.) ;
#340=EDGE_CURVE('',#337,#339,#335,.T.) ;
#345=EDGE_CURVE('',#339,#337,#344,.T.) ;
#363=EDGE_CURVE('',#272,#362,#360,.T.) ;
#370=EDGE_CURVE('',#362,#369,#367,.T.) ;
#375=EDGE_CURVE('',#265,#369,#374,.T.) ;
#393=EDGE_CURVE('',#369,#362,#392,.T.) ;
#411=EDGE_CURVE('',#369,#339,#410,.T.) ;
#416=EDGE_CURVE('',#362,#337,#415,.T.) ;
#64=EDGE_LOOP('',(#65,#66,#67,#68)) ;
#103=EDGE_LOOP('',(#104,#105,#106,#107)) ;
#126=EDGE_LOOP('',(#127,#128,#129,#130)) ;
#139=EDGE_LOOP('',(#140,#141)) ;
#199=EDGE_LOOP('',(#200,#201)) ;
#215=EDGE_LOOP('',(#216,#217,#218,#219)) ;
#247=EDGE_LOOP('',(#248,#249,#250,#251)) ;
#279=EDGE_LOOP('',(#280,#281,#282,#283)) ;
#297=EDGE_LOOP('',(#298,#299,#300,#301)) ;
#315=EDGE_LOOP('',(#316,#317,#318,#319)) ;
#328=EDGE_LOOP('',(#329,#330)) ;
#346=EDGE_LOOP('',(#347,#348)) ;
#376=EDGE_LOOP('',(#377,#378,#379,#380)) ;
#394=EDGE_LOOP('',(#395,#396,#397,#398)) ;
#417=EDGE_LOOP('',(#418,#419,#420,#421)) ;
#430=EDGE_LOOP('',(#431,#432,#433,#434)) ;
#69=FACE_OUTER_BOUND('',#64,.T.) ;
#108=FACE_OUTER_BOUND('',#103,.T.) ;
#131=FACE_OUTER_BOUND('',#126,.T.) ;
#142=FACE_OUTER_BOUND('',#139,.T.) ;
#220=FACE_OUTER_BOUND('',#215,.T.) ;
#252=FACE_OUTER_BOUND('',#247,.T.) ;
#284=FACE_OUTER_BOUND('',#279,.T.) ;
#302=FACE_OUTER_BOUND('',#297,.T.) ;
#320=FACE_OUTER_BOUND('',#315,.T.) ;
#331=FACE_OUTER_BOUND('',#328,.T.) ;
#381=FACE_OUTER_BOUND('',#376,.T.) ;
#399=FACE_OUTER_BOUND('',#394,.T.) ;
#422=FACE_OUTER_BOUND('',#417,.T.) ;
#435=FACE_OUTER_BOUND('',#430,.T.) ;
#87=LINE('Line',#84,#86) ;
#101=LINE('Line',#98,#100) ;
#360=LINE('Line',#357,#359) ;
#374=LINE('Line',#371,#373) ;
#138=PLANE('',#137) ;
#327=PLANE('',#326) ;
#9=PRODUCT_CATEGORY_RELATIONSHIP(' ',' ',#7,#8) ;
#6=PRODUCT_DEFINITION_FORMATION_WITH_SPECIFIED_SOURCE('',' ',#5,.NOT_KNOWN.) ;
#20=SHAPE_DEFINITION_REPRESENTATION(#11,#19) ;
#41=VERTEX_POINT('',#40) ;
#43=VERTEX_POINT('',#42) ;
#50=VERTEX_POINT('',#49) ;
#57=VERTEX_POINT('',#56) ;
#89=VERTEX_POINT('',#88) ;
#96=VERTEX_POINT('',#95) ;
#169=VERTEX_POINT('',#168) ;
#171=VERTEX_POINT('',#170) ;
#233=VERTEX_POINT('',#232) ;
#235=VERTEX_POINT('',#234) ;
#265=VERTEX_POINT('',#264) ;
#272=VERTEX_POINT('',#271) ;
#337=VERTEX_POINT('',#336) ;
#339=VERTEX_POINT('',#338) ;
#362=VERTEX_POINT('',#361) ;
#369=VERTEX_POINT('',#368) ;
#12=(LENGTH_UNIT()NAMED_UNIT(*)SI_UNIT(.MILLI.,.METRE.)) ;
#13=(NAMED_UNIT(*)PLANE_ANGLE_UNIT()SI_UNIT($,.RADIAN.)) ;
#14=(NAMED_UNIT(*)SI_UNIT($,.STERADIAN.)SOLID_ANGLE_UNIT()) ;
#16=(GEOMETRIC_REPRESENTATION_CONTEXT(3)GLOBAL_UNCERTAINTY_ASSIGNED_CONTEXT((#15))GLOBAL_UNIT_ASSIGNED_CONTEXT((#12,#13,#14))REPRESENTATION_CONTEXT(' ',' ')) ;
ENDSEC;
END-ISO-10303-21;
