ISO-10303-21;
HEADER;
FILE_DESCRIPTION(('CATIA V5R24 STEP','CAx-IF Rec.Pracs.--- Model Styling and Organization---1.2---2011-12-15'),'2;1');

FILE_NAME ('D1446102_0', '2018-01-12T11:02:31+00:00', ('Weidmueller Interface'), ('Weidmueller'), 'CATIA Version 5-6 Release 2014 SP4 HF52', 'CATIA V5 STEP AP214', 'none');

FILE_SCHEMA(('AUTOMOTIVE_DESIGN { 1 0 10303 214 1 1 1 1 }'));

ENDSEC;
DATA;
#5=PRODUCT('FKSC M6X8 D9/SW3','','FLACHKOPFSCHRAUBE\X2\000A\X0\<Q-CHECKER_SEAL> Q-Checker Version 2.6.2  \X2\000A\X0\CATIA-Version         : Catia V5 R19 SP5 Build Date 07-20-2009.19.00\X2\000A\X0\Model size (in KByte) : 0\X2\000A\X0\Checking date         : 2010-12-20 11:29:20\X2\000A\X0\Checking profile      : ADMIN / Release_2D-3D [CATPart]\X2\000A\X0\Model assessment      : In Ordnung (IO)\X2\000A\X0\Total weight sum      : 0\X2\000A\X0\<CROSS_CHECK_SUM>\X2\000A\X0\  <CHKSUM_DATE> -1168712721 </CHKSUM_DATE>\X2\000A\X0\  <CHKSUM_ENTITIES> 65262133 </CHKSUM_ENTITIES>\X2\000A\X0\  <CHKSUM_PROFILE> -1101559662 </CHKSUM_PROFILE>\X2\000A\X0\  <CHKSUM_DIMENSION> -186917087 </CHKSUM_DIMENSION>\X2\000A\X0\  <CHKSUM_PROJINTERSEC> -896974048 </CHKSUM_PROJINTERSEC>\X2\000A\X0\  <CHKSUM_IDENTCRV> -896974048 </CHKSUM_IDENTCRV>\X2\000A\X0\  <CHKSUM_INFINITY> 138018827 </CHKSUM_INFINITY>\X2\000A\X0\</CROSS_CHECK_SUM>\X2\000A\X0\</Q-CHECKER_SEAL> \X2\000A\X0\ \X2\000A\X0\ \X2\000A\X0\',(#2)) ;
#2=PRODUCT_CONTEXT(' ',#1,'mechanical') ;
#1=APPLICATION_CONTEXT('automotive design') ;
#10=PRODUCT_DEFINITION('',' ',#6,#3) ;
#3=PRODUCT_DEFINITION_CONTEXT('part definition',#1,' ') ;
#11=PRODUCT_DEFINITION_SHAPE(' ',' ',#10) ;
#546=MECHANICAL_DESIGN_GEOMETRIC_PRESENTATION_REPRESENTATION(' ',(#79,#111,#143,#177,#202,#227,#245,#278,#303,#346,#378,#391,#423,#436,#468,#481,#504,#512,#535,#543,#29),#16) ;
#19=SHAPE_REPRESENTATION(' ',(#18),#16) ;
#18=AXIS2_PLACEMENT_3D(' ',#17,$,$) ;
#35=AXIS2_PLACEMENT_3D('Plane Axis2P3D',#32,#33,#34) ;
#83=AXIS2_PLACEMENT_3D('Plane Axis2P3D',#80,#81,#82) ;
#115=AXIS2_PLACEMENT_3D('Plane Axis2P3D',#112,#113,#114) ;
#147=AXIS2_PLACEMENT_3D('Plane Axis2P3D',#144,#145,#146) ;
#181=AXIS2_PLACEMENT_3D('Plane Axis2P3D',#178,#179,#180) ;
#206=AXIS2_PLACEMENT_3D('Plane Axis2P3D',#203,#204,#205) ;
#231=AXIS2_PLACEMENT_3D('Plane Axis2P3D',#228,#229,#230) ;
#249=AXIS2_PLACEMENT_3D('Plane Axis2P3D',#246,#247,#248) ;
#253=AXIS2_PLACEMENT_3D('Circle Axis2P3D',#251,#252,$) ;
#262=AXIS2_PLACEMENT_3D('Circle Axis2P3D',#260,#261,$) ;
#282=AXIS2_PLACEMENT_3D('Plane Axis2P3D',#279,#280,#281) ;
#286=AXIS2_PLACEMENT_3D('Circle Axis2P3D',#284,#285,$) ;
#295=AXIS2_PLACEMENT_3D('Circle Axis2P3D',#293,#294,$) ;
#307=AXIS2_PLACEMENT_3D('Plane Axis2P3D',#304,#305,#306) ;
#311=AXIS2_PLACEMENT_3D('Circle Axis2P3D',#309,#310,$) ;
#320=AXIS2_PLACEMENT_3D('Circle Axis2P3D',#318,#319,$) ;
#329=AXIS2_PLACEMENT_3D('Circle Axis2P3D',#327,#328,$) ;
#338=AXIS2_PLACEMENT_3D('Circle Axis2P3D',#336,#337,$) ;
#350=AXIS2_PLACEMENT_3D('Cone Axis2P3D',#347,#348,#349) ;
#368=AXIS2_PLACEMENT_3D('Circle Axis2P3D',#366,#367,$) ;
#381=AXIS2_PLACEMENT_3D('Circle Axis2P3D',#379,#380,$) ;
#395=AXIS2_PLACEMENT_3D('Cylinder Axis2P3D',#392,#393,#394) ;
#413=AXIS2_PLACEMENT_3D('Circle Axis2P3D',#411,#412,$) ;
#426=AXIS2_PLACEMENT_3D('Circle Axis2P3D',#424,#425,$) ;
#440=AXIS2_PLACEMENT_3D('Sphere Axis2P3D',#437,#438,#439) ;
#444=AXIS2_PLACEMENT_3D('Circle Axis2P3D',#442,#443,$) ;
#451=AXIS2_PLACEMENT_3D('Circle Axis2P3D',#449,#450,$) ;
#458=AXIS2_PLACEMENT_3D('Circle Axis2P3D',#456,#457,$) ;
#471=AXIS2_PLACEMENT_3D('Circle Axis2P3D',#469,#470,$) ;
#485=AXIS2_PLACEMENT_3D('Cylinder Axis2P3D',#482,#483,#484) ;
#516=AXIS2_PLACEMENT_3D('Cylinder Axis2P3D',#513,#514,#515) ;
#17=CARTESIAN_POINT(' ',(0.,0.,0.)) ;
#32=CARTESIAN_POINT('Axis2P3D Location',(3.,5.36602540378,9.)) ;
#37=CARTESIAN_POINT('Line Origine',(3.75,5.79903810568,5.)) ;
#41=CARTESIAN_POINT('Vertex',(3.,5.36602540378,5.)) ;
#43=CARTESIAN_POINT('Vertex',(4.5,6.23205080757,5.)) ;
#46=CARTESIAN_POINT('Line Origine',(4.5,6.23205080757,7.)) ;
#50=CARTESIAN_POINT('Vertex',(4.5,6.23205080757,9.)) ;
#53=CARTESIAN_POINT('Line Origine',(3.75,5.79903810568,9.)) ;
#57=CARTESIAN_POINT('Vertex',(3.,5.36602540378,9.)) ;
#60=CARTESIAN_POINT('Line Origine',(3.,5.36602540378,7.)) ;
#80=CARTESIAN_POINT('Axis2P3D Location',(3.,5.36602540378,9.)) ;
#85=CARTESIAN_POINT('Line Origine',(3.,4.5,5.)) ;
#89=CARTESIAN_POINT('Vertex',(3.,3.63397459622,5.)) ;
#92=CARTESIAN_POINT('Line Origine',(3.,4.5,9.)) ;
#96=CARTESIAN_POINT('Vertex',(3.,3.63397459622,9.)) ;
#99=CARTESIAN_POINT('Line Origine',(3.,3.63397459622,7.)) ;
#112=CARTESIAN_POINT('Axis2P3D Location',(4.5,6.23205080757,9.)) ;
#117=CARTESIAN_POINT('Line Origine',(5.25,5.79903810568,5.)) ;
#121=CARTESIAN_POINT('Vertex',(6.,5.36602540378,5.)) ;
#124=CARTESIAN_POINT('Line Origine',(6.,5.36602540378,7.)) ;
#128=CARTESIAN_POINT('Vertex',(6.,5.36602540378,9.)) ;
#131=CARTESIAN_POINT('Line Origine',(5.25,5.79903810568,9.)) ;
#144=CARTESIAN_POINT('Axis2P3D Location',(4.5,4.5,5.)) ;
#149=CARTESIAN_POINT('Line Origine',(3.75,3.20096189432,5.)) ;
#153=CARTESIAN_POINT('Vertex',(4.5,2.76794919243,5.)) ;
#156=CARTESIAN_POINT('Line Origine',(5.25,3.20096189432,5.)) ;
#160=CARTESIAN_POINT('Vertex',(6.,3.63397459622,5.)) ;
#163=CARTESIAN_POINT('Line Origine',(6.,4.5,5.)) ;
#178=CARTESIAN_POINT('Axis2P3D Location',(3.,3.63397459622,9.)) ;
#183=CARTESIAN_POINT('Line Origine',(3.75,3.20096189432,9.)) ;
#187=CARTESIAN_POINT('Vertex',(4.5,2.76794919243,9.)) ;
#190=CARTESIAN_POINT('Line Origine',(4.5,2.76794919243,7.)) ;
#203=CARTESIAN_POINT('Axis2P3D Location',(6.,5.36602540378,9.)) ;
#208=CARTESIAN_POINT('Line Origine',(6.,3.63397459622,7.)) ;
#212=CARTESIAN_POINT('Vertex',(6.,3.63397459622,9.)) ;
#215=CARTESIAN_POINT('Line Origine',(6.,4.5,9.)) ;
#228=CARTESIAN_POINT('Axis2P3D Location',(4.5,2.76794919243,9.)) ;
#233=CARTESIAN_POINT('Line Origine',(5.25,3.20096189432,9.)) ;
#246=CARTESIAN_POINT('Axis2P3D Location',(4.5,4.5,9.)) ;
#251=CARTESIAN_POINT('Axis2P3D Location',(4.5,4.5,9.)) ;
#255=CARTESIAN_POINT('Vertex',(2.15866789554,8.3429368947,9.)) ;
#257=CARTESIAN_POINT('Vertex',(6.84133210446,0.657063105302,9.)) ;
#260=CARTESIAN_POINT('Axis2P3D Location',(4.5,4.5,9.)) ;
#279=CARTESIAN_POINT('Axis2P3D Location',(4.5,4.5,1.7763568394E-015)) ;
#284=CARTESIAN_POINT('Axis2P3D Location',(4.5,4.5,1.7763568394E-015)) ;
#288=CARTESIAN_POINT('Vertex',(3.25128954429,6.54956634384,1.7763568394E-015)) ;
#290=CARTESIAN_POINT('Vertex',(5.74871045571,2.45043365616,1.7763568394E-015)) ;
#293=CARTESIAN_POINT('Axis2P3D Location',(4.5,4.5,1.7763568394E-015)) ;
#304=CARTESIAN_POINT('Axis2P3D Location',(6.78630706599,3.18,8.)) ;
#309=CARTESIAN_POINT('Axis2P3D Location',(4.5,4.5,8.)) ;
#313=CARTESIAN_POINT('Vertex',(2.15866789554,8.3429368947,8.)) ;
#315=CARTESIAN_POINT('Vertex',(6.84133210446,0.657063105302,8.)) ;
#318=CARTESIAN_POINT('Axis2P3D Location',(4.5,4.5,8.)) ;
#327=CARTESIAN_POINT('Axis2P3D Location',(4.5,4.5,8.)) ;
#331=CARTESIAN_POINT('Vertex',(5.87358150128,2.24547702178,8.)) ;
#333=CARTESIAN_POINT('Vertex',(3.12641849872,6.75452297822,8.)) ;
#336=CARTESIAN_POINT('Axis2P3D Location',(4.5,4.5,8.)) ;
#347=CARTESIAN_POINT('Axis2P3D Location',(4.5,4.5,1.7763568394E-015)) ;
#352=CARTESIAN_POINT('Line Origine',(5.90479926268,2.19423786318,0.5)) ;
#356=CARTESIAN_POINT('Vertex',(6.06088806964,1.9380420702,1.)) ;
#359=CARTESIAN_POINT('Line Origine',(3.09520073732,6.80576213682,0.5)) ;
#363=CARTESIAN_POINT('Vertex',(2.93911193036,7.0619579298,1.)) ;
#366=CARTESIAN_POINT('Axis2P3D Location',(4.5,4.5,1.)) ;
#379=CARTESIAN_POINT('Axis2P3D Location',(4.5,4.5,1.)) ;
#392=CARTESIAN_POINT('Axis2P3D Location',(4.5,4.5,4.5)) ;
#397=CARTESIAN_POINT('Line Origine',(6.06088806964,1.9380420702,3.7)) ;
#401=CARTESIAN_POINT('Vertex',(6.06088806964,1.9380420702,6.4)) ;
#404=CARTESIAN_POINT('Line Origine',(2.93911193036,7.0619579298,3.7)) ;
#408=CARTESIAN_POINT('Vertex',(2.93911193036,7.0619579298,6.4)) ;
#411=CARTESIAN_POINT('Axis2P3D Location',(4.5,4.5,6.4)) ;
#424=CARTESIAN_POINT('Axis2P3D Location',(4.5,4.5,6.4)) ;
#437=CARTESIAN_POINT('Axis2P3D Location',(4.5,4.5,5.38753830298)) ;
#442=CARTESIAN_POINT('Axis2P3D Location',(4.5,4.5,5.38753830298)) ;
#446=CARTESIAN_POINT('Vertex',(5.87358150128,2.24547702178,7.13553106281)) ;
#449=CARTESIAN_POINT('Axis2P3D Location',(4.5,4.5,5.38753830298)) ;
#453=CARTESIAN_POINT('Vertex',(3.12641849872,6.75452297822,7.13553106281)) ;
#456=CARTESIAN_POINT('Axis2P3D Location',(4.5,4.5,7.13553106277)) ;
#469=CARTESIAN_POINT('Axis2P3D Location',(4.5,4.5,7.13553106277)) ;
#482=CARTESIAN_POINT('Axis2P3D Location',(4.5,4.5,4.5)) ;
#487=CARTESIAN_POINT('Line Origine',(5.87358150128,2.24547702178,7.5677655314)) ;
#492=CARTESIAN_POINT('Line Origine',(3.12641849872,6.75452297822,7.5677655314)) ;
#513=CARTESIAN_POINT('Axis2P3D Location',(4.5,4.5,4.5)) ;
#518=CARTESIAN_POINT('Line Origine',(6.84133210446,0.657063105302,8.5)) ;
#523=CARTESIAN_POINT('Line Origine',(2.15866789554,8.3429368947,8.5)) ;
#33=DIRECTION('Axis2P3D Direction',(-0.5,0.866025403784,0.)) ;
#34=DIRECTION('Axis2P3D XDirection',(0.866025403784,0.5,0.)) ;
#38=DIRECTION('Vector Direction',(0.866025403784,0.5,0.)) ;
#47=DIRECTION('Vector Direction',(0.,0.,-1.)) ;
#54=DIRECTION('Vector Direction',(0.866025403784,0.5,0.)) ;
#61=DIRECTION('Vector Direction',(0.,0.,-1.)) ;
#81=DIRECTION('Axis2P3D Direction',(1.,6.93889390391E-018,0.)) ;
#82=DIRECTION('Axis2P3D XDirection',(6.93889390391E-018,-1.,-6.93889390391E-018)) ;
#86=DIRECTION('Vector Direction',(0.,-1.,0.)) ;
#93=DIRECTION('Vector Direction',(0.,-1.,0.)) ;
#100=DIRECTION('Vector Direction',(0.,0.,-1.)) ;
#113=DIRECTION('Axis2P3D Direction',(0.5,0.866025403784,0.)) ;
#114=DIRECTION('Axis2P3D XDirection',(0.866025403784,-0.5,0.)) ;
#118=DIRECTION('Vector Direction',(0.866025403784,-0.5,0.)) ;
#125=DIRECTION('Vector Direction',(0.,0.,-1.)) ;
#132=DIRECTION('Vector Direction',(0.866025403784,-0.5,0.)) ;
#145=DIRECTION('Axis2P3D Direction',(-1.54074395551E-033,6.93889390391E-018,-1.)) ;
#146=DIRECTION('Axis2P3D XDirection',(-1.,-2.22044604925E-016,0.)) ;
#150=DIRECTION('Vector Direction',(0.866025403784,-0.5,0.)) ;
#157=DIRECTION('Vector Direction',(0.866025403784,0.5,0.)) ;
#164=DIRECTION('Vector Direction',(0.,-1.,0.)) ;
#179=DIRECTION('Axis2P3D Direction',(0.5,0.866025403784,0.)) ;
#180=DIRECTION('Axis2P3D XDirection',(0.866025403784,-0.5,0.)) ;
#184=DIRECTION('Vector Direction',(0.866025403784,-0.5,0.)) ;
#191=DIRECTION('Vector Direction',(0.,0.,-1.)) ;
#204=DIRECTION('Axis2P3D Direction',(1.,6.93889390391E-018,0.)) ;
#205=DIRECTION('Axis2P3D XDirection',(6.93889390391E-018,-1.,-6.93889390391E-018)) ;
#209=DIRECTION('Vector Direction',(0.,0.,-1.)) ;
#216=DIRECTION('Vector Direction',(0.,-1.,0.)) ;
#229=DIRECTION('Axis2P3D Direction',(-0.5,0.866025403784,0.)) ;
#230=DIRECTION('Axis2P3D XDirection',(0.866025403784,0.5,6.93889390391E-018)) ;
#234=DIRECTION('Vector Direction',(0.866025403784,0.5,0.)) ;
#247=DIRECTION('Axis2P3D Direction',(0.,-0.,-1.)) ;
#248=DIRECTION('Axis2P3D XDirection',(0.866025403784,-0.5,0.)) ;
#252=DIRECTION('Axis2P3D Direction',(0.,-0.,-1.)) ;
#261=DIRECTION('Axis2P3D Direction',(0.,-0.,-1.)) ;
#280=DIRECTION('Axis2P3D Direction',(0.,-0.,-1.)) ;
#281=DIRECTION('Axis2P3D XDirection',(0.866025403784,-0.5,0.)) ;
#285=DIRECTION('Axis2P3D Direction',(0.,-0.,-1.)) ;
#294=DIRECTION('Axis2P3D Direction',(0.,-0.,-1.)) ;
#305=DIRECTION('Axis2P3D Direction',(0.,-0.,-1.)) ;
#306=DIRECTION('Axis2P3D XDirection',(0.866025403784,-0.5,0.)) ;
#310=DIRECTION('Axis2P3D Direction',(0.,-0.,-1.)) ;
#319=DIRECTION('Axis2P3D Direction',(0.,-0.,-1.)) ;
#328=DIRECTION('Axis2P3D Direction',(0.,-0.,-1.)) ;
#337=DIRECTION('Axis2P3D Direction',(0.,-0.,-1.)) ;
#348=DIRECTION('Axis2P3D Direction',(0.,0.,1.)) ;
#349=DIRECTION('Axis2P3D XDirection',(0.520296023213,-0.853985976599,0.)) ;
#353=DIRECTION('Vector Direction',(0.267690095509,-0.439372160155,0.857492925713)) ;
#360=DIRECTION('Vector Direction',(-0.267690095509,0.439372160155,0.857492925713)) ;
#367=DIRECTION('Axis2P3D Direction',(-0.,0.,1.)) ;
#380=DIRECTION('Axis2P3D Direction',(-0.,0.,1.)) ;
#393=DIRECTION('Axis2P3D Direction',(0.,-0.,-1.)) ;
#394=DIRECTION('Axis2P3D XDirection',(0.520296023213,-0.853985976599,0.)) ;
#398=DIRECTION('Vector Direction',(0.,0.,-1.)) ;
#405=DIRECTION('Vector Direction',(0.,0.,-1.)) ;
#412=DIRECTION('Axis2P3D Direction',(0.,-0.,-1.)) ;
#425=DIRECTION('Axis2P3D Direction',(0.,-0.,-1.)) ;
#438=DIRECTION('Axis2P3D Direction',(0.,-0.,-1.)) ;
#439=DIRECTION('Axis2P3D XDirection',(0.520296023213,-0.853985976599,0.)) ;
#443=DIRECTION('Axis2P3D Direction',(0.853985976599,0.520296023213,0.)) ;
#450=DIRECTION('Axis2P3D Direction',(-0.853985976599,-0.520296023213,-0.)) ;
#457=DIRECTION('Axis2P3D Direction',(0.,-0.,-1.)) ;
#470=DIRECTION('Axis2P3D Direction',(0.,-0.,-1.)) ;
#483=DIRECTION('Axis2P3D Direction',(0.,-0.,-1.)) ;
#484=DIRECTION('Axis2P3D XDirection',(0.520296023213,-0.853985976599,0.)) ;
#488=DIRECTION('Vector Direction',(0.,0.,-1.)) ;
#493=DIRECTION('Vector Direction',(0.,0.,-1.)) ;
#514=DIRECTION('Axis2P3D Direction',(0.,-0.,-1.)) ;
#515=DIRECTION('Axis2P3D XDirection',(0.520296023213,-0.853985976599,0.)) ;
#519=DIRECTION('Vector Direction',(0.,0.,-1.)) ;
#524=DIRECTION('Vector Direction',(0.,0.,-1.)) ;
#30=PRESENTATION_LAYER_ASSIGNMENT('1',' ',(#21)) ;
#8=PRODUCT_RELATED_PRODUCT_CATEGORY('part',$,(#5)) ;
#7=PRODUCT_CATEGORY('part','specification') ;
#29=STYLED_ITEM(' ',(#28),#21) ;
#28=PRESENTATION_STYLE_ASSIGNMENT((#27)) ;
#78=PRESENTATION_STYLE_ASSIGNMENT((#77)) ;
#27=SURFACE_STYLE_USAGE(.BOTH.,#26) ;
#77=SURFACE_STYLE_USAGE(.BOTH.,#76) ;
#26=SURFACE_SIDE_STYLE(' ',(#25)) ;
#76=SURFACE_SIDE_STYLE(' ',(#75)) ;
#25=SURFACE_STYLE_FILL_AREA(#24) ;
#75=SURFACE_STYLE_FILL_AREA(#74) ;
#24=FILL_AREA_STYLE(' ',(#23)) ;
#74=FILL_AREA_STYLE(' ',(#73)) ;
#23=FILL_AREA_STYLE_COLOUR(' ',#22) ;
#73=FILL_AREA_STYLE_COLOUR(' ',#72) ;
#39=VECTOR('Line Direction',#38,1.) ;
#48=VECTOR('Line Direction',#47,1.) ;
#55=VECTOR('Line Direction',#54,1.) ;
#62=VECTOR('Line Direction',#61,1.) ;
#87=VECTOR('Line Direction',#86,1.) ;
#94=VECTOR('Line Direction',#93,1.) ;
#101=VECTOR('Line Direction',#100,1.) ;
#119=VECTOR('Line Direction',#118,1.) ;
#126=VECTOR('Line Direction',#125,1.) ;
#133=VECTOR('Line Direction',#132,1.) ;
#151=VECTOR('Line Direction',#150,1.) ;
#158=VECTOR('Line Direction',#157,1.) ;
#165=VECTOR('Line Direction',#164,1.) ;
#185=VECTOR('Line Direction',#184,1.) ;
#192=VECTOR('Line Direction',#191,1.) ;
#210=VECTOR('Line Direction',#209,1.) ;
#217=VECTOR('Line Direction',#216,1.) ;
#235=VECTOR('Line Direction',#234,1.) ;
#354=VECTOR('Line Direction',#353,1.) ;
#361=VECTOR('Line Direction',#360,1.) ;
#399=VECTOR('Line Direction',#398,1.) ;
#406=VECTOR('Line Direction',#405,1.) ;
#489=VECTOR('Line Direction',#488,1.) ;
#494=VECTOR('Line Direction',#493,1.) ;
#520=VECTOR('Line Direction',#519,1.) ;
#525=VECTOR('Line Direction',#524,1.) ;
#15=UNCERTAINTY_MEASURE_WITH_UNIT(LENGTH_MEASURE(0.005),#12,'distance_accuracy_value','CONFUSED CURVE UNCERTAINTY') ;
#545=SHAPE_REPRESENTATION_RELATIONSHIP(' ',' ',#19,#544) ;
#66=ORIENTED_EDGE('',*,*,#45,.T.) ;
#67=ORIENTED_EDGE('',*,*,#52,.F.) ;
#68=ORIENTED_EDGE('',*,*,#59,.F.) ;
#69=ORIENTED_EDGE('',*,*,#64,.T.) ;
#105=ORIENTED_EDGE('',*,*,#91,.T.) ;
#106=ORIENTED_EDGE('',*,*,#64,.F.) ;
#107=ORIENTED_EDGE('',*,*,#98,.F.) ;
#108=ORIENTED_EDGE('',*,*,#103,.T.) ;
#137=ORIENTED_EDGE('',*,*,#123,.T.) ;
#138=ORIENTED_EDGE('',*,*,#130,.F.) ;
#139=ORIENTED_EDGE('',*,*,#135,.F.) ;
#140=ORIENTED_EDGE('',*,*,#52,.T.) ;
#169=ORIENTED_EDGE('',*,*,#91,.F.) ;
#170=ORIENTED_EDGE('',*,*,#155,.F.) ;
#171=ORIENTED_EDGE('',*,*,#162,.F.) ;
#172=ORIENTED_EDGE('',*,*,#167,.F.) ;
#173=ORIENTED_EDGE('',*,*,#123,.F.) ;
#174=ORIENTED_EDGE('',*,*,#45,.F.) ;
#196=ORIENTED_EDGE('',*,*,#155,.T.) ;
#197=ORIENTED_EDGE('',*,*,#103,.F.) ;
#198=ORIENTED_EDGE('',*,*,#189,.F.) ;
#199=ORIENTED_EDGE('',*,*,#194,.T.) ;
#221=ORIENTED_EDGE('',*,*,#167,.T.) ;
#222=ORIENTED_EDGE('',*,*,#214,.F.) ;
#223=ORIENTED_EDGE('',*,*,#219,.F.) ;
#224=ORIENTED_EDGE('',*,*,#130,.T.) ;
#239=ORIENTED_EDGE('',*,*,#162,.T.) ;
#240=ORIENTED_EDGE('',*,*,#194,.F.) ;
#241=ORIENTED_EDGE('',*,*,#237,.F.) ;
#242=ORIENTED_EDGE('',*,*,#214,.T.) ;
#266=ORIENTED_EDGE('',*,*,#259,.F.) ;
#267=ORIENTED_EDGE('',*,*,#264,.F.) ;
#270=ORIENTED_EDGE('',*,*,#59,.T.) ;
#271=ORIENTED_EDGE('',*,*,#135,.T.) ;
#272=ORIENTED_EDGE('',*,*,#219,.T.) ;
#273=ORIENTED_EDGE('',*,*,#237,.T.) ;
#274=ORIENTED_EDGE('',*,*,#189,.T.) ;
#275=ORIENTED_EDGE('',*,*,#98,.T.) ;
#299=ORIENTED_EDGE('',*,*,#292,.T.) ;
#300=ORIENTED_EDGE('',*,*,#297,.T.) ;
#324=ORIENTED_EDGE('',*,*,#317,.T.) ;
#325=ORIENTED_EDGE('',*,*,#322,.T.) ;
#342=ORIENTED_EDGE('',*,*,#335,.F.) ;
#343=ORIENTED_EDGE('',*,*,#340,.F.) ;
#372=ORIENTED_EDGE('',*,*,#358,.T.) ;
#373=ORIENTED_EDGE('',*,*,#292,.F.) ;
#374=ORIENTED_EDGE('',*,*,#365,.F.) ;
#375=ORIENTED_EDGE('',*,*,#370,.T.) ;
#385=ORIENTED_EDGE('',*,*,#365,.T.) ;
#386=ORIENTED_EDGE('',*,*,#297,.F.) ;
#387=ORIENTED_EDGE('',*,*,#358,.F.) ;
#388=ORIENTED_EDGE('',*,*,#383,.T.) ;
#417=ORIENTED_EDGE('',*,*,#403,.T.) ;
#418=ORIENTED_EDGE('',*,*,#370,.F.) ;
#419=ORIENTED_EDGE('',*,*,#410,.F.) ;
#420=ORIENTED_EDGE('',*,*,#415,.T.) ;
#430=ORIENTED_EDGE('',*,*,#410,.T.) ;
#431=ORIENTED_EDGE('',*,*,#383,.F.) ;
#432=ORIENTED_EDGE('',*,*,#403,.F.) ;
#433=ORIENTED_EDGE('',*,*,#428,.T.) ;
#462=ORIENTED_EDGE('',*,*,#448,.T.) ;
#463=ORIENTED_EDGE('',*,*,#415,.F.) ;
#464=ORIENTED_EDGE('',*,*,#455,.F.) ;
#465=ORIENTED_EDGE('',*,*,#460,.T.) ;
#475=ORIENTED_EDGE('',*,*,#455,.T.) ;
#476=ORIENTED_EDGE('',*,*,#428,.F.) ;
#477=ORIENTED_EDGE('',*,*,#448,.F.) ;
#478=ORIENTED_EDGE('',*,*,#473,.T.) ;
#498=ORIENTED_EDGE('',*,*,#491,.T.) ;
#499=ORIENTED_EDGE('',*,*,#460,.F.) ;
#500=ORIENTED_EDGE('',*,*,#496,.F.) ;
#501=ORIENTED_EDGE('',*,*,#340,.T.) ;
#506=ORIENTED_EDGE('',*,*,#496,.T.) ;
#507=ORIENTED_EDGE('',*,*,#473,.F.) ;
#508=ORIENTED_EDGE('',*,*,#491,.F.) ;
#509=ORIENTED_EDGE('',*,*,#335,.T.) ;
#529=ORIENTED_EDGE('',*,*,#522,.T.) ;
#530=ORIENTED_EDGE('',*,*,#317,.F.) ;
#531=ORIENTED_EDGE('',*,*,#527,.F.) ;
#532=ORIENTED_EDGE('',*,*,#259,.T.) ;
#537=ORIENTED_EDGE('',*,*,#527,.T.) ;
#538=ORIENTED_EDGE('',*,*,#322,.F.) ;
#539=ORIENTED_EDGE('',*,*,#522,.F.) ;
#540=ORIENTED_EDGE('',*,*,#264,.T.) ;
#276=FACE_BOUND('',#269,.T.) ;
#344=FACE_BOUND('',#341,.T.) ;
#31=CLOSED_SHELL('Closed Shell',(#71,#110,#142,#176,#201,#226,#244,#277,#302,#345,#377,#390,#422,#435,#467,#480,#503,#511,#534,#542)) ;
#544=ADVANCED_BREP_SHAPE_REPRESENTATION('NONE',(#21),#16) ;
#71=ADVANCED_FACE('K\X2\00F6\X0\rper.2 ( *SOL7 - wsp *MASTER -  )',(#70),#36,.F.) ;
#110=ADVANCED_FACE('K\X2\00F6\X0\rper.2 ( *SOL7 - wsp *MASTER -  )',(#109),#84,.T.) ;
#142=ADVANCED_FACE('K\X2\00F6\X0\rper.2 ( *SOL7 - wsp *MASTER -  )',(#141),#116,.F.) ;
#176=ADVANCED_FACE('K\X2\00F6\X0\rper.2 ( *SOL7 - wsp *MASTER -  )',(#175),#148,.F.) ;
#201=ADVANCED_FACE('K\X2\00F6\X0\rper.2 ( *SOL7 - wsp *MASTER -  )',(#200),#182,.T.) ;
#226=ADVANCED_FACE('K\X2\00F6\X0\rper.2 ( *SOL7 - wsp *MASTER -  )',(#225),#207,.F.) ;
#244=ADVANCED_FACE('K\X2\00F6\X0\rper.2 ( *SOL7 - wsp *MASTER -  )',(#243),#232,.T.) ;
#277=ADVANCED_FACE('K\X2\00F6\X0\rper.2 ( *SOL7 - wsp *MASTER -  )',(#268,#276),#250,.F.) ;
#302=ADVANCED_FACE('K\X2\00F6\X0\rper.2 ( *SOL7 - wsp *MASTER -  )',(#301),#283,.T.) ;
#345=ADVANCED_FACE('K\X2\00F6\X0\rper.2 ( *SOL7 - wsp *MASTER -  )',(#326,#344),#308,.T.) ;
#377=ADVANCED_FACE('K\X2\00F6\X0\rper.2 ( *SOL7 - wsp *MASTER -  )',(#376),#351,.T.) ;
#390=ADVANCED_FACE('K\X2\00F6\X0\rper.2 ( *SOL7 - wsp *MASTER -  )',(#389),#351,.T.) ;
#422=ADVANCED_FACE('K\X2\00F6\X0\rper.2 ( *SOL7 - wsp *MASTER -  )',(#421),#396,.T.) ;
#435=ADVANCED_FACE('K\X2\00F6\X0\rper.2 ( *SOL7 - wsp *MASTER -  )',(#434),#396,.T.) ;
#467=ADVANCED_FACE('K\X2\00F6\X0\rper.2 ( *SOL7 - wsp *MASTER -  )',(#466),#441,.T.) ;
#480=ADVANCED_FACE('K\X2\00F6\X0\rper.2 ( *SOL7 - wsp *MASTER -  )',(#479),#441,.T.) ;
#503=ADVANCED_FACE('K\X2\00F6\X0\rper.2 ( *SOL7 - wsp *MASTER -  )',(#502),#486,.T.) ;
#511=ADVANCED_FACE('K\X2\00F6\X0\rper.2 ( *SOL7 - wsp *MASTER -  )',(#510),#486,.T.) ;
#534=ADVANCED_FACE('K\X2\00F6\X0\rper.2 ( *SOL7 - wsp *MASTER -  )',(#533),#517,.T.) ;
#542=ADVANCED_FACE('K\X2\00F6\X0\rper.2 ( *SOL7 - wsp *MASTER -  )',(#541),#517,.T.) ;
#4=APPLICATION_PROTOCOL_DEFINITION('international standard','automotive_design',2001,#1) ;
#21=MANIFOLD_SOLID_BREP('K\X2\00F6\X0\rper.2 ( *SOL7 - wsp *MASTER -  )',#31) ;
#254=CIRCLE('generated circle',#253,4.5) ;
#263=CIRCLE('generated circle',#262,4.5) ;
#287=CIRCLE('generated circle',#286,2.4) ;
#296=CIRCLE('generated circle',#295,2.4) ;
#312=CIRCLE('generated circle',#311,4.5) ;
#321=CIRCLE('generated circle',#320,4.5) ;
#330=CIRCLE('generated circle',#329,2.64) ;
#339=CIRCLE('generated circle',#338,2.64) ;
#369=CIRCLE('generated circle',#368,3.) ;
#382=CIRCLE('generated circle',#381,3.) ;
#414=CIRCLE('generated circle',#413,3.) ;
#427=CIRCLE('generated circle',#426,3.) ;
#445=CIRCLE('generated circle',#444,3.16624046591) ;
#452=CIRCLE('generated circle',#451,3.16624046591) ;
#459=CIRCLE('generated circle',#458,2.63999999994) ;
#472=CIRCLE('generated circle',#471,2.63999999994) ;
#22=COLOUR_RGB('Colour',0.823529411765,0.823529411765,1.) ;
#72=COLOUR_RGB('Colour',0.850980392157,0.839215686275,0.858823529412) ;
#351=CONICAL_SURFACE('Cone',#350,2.4,0.540419500271) ;
#79=OVER_RIDING_STYLED_ITEM(' ',(#78),#71,#29) ;
#111=OVER_RIDING_STYLED_ITEM(' ',(#78),#110,#29) ;
#143=OVER_RIDING_STYLED_ITEM(' ',(#78),#142,#29) ;
#177=OVER_RIDING_STYLED_ITEM(' ',(#78),#176,#29) ;
#202=OVER_RIDING_STYLED_ITEM(' ',(#78),#201,#29) ;
#227=OVER_RIDING_STYLED_ITEM(' ',(#78),#226,#29) ;
#245=OVER_RIDING_STYLED_ITEM(' ',(#78),#244,#29) ;
#278=OVER_RIDING_STYLED_ITEM(' ',(#78),#277,#29) ;
#303=OVER_RIDING_STYLED_ITEM(' ',(#78),#302,#29) ;
#346=OVER_RIDING_STYLED_ITEM(' ',(#78),#345,#29) ;
#378=OVER_RIDING_STYLED_ITEM(' ',(#78),#377,#29) ;
#391=OVER_RIDING_STYLED_ITEM(' ',(#78),#390,#29) ;
#423=OVER_RIDING_STYLED_ITEM(' ',(#78),#422,#29) ;
#436=OVER_RIDING_STYLED_ITEM(' ',(#78),#435,#29) ;
#468=OVER_RIDING_STYLED_ITEM(' ',(#78),#467,#29) ;
#481=OVER_RIDING_STYLED_ITEM(' ',(#78),#480,#29) ;
#504=OVER_RIDING_STYLED_ITEM(' ',(#78),#503,#29) ;
#512=OVER_RIDING_STYLED_ITEM(' ',(#78),#511,#29) ;
#535=OVER_RIDING_STYLED_ITEM(' ',(#78),#534,#29) ;
#543=OVER_RIDING_STYLED_ITEM(' ',(#78),#542,#29) ;
#396=CYLINDRICAL_SURFACE('generated cylinder',#395,3.) ;
#486=CYLINDRICAL_SURFACE('generated cylinder',#485,2.64) ;
#517=CYLINDRICAL_SURFACE('generated cylinder',#516,4.5) ;
#45=EDGE_CURVE('',#42,#44,#40,.T.) ;
#52=EDGE_CURVE('',#51,#44,#49,.T.) ;
#59=EDGE_CURVE('',#58,#51,#56,.T.) ;
#64=EDGE_CURVE('',#58,#42,#63,.T.) ;
#91=EDGE_CURVE('',#90,#42,#88,.F.) ;
#98=EDGE_CURVE('',#97,#58,#95,.F.) ;
#103=EDGE_CURVE('',#97,#90,#102,.T.) ;
#123=EDGE_CURVE('',#44,#122,#120,.T.) ;
#130=EDGE_CURVE('',#129,#122,#127,.T.) ;
#135=EDGE_CURVE('',#51,#129,#134,.T.) ;
#155=EDGE_CURVE('',#154,#90,#152,.F.) ;
#162=EDGE_CURVE('',#161,#154,#159,.F.) ;
#167=EDGE_CURVE('',#122,#161,#166,.T.) ;
#189=EDGE_CURVE('',#188,#97,#186,.F.) ;
#194=EDGE_CURVE('',#188,#154,#193,.T.) ;
#214=EDGE_CURVE('',#213,#161,#211,.T.) ;
#219=EDGE_CURVE('',#129,#213,#218,.T.) ;
#237=EDGE_CURVE('',#213,#188,#236,.F.) ;
#259=EDGE_CURVE('',#256,#258,#254,.T.) ;
#264=EDGE_CURVE('',#258,#256,#263,.T.) ;
#292=EDGE_CURVE('',#289,#291,#287,.T.) ;
#297=EDGE_CURVE('',#291,#289,#296,.T.) ;
#317=EDGE_CURVE('',#314,#316,#312,.T.) ;
#322=EDGE_CURVE('',#316,#314,#321,.T.) ;
#335=EDGE_CURVE('',#332,#334,#330,.T.) ;
#340=EDGE_CURVE('',#334,#332,#339,.T.) ;
#358=EDGE_CURVE('',#357,#291,#355,.F.) ;
#365=EDGE_CURVE('',#364,#289,#362,.F.) ;
#370=EDGE_CURVE('',#364,#357,#369,.F.) ;
#383=EDGE_CURVE('',#357,#364,#382,.F.) ;
#403=EDGE_CURVE('',#402,#357,#400,.T.) ;
#410=EDGE_CURVE('',#409,#364,#407,.T.) ;
#415=EDGE_CURVE('',#409,#402,#414,.T.) ;
#428=EDGE_CURVE('',#402,#409,#427,.T.) ;
#448=EDGE_CURVE('',#447,#402,#445,.T.) ;
#455=EDGE_CURVE('',#454,#409,#452,.T.) ;
#460=EDGE_CURVE('',#454,#447,#459,.T.) ;
#473=EDGE_CURVE('',#447,#454,#472,.T.) ;
#491=EDGE_CURVE('',#332,#447,#490,.T.) ;
#496=EDGE_CURVE('',#334,#454,#495,.T.) ;
#522=EDGE_CURVE('',#258,#316,#521,.T.) ;
#527=EDGE_CURVE('',#256,#314,#526,.T.) ;
#65=EDGE_LOOP('',(#66,#67,#68,#69)) ;
#104=EDGE_LOOP('',(#105,#106,#107,#108)) ;
#136=EDGE_LOOP('',(#137,#138,#139,#140)) ;
#168=EDGE_LOOP('',(#169,#170,#171,#172,#173,#174)) ;
#195=EDGE_LOOP('',(#196,#197,#198,#199)) ;
#220=EDGE_LOOP('',(#221,#222,#223,#224)) ;
#238=EDGE_LOOP('',(#239,#240,#241,#242)) ;
#265=EDGE_LOOP('',(#266,#267)) ;
#269=EDGE_LOOP('',(#270,#271,#272,#273,#274,#275)) ;
#298=EDGE_LOOP('',(#299,#300)) ;
#323=EDGE_LOOP('',(#324,#325)) ;
#341=EDGE_LOOP('',(#342,#343)) ;
#371=EDGE_LOOP('',(#372,#373,#374,#375)) ;
#384=EDGE_LOOP('',(#385,#386,#387,#388)) ;
#416=EDGE_LOOP('',(#417,#418,#419,#420)) ;
#429=EDGE_LOOP('',(#430,#431,#432,#433)) ;
#461=EDGE_LOOP('',(#462,#463,#464,#465)) ;
#474=EDGE_LOOP('',(#475,#476,#477,#478)) ;
#497=EDGE_LOOP('',(#498,#499,#500,#501)) ;
#505=EDGE_LOOP('',(#506,#507,#508,#509)) ;
#528=EDGE_LOOP('',(#529,#530,#531,#532)) ;
#536=EDGE_LOOP('',(#537,#538,#539,#540)) ;
#70=FACE_OUTER_BOUND('',#65,.T.) ;
#109=FACE_OUTER_BOUND('',#104,.T.) ;
#141=FACE_OUTER_BOUND('',#136,.T.) ;
#175=FACE_OUTER_BOUND('',#168,.T.) ;
#200=FACE_OUTER_BOUND('',#195,.T.) ;
#225=FACE_OUTER_BOUND('',#220,.T.) ;
#243=FACE_OUTER_BOUND('',#238,.T.) ;
#268=FACE_OUTER_BOUND('',#265,.T.) ;
#301=FACE_OUTER_BOUND('',#298,.T.) ;
#326=FACE_OUTER_BOUND('',#323,.T.) ;
#376=FACE_OUTER_BOUND('',#371,.T.) ;
#389=FACE_OUTER_BOUND('',#384,.T.) ;
#421=FACE_OUTER_BOUND('',#416,.T.) ;
#434=FACE_OUTER_BOUND('',#429,.T.) ;
#466=FACE_OUTER_BOUND('',#461,.T.) ;
#479=FACE_OUTER_BOUND('',#474,.T.) ;
#502=FACE_OUTER_BOUND('',#497,.T.) ;
#510=FACE_OUTER_BOUND('',#505,.T.) ;
#533=FACE_OUTER_BOUND('',#528,.T.) ;
#541=FACE_OUTER_BOUND('',#536,.T.) ;
#40=LINE('Line',#37,#39) ;
#49=LINE('Line',#46,#48) ;
#56=LINE('Line',#53,#55) ;
#63=LINE('Line',#60,#62) ;
#88=LINE('Line',#85,#87) ;
#95=LINE('Line',#92,#94) ;
#102=LINE('Line',#99,#101) ;
#120=LINE('Line',#117,#119) ;
#127=LINE('Line',#124,#126) ;
#134=LINE('Line',#131,#133) ;
#152=LINE('Line',#149,#151) ;
#159=LINE('Line',#156,#158) ;
#166=LINE('Line',#163,#165) ;
#186=LINE('Line',#183,#185) ;
#193=LINE('Line',#190,#192) ;
#211=LINE('Line',#208,#210) ;
#218=LINE('Line',#215,#217) ;
#236=LINE('Line',#233,#235) ;
#355=LINE('Line',#352,#354) ;
#362=LINE('Line',#359,#361) ;
#400=LINE('Line',#397,#399) ;
#407=LINE('Line',#404,#406) ;
#490=LINE('Line',#487,#489) ;
#495=LINE('Line',#492,#494) ;
#521=LINE('Line',#518,#520) ;
#526=LINE('Line',#523,#525) ;
#36=PLANE('',#35) ;
#84=PLANE('',#83) ;
#116=PLANE('',#115) ;
#148=PLANE('',#147) ;
#182=PLANE('',#181) ;
#207=PLANE('',#206) ;
#232=PLANE('',#231) ;
#250=PLANE('',#249) ;
#283=PLANE('',#282) ;
#308=PLANE('',#307) ;
#9=PRODUCT_CATEGORY_RELATIONSHIP(' ',' ',#7,#8) ;
#6=PRODUCT_DEFINITION_FORMATION_WITH_SPECIFIED_SOURCE('',' ',#5,.NOT_KNOWN.) ;
#20=SHAPE_DEFINITION_REPRESENTATION(#11,#19) ;
#441=SPHERICAL_SURFACE('',#440,3.16624046591) ;
#42=VERTEX_POINT('',#41) ;
#44=VERTEX_POINT('',#43) ;
#51=VERTEX_POINT('',#50) ;
#58=VERTEX_POINT('',#57) ;
#90=VERTEX_POINT('',#89) ;
#97=VERTEX_POINT('',#96) ;
#122=VERTEX_POINT('',#121) ;
#129=VERTEX_POINT('',#128) ;
#154=VERTEX_POINT('',#153) ;
#161=VERTEX_POINT('',#160) ;
#188=VERTEX_POINT('',#187) ;
#213=VERTEX_POINT('',#212) ;
#256=VERTEX_POINT('',#255) ;
#258=VERTEX_POINT('',#257) ;
#289=VERTEX_POINT('',#288) ;
#291=VERTEX_POINT('',#290) ;
#314=VERTEX_POINT('',#313) ;
#316=VERTEX_POINT('',#315) ;
#332=VERTEX_POINT('',#331) ;
#334=VERTEX_POINT('',#333) ;
#357=VERTEX_POINT('',#356) ;
#364=VERTEX_POINT('',#363) ;
#402=VERTEX_POINT('',#401) ;
#409=VERTEX_POINT('',#408) ;
#447=VERTEX_POINT('',#446) ;
#454=VERTEX_POINT('',#453) ;
#12=(LENGTH_UNIT()NAMED_UNIT(*)SI_UNIT(.MILLI.,.METRE.)) ;
#13=(NAMED_UNIT(*)PLANE_ANGLE_UNIT()SI_UNIT($,.RADIAN.)) ;
#14=(NAMED_UNIT(*)SI_UNIT($,.STERADIAN.)SOLID_ANGLE_UNIT()) ;
#16=(GEOMETRIC_REPRESENTATION_CONTEXT(3)GLOBAL_UNCERTAINTY_ASSIGNED_CONTEXT((#15))GLOBAL_UNIT_ASSIGNED_CONTEXT((#12,#13,#14))REPRESENTATION_CONTEXT(' ',' ')) ;
ENDSEC;
END-ISO-10303-21;
