ISO-10303-21;
HEADER;
FILE_DESCRIPTION(('CATIA V5R19 STEP'),'2;1');

FILE_NAME ('D1450790_0', '2015-10-27T13:35:31+00:00', ('Weidmueller Interface'), ('Weidmueller'), 'CATIA Version 5 Release 20 SP 5 (IN-10)', 'CATIA V5 STEP AP214', 'none');

FILE_SCHEMA(('AUTOMOTIVE_DESIGN { 1 0 10303 214 1 1 1 1 }'));

ENDSEC;
/* file written by CATIA V5R20 */
DATA;
#5=PRODUCT('CC-15/60 O4MM','','CLIPCARD 15/60 EINZELSCHILD \X2\000A\X0\MIT 4MM BOHRUNG\X2\000A\X0\<Q-CHECKER_SEAL> Q-Checker Version 2.14.8  \X2\000A\X0\CATIA-Version         : Catia V5 R20 SP5 Build Date 01-06-2014.17.15\X2\000A\X0\Model size (in KByte) : 0\X2\000A\X0\Checking date         : 2014-11-10 06:58:15\X2\000A\X0\Checking profile      : ADMIN / Release_2D-3D [CATPart]\X2\000A\X0\Model assessment      : In Ordnung (IO)\X2\000A\X0\Total weight sum      : 0\X2\000A\X0\<CROSS_CHECK_SUM>\X2\000A\X0\  <CHKSUM_DATE> -195693226 </CHKSUM_DATE>\X2\000A\X0\  <CHKSUM_ENTITIES> -378417597 </CHKSUM_ENTITIES>\X2\000A\X0\  <CHKSUM_PROFILE> 1594213346 </CHKSUM_PROFILE>\X2\000A\X0\  <CHKSUM_DIMENSION> -186917087 </CHKSUM_DIMENSION>\X2\000A\X0\  <CHKSUM_PROJINTERSEC> -896974048 </CHKSUM_PROJINTERSEC>\X2\000A\X0\  <CHKSUM_IDENTCRV> -896974048 </CHKSUM_IDENTCRV>\X2\000A\X0\  <CHKSUM_INFINITY> 138018827 </CHKSUM_INFINITY>\X2\000A\X0\</CROSS_CHECK_SUM>\X2\000A\X0\</Q-CHECKER_SEAL> \X2\000A\X0\ \X2\000A\X0\ \X2\000A\X0\ \X2\000A\X0\ \X2\000A\X0\ \X2\000A\X0\',(#2)) ;
#2=PRODUCT_CONTEXT(' ',#1,'mechanical') ;
#1=APPLICATION_CONTEXT('automotive design') ;
#10=PRODUCT_DEFINITION('',' ',#6,#3) ;
#3=PRODUCT_DEFINITION_CONTEXT('part definition',#1,' ') ;
#11=PRODUCT_DEFINITION_SHAPE(' ',' ',#10) ;
#412=MECHANICAL_DESIGN_GEOMETRIC_PRESENTATION_REPRESENTATION(' ',(#92,#166,#196,#265,#294,#318,#342,#361,#390,#409,#30),#17) ;
#20=SHAPE_REPRESENTATION(' ',(#19),#17) ;
#19=AXIS2_PLACEMENT_3D(' ',#18,$,$) ;
#36=AXIS2_PLACEMENT_3D('Cylinder Axis2P3D',#33,#34,#35) ;
#96=AXIS2_PLACEMENT_3D('Plane Axis2P3D',#93,#94,#95) ;
#134=AXIS2_PLACEMENT_3D('Circle Axis2P3D',#132,#133,$) ;
#143=AXIS2_PLACEMENT_3D('Circle Axis2P3D',#141,#142,$) ;
#152=AXIS2_PLACEMENT_3D('Circle Axis2P3D',#150,#151,$) ;
#170=AXIS2_PLACEMENT_3D('Cylinder Axis2P3D',#167,#168,#169) ;
#200=AXIS2_PLACEMENT_3D('Plane Axis2P3D',#197,#198,#199) ;
#242=AXIS2_PLACEMENT_3D('Circle Axis2P3D',#240,#241,$) ;
#251=AXIS2_PLACEMENT_3D('Circle Axis2P3D',#249,#250,$) ;
#269=AXIS2_PLACEMENT_3D('Plane Axis2P3D',#266,#267,#268) ;
#298=AXIS2_PLACEMENT_3D('Plane Axis2P3D',#295,#296,#297) ;
#322=AXIS2_PLACEMENT_3D('Plane Axis2P3D',#319,#320,#321) ;
#346=AXIS2_PLACEMENT_3D('Plane Axis2P3D',#343,#344,#345) ;
#365=AXIS2_PLACEMENT_3D('Cylinder Axis2P3D',#362,#363,#364) ;
#394=AXIS2_PLACEMENT_3D('Cylinder Axis2P3D',#391,#392,#393) ;
#18=CARTESIAN_POINT(' ',(0.,0.,0.)) ;
#33=CARTESIAN_POINT('Axis2P3D Location',(5.,7.5,-0.060000000021)) ;
#39=CARTESIAN_POINT('Control Point',(2.9,7.5,6.9388938859E-018)) ;
#40=CARTESIAN_POINT('Control Point',(2.9,6.84026554275,5.00541117015E-011)) ;
#41=CARTESIAN_POINT('Control Point',(3.15907711553,6.18053108549,1.00108216464E-010)) ;
#42=CARTESIAN_POINT('Control Point',(3.68053108549,5.65907711553,1.5016230929E-010)) ;
#43=CARTESIAN_POINT('Control Point',(5.,5.14092288447,2.50270469749E-010)) ;
#44=CARTESIAN_POINT('Control Point',(6.31946891451,5.65907711553,3.50378566752E-010)) ;
#45=CARTESIAN_POINT('Control Point',(6.84092288447,6.18053108549,4.00432595718E-010)) ;
#46=CARTESIAN_POINT('Control Point',(7.1,6.84026554275,4.50486619687E-010)) ;
#47=CARTESIAN_POINT('Control Point',(7.1,7.5,5.00540643655E-010)) ;
#48=CARTESIAN_POINT('Vertex',(2.9,7.5,5.00540643655E-010)) ;
#50=CARTESIAN_POINT('Vertex',(7.09999999963,7.5,7.44350546144E-032)) ;
#53=CARTESIAN_POINT('Line Origine',(2.9,7.5,-0.0600000005215)) ;
#57=CARTESIAN_POINT('Vertex',(2.90000000037,7.5,1.2)) ;
#61=CARTESIAN_POINT('Control Point',(2.9,7.5,1.2)) ;
#62=CARTESIAN_POINT('Control Point',(2.9,6.84026554275,1.19999999998)) ;
#63=CARTESIAN_POINT('Control Point',(3.15907711553,6.18053108549,1.19999999995)) ;
#64=CARTESIAN_POINT('Control Point',(3.68053108549,5.65907711553,1.19999999993)) ;
#65=CARTESIAN_POINT('Control Point',(5.,5.14092288447,1.19999999988)) ;
#66=CARTESIAN_POINT('Control Point',(6.31946891451,5.65907711553,1.19999999983)) ;
#67=CARTESIAN_POINT('Control Point',(6.84092288447,6.18053108549,1.1999999998)) ;
#68=CARTESIAN_POINT('Control Point',(7.1,6.84026554275,1.19999999978)) ;
#69=CARTESIAN_POINT('Control Point',(7.1,7.5,1.19999999976)) ;
#70=CARTESIAN_POINT('Vertex',(7.1,7.5,1.19999999976)) ;
#73=CARTESIAN_POINT('Line Origine',(7.1,7.5,-0.0600000005215)) ;
#93=CARTESIAN_POINT('Axis2P3D Location',(30.,7.5,0.)) ;
#98=CARTESIAN_POINT('Line Origine',(30.,0.,4.59242549681E-016)) ;
#102=CARTESIAN_POINT('Vertex',(0.,-7.34788079033E-017,7.45058903462E-010)) ;
#104=CARTESIAN_POINT('Vertex',(60.,-7.34788079033E-017,7.45058015283E-010)) ;
#107=CARTESIAN_POINT('Line Origine',(0.,7.5,0.)) ;
#111=CARTESIAN_POINT('Vertex',(0.,15.,7.45058015283E-010)) ;
#114=CARTESIAN_POINT('Line Origine',(30.,15.,-4.59242549681E-016)) ;
#118=CARTESIAN_POINT('Vertex',(60.,15.,7.45057127105E-010)) ;
#121=CARTESIAN_POINT('Line Origine',(60.,7.5,0.)) ;
#132=CARTESIAN_POINT('Axis2P3D Location',(5.,7.5,-2.7192621469E-032)) ;
#141=CARTESIAN_POINT('Axis2P3D Location',(55.,7.5,-2.7192621469E-032)) ;
#145=CARTESIAN_POINT('Vertex',(57.1,7.5,5.00540643655E-010)) ;
#147=CARTESIAN_POINT('Vertex',(52.9000000004,7.5,-5.86875768993E-032)) ;
#150=CARTESIAN_POINT('Axis2P3D Location',(55.,7.5,2.7192621469E-032)) ;
#167=CARTESIAN_POINT('Axis2P3D Location',(5.,7.5,-0.060000000021)) ;
#173=CARTESIAN_POINT('Control Point',(7.1,7.5,1.19999999976)) ;
#174=CARTESIAN_POINT('Control Point',(7.1,8.15973445725,1.19999999978)) ;
#175=CARTESIAN_POINT('Control Point',(6.84092288447,8.81946891451,1.1999999998)) ;
#176=CARTESIAN_POINT('Control Point',(6.31946891451,9.34092288447,1.19999999983)) ;
#177=CARTESIAN_POINT('Control Point',(5.,9.85907711553,1.19999999988)) ;
#178=CARTESIAN_POINT('Control Point',(3.68053108549,9.34092288447,1.19999999993)) ;
#179=CARTESIAN_POINT('Control Point',(3.15907711553,8.81946891451,1.19999999995)) ;
#180=CARTESIAN_POINT('Control Point',(2.9,8.15973445725,1.19999999998)) ;
#181=CARTESIAN_POINT('Control Point',(2.9,7.5,1.2)) ;
#197=CARTESIAN_POINT('Axis2P3D Location',(30.,7.5,1.2)) ;
#202=CARTESIAN_POINT('Line Origine',(60.,7.5,1.2)) ;
#206=CARTESIAN_POINT('Vertex',(60.,0.,1.2)) ;
#208=CARTESIAN_POINT('Vertex',(60.,15.,1.2)) ;
#211=CARTESIAN_POINT('Line Origine',(30.,15.,1.2)) ;
#215=CARTESIAN_POINT('Vertex',(0.,15.,1.2)) ;
#218=CARTESIAN_POINT('Line Origine',(0.,7.5,1.2)) ;
#222=CARTESIAN_POINT('Vertex',(0.,0.,1.2)) ;
#225=CARTESIAN_POINT('Line Origine',(30.,0.,1.2)) ;
#240=CARTESIAN_POINT('Axis2P3D Location',(55.,7.5,1.2)) ;
#244=CARTESIAN_POINT('Vertex',(52.9000000004,7.5,1.2)) ;
#246=CARTESIAN_POINT('Vertex',(57.0999999996,7.5,1.2)) ;
#249=CARTESIAN_POINT('Axis2P3D Location',(55.,7.5,1.2)) ;
#266=CARTESIAN_POINT('Axis2P3D Location',(60.,0.,1.2)) ;
#271=CARTESIAN_POINT('Line Origine',(60.,-3.67394039516E-017,0.600000000373)) ;
#276=CARTESIAN_POINT('Line Origine',(0.,-3.67394039516E-017,0.600000000373)) ;
#295=CARTESIAN_POINT('Axis2P3D Location',(0.,15.,1.2)) ;
#300=CARTESIAN_POINT('Line Origine',(0.,15.,0.600000000373)) ;
#319=CARTESIAN_POINT('Axis2P3D Location',(0.,15.,1.2)) ;
#324=CARTESIAN_POINT('Line Origine',(60.,15.,0.600000000373)) ;
#343=CARTESIAN_POINT('Axis2P3D Location',(60.,0.,1.2)) ;
#362=CARTESIAN_POINT('Axis2P3D Location',(55.,7.5,-0.060000000021)) ;
#367=CARTESIAN_POINT('Line Origine',(57.1,7.5,-0.0600000005215)) ;
#372=CARTESIAN_POINT('Line Origine',(52.9,7.5,-0.0600000005215)) ;
#391=CARTESIAN_POINT('Axis2P3D Location',(55.,7.5,-0.060000000021)) ;
#34=DIRECTION('Axis2P3D Direction',(1.94567007478E-044,6.12323399574E-017,1.)) ;
#35=DIRECTION('Axis2P3D XDirection',(-1.,2.4492935983E-016,-1.49975978266E-032)) ;
#54=DIRECTION('Vector Direction',(0.,6.12323525218E-017,1.)) ;
#74=DIRECTION('Vector Direction',(0.,6.12323525218E-017,1.)) ;
#94=DIRECTION('Axis2P3D Direction',(0.,6.12323399574E-017,1.)) ;
#95=DIRECTION('Axis2P3D XDirection',(-1.,0.,0.)) ;
#99=DIRECTION('Vector Direction',(-1.,0.,0.)) ;
#108=DIRECTION('Vector Direction',(0.,-1.,6.12323399574E-017)) ;
#115=DIRECTION('Vector Direction',(1.,0.,0.)) ;
#122=DIRECTION('Vector Direction',(0.,1.,-6.12323399574E-017)) ;
#133=DIRECTION('Axis2P3D Direction',(0.,6.12323399574E-017,1.)) ;
#142=DIRECTION('Axis2P3D Direction',(0.,6.12323399574E-017,1.)) ;
#151=DIRECTION('Axis2P3D Direction',(0.,6.12323399574E-017,1.)) ;
#168=DIRECTION('Axis2P3D Direction',(1.94567007478E-044,6.12323399574E-017,1.)) ;
#169=DIRECTION('Axis2P3D XDirection',(1.,-1.22464679915E-016,7.49879891331E-033)) ;
#198=DIRECTION('Axis2P3D Direction',(0.,6.12323399574E-017,1.)) ;
#199=DIRECTION('Axis2P3D XDirection',(-1.,0.,0.)) ;
#203=DIRECTION('Vector Direction',(0.,1.,-5.92118946467E-017)) ;
#212=DIRECTION('Vector Direction',(1.,0.,0.)) ;
#219=DIRECTION('Vector Direction',(0.,-1.,5.92118946467E-017)) ;
#226=DIRECTION('Vector Direction',(-1.,0.,0.)) ;
#241=DIRECTION('Axis2P3D Direction',(0.,6.12323399574E-017,1.)) ;
#250=DIRECTION('Axis2P3D Direction',(0.,6.12323399574E-017,1.)) ;
#267=DIRECTION('Axis2P3D Direction',(0.,-1.,6.12323399574E-017)) ;
#268=DIRECTION('Axis2P3D XDirection',(-1.,0.,0.)) ;
#272=DIRECTION('Vector Direction',(0.,-6.12323399574E-017,-1.)) ;
#277=DIRECTION('Vector Direction',(0.,-6.12323399574E-017,-1.)) ;
#296=DIRECTION('Axis2P3D Direction',(1.,0.,0.)) ;
#297=DIRECTION('Axis2P3D XDirection',(0.,-1.,6.12323399574E-017)) ;
#301=DIRECTION('Vector Direction',(0.,0.,-1.)) ;
#320=DIRECTION('Axis2P3D Direction',(0.,1.,-6.12323399574E-017)) ;
#321=DIRECTION('Axis2P3D XDirection',(1.,0.,0.)) ;
#325=DIRECTION('Vector Direction',(0.,0.,-1.)) ;
#344=DIRECTION('Axis2P3D Direction',(-1.,0.,-0.)) ;
#345=DIRECTION('Axis2P3D XDirection',(0.,1.,-6.12323399574E-017)) ;
#363=DIRECTION('Axis2P3D Direction',(0.,6.12323399574E-017,1.)) ;
#364=DIRECTION('Axis2P3D XDirection',(1.,-1.22464679915E-016,7.49879891331E-033)) ;
#368=DIRECTION('Vector Direction',(0.,6.12323525218E-017,1.)) ;
#373=DIRECTION('Vector Direction',(0.,6.12323525218E-017,1.)) ;
#392=DIRECTION('Axis2P3D Direction',(0.,6.12323399574E-017,1.)) ;
#393=DIRECTION('Axis2P3D XDirection',(-1.,0.,0.)) ;
#31=PRESENTATION_LAYER_ASSIGNMENT('1',' ',(#22)) ;
#8=PRODUCT_RELATED_PRODUCT_CATEGORY('part',$,(#5)) ;
#7=PRODUCT_CATEGORY('part','specification') ;
#30=STYLED_ITEM(' ',(#29),#22) ;
#29=PRESENTATION_STYLE_ASSIGNMENT((#28)) ;
#91=PRESENTATION_STYLE_ASSIGNMENT((#90)) ;
#165=PRESENTATION_STYLE_ASSIGNMENT((#164)) ;
#195=PRESENTATION_STYLE_ASSIGNMENT((#194)) ;
#264=PRESENTATION_STYLE_ASSIGNMENT((#263)) ;
#293=PRESENTATION_STYLE_ASSIGNMENT((#292)) ;
#317=PRESENTATION_STYLE_ASSIGNMENT((#316)) ;
#341=PRESENTATION_STYLE_ASSIGNMENT((#340)) ;
#360=PRESENTATION_STYLE_ASSIGNMENT((#359)) ;
#389=PRESENTATION_STYLE_ASSIGNMENT((#388)) ;
#408=PRESENTATION_STYLE_ASSIGNMENT((#407)) ;
#28=SURFACE_STYLE_USAGE(.BOTH.,#27) ;
#90=SURFACE_STYLE_USAGE(.BOTH.,#89) ;
#164=SURFACE_STYLE_USAGE(.BOTH.,#163) ;
#194=SURFACE_STYLE_USAGE(.BOTH.,#193) ;
#263=SURFACE_STYLE_USAGE(.BOTH.,#262) ;
#292=SURFACE_STYLE_USAGE(.BOTH.,#291) ;
#316=SURFACE_STYLE_USAGE(.BOTH.,#315) ;
#340=SURFACE_STYLE_USAGE(.BOTH.,#339) ;
#359=SURFACE_STYLE_USAGE(.BOTH.,#358) ;
#388=SURFACE_STYLE_USAGE(.BOTH.,#387) ;
#407=SURFACE_STYLE_USAGE(.BOTH.,#406) ;
#27=SURFACE_SIDE_STYLE(' ',(#26)) ;
#89=SURFACE_SIDE_STYLE(' ',(#88)) ;
#163=SURFACE_SIDE_STYLE(' ',(#162)) ;
#193=SURFACE_SIDE_STYLE(' ',(#192)) ;
#262=SURFACE_SIDE_STYLE(' ',(#261)) ;
#291=SURFACE_SIDE_STYLE(' ',(#290)) ;
#315=SURFACE_SIDE_STYLE(' ',(#314)) ;
#339=SURFACE_SIDE_STYLE(' ',(#338)) ;
#358=SURFACE_SIDE_STYLE(' ',(#357)) ;
#387=SURFACE_SIDE_STYLE(' ',(#386)) ;
#406=SURFACE_SIDE_STYLE(' ',(#405)) ;
#26=SURFACE_STYLE_FILL_AREA(#25) ;
#88=SURFACE_STYLE_FILL_AREA(#87) ;
#162=SURFACE_STYLE_FILL_AREA(#161) ;
#192=SURFACE_STYLE_FILL_AREA(#191) ;
#261=SURFACE_STYLE_FILL_AREA(#260) ;
#290=SURFACE_STYLE_FILL_AREA(#289) ;
#314=SURFACE_STYLE_FILL_AREA(#313) ;
#338=SURFACE_STYLE_FILL_AREA(#337) ;
#357=SURFACE_STYLE_FILL_AREA(#356) ;
#386=SURFACE_STYLE_FILL_AREA(#385) ;
#405=SURFACE_STYLE_FILL_AREA(#404) ;
#25=FILL_AREA_STYLE(' ',(#24)) ;
#87=FILL_AREA_STYLE(' ',(#86)) ;
#161=FILL_AREA_STYLE(' ',(#160)) ;
#191=FILL_AREA_STYLE(' ',(#190)) ;
#260=FILL_AREA_STYLE(' ',(#259)) ;
#289=FILL_AREA_STYLE(' ',(#288)) ;
#313=FILL_AREA_STYLE(' ',(#312)) ;
#337=FILL_AREA_STYLE(' ',(#336)) ;
#356=FILL_AREA_STYLE(' ',(#355)) ;
#385=FILL_AREA_STYLE(' ',(#384)) ;
#404=FILL_AREA_STYLE(' ',(#403)) ;
#24=FILL_AREA_STYLE_COLOUR(' ',#23) ;
#86=FILL_AREA_STYLE_COLOUR(' ',#85) ;
#160=FILL_AREA_STYLE_COLOUR(' ',#85) ;
#190=FILL_AREA_STYLE_COLOUR(' ',#85) ;
#259=FILL_AREA_STYLE_COLOUR(' ',#85) ;
#288=FILL_AREA_STYLE_COLOUR(' ',#85) ;
#312=FILL_AREA_STYLE_COLOUR(' ',#85) ;
#336=FILL_AREA_STYLE_COLOUR(' ',#85) ;
#355=FILL_AREA_STYLE_COLOUR(' ',#85) ;
#384=FILL_AREA_STYLE_COLOUR(' ',#85) ;
#403=FILL_AREA_STYLE_COLOUR(' ',#85) ;
#55=VECTOR('Line Direction',#54,1.) ;
#75=VECTOR('Line Direction',#74,1.) ;
#100=VECTOR('Line Direction',#99,1.) ;
#109=VECTOR('Line Direction',#108,1.) ;
#116=VECTOR('Line Direction',#115,1.) ;
#123=VECTOR('Line Direction',#122,1.) ;
#204=VECTOR('Line Direction',#203,1.) ;
#213=VECTOR('Line Direction',#212,1.) ;
#220=VECTOR('Line Direction',#219,1.) ;
#227=VECTOR('Line Direction',#226,1.) ;
#273=VECTOR('Line Direction',#272,1.) ;
#278=VECTOR('Line Direction',#277,1.) ;
#302=VECTOR('Line Direction',#301,1.) ;
#326=VECTOR('Line Direction',#325,1.) ;
#369=VECTOR('Line Direction',#368,1.) ;
#374=VECTOR('Line Direction',#373,1.) ;
#16=UNCERTAINTY_MEASURE_WITH_UNIT(LENGTH_MEASURE(0.005),#12,'distance_accuracy_value','CONFUSED CURVE UNCERTAINTY') ;
#411=SHAPE_REPRESENTATION_RELATIONSHIP(' ',' ',#20,#410) ;
#79=ORIENTED_EDGE('',*,*,#52,.F.) ;
#80=ORIENTED_EDGE('',*,*,#59,.F.) ;
#81=ORIENTED_EDGE('',*,*,#72,.T.) ;
#82=ORIENTED_EDGE('',*,*,#77,.T.) ;
#127=ORIENTED_EDGE('',*,*,#106,.F.) ;
#128=ORIENTED_EDGE('',*,*,#113,.F.) ;
#129=ORIENTED_EDGE('',*,*,#120,.F.) ;
#130=ORIENTED_EDGE('',*,*,#125,.F.) ;
#138=ORIENTED_EDGE('',*,*,#52,.T.) ;
#139=ORIENTED_EDGE('',*,*,#136,.T.) ;
#156=ORIENTED_EDGE('',*,*,#149,.T.) ;
#157=ORIENTED_EDGE('',*,*,#154,.T.) ;
#184=ORIENTED_EDGE('',*,*,#136,.F.) ;
#185=ORIENTED_EDGE('',*,*,#77,.F.) ;
#186=ORIENTED_EDGE('',*,*,#182,.T.) ;
#187=ORIENTED_EDGE('',*,*,#59,.T.) ;
#231=ORIENTED_EDGE('',*,*,#210,.T.) ;
#232=ORIENTED_EDGE('',*,*,#217,.T.) ;
#233=ORIENTED_EDGE('',*,*,#224,.T.) ;
#234=ORIENTED_EDGE('',*,*,#229,.T.) ;
#237=ORIENTED_EDGE('',*,*,#182,.F.) ;
#238=ORIENTED_EDGE('',*,*,#72,.F.) ;
#255=ORIENTED_EDGE('',*,*,#248,.F.) ;
#256=ORIENTED_EDGE('',*,*,#253,.F.) ;
#282=ORIENTED_EDGE('',*,*,#106,.T.) ;
#283=ORIENTED_EDGE('',*,*,#275,.F.) ;
#284=ORIENTED_EDGE('',*,*,#229,.F.) ;
#285=ORIENTED_EDGE('',*,*,#280,.T.) ;
#306=ORIENTED_EDGE('',*,*,#113,.T.) ;
#307=ORIENTED_EDGE('',*,*,#280,.F.) ;
#308=ORIENTED_EDGE('',*,*,#224,.F.) ;
#309=ORIENTED_EDGE('',*,*,#304,.T.) ;
#330=ORIENTED_EDGE('',*,*,#120,.T.) ;
#331=ORIENTED_EDGE('',*,*,#304,.F.) ;
#332=ORIENTED_EDGE('',*,*,#217,.F.) ;
#333=ORIENTED_EDGE('',*,*,#328,.T.) ;
#349=ORIENTED_EDGE('',*,*,#125,.T.) ;
#350=ORIENTED_EDGE('',*,*,#328,.F.) ;
#351=ORIENTED_EDGE('',*,*,#210,.F.) ;
#352=ORIENTED_EDGE('',*,*,#275,.T.) ;
#378=ORIENTED_EDGE('',*,*,#149,.F.) ;
#379=ORIENTED_EDGE('',*,*,#371,.F.) ;
#380=ORIENTED_EDGE('',*,*,#253,.T.) ;
#381=ORIENTED_EDGE('',*,*,#376,.T.) ;
#397=ORIENTED_EDGE('',*,*,#154,.F.) ;
#398=ORIENTED_EDGE('',*,*,#376,.F.) ;
#399=ORIENTED_EDGE('',*,*,#248,.T.) ;
#400=ORIENTED_EDGE('',*,*,#371,.T.) ;
#140=FACE_BOUND('',#137,.T.) ;
#158=FACE_BOUND('',#155,.T.) ;
#239=FACE_BOUND('',#236,.T.) ;
#257=FACE_BOUND('',#254,.T.) ;
#32=CLOSED_SHELL('Closed Shell',(#84,#159,#189,#258,#287,#311,#335,#354,#383,#402)) ;
#410=ADVANCED_BREP_SHAPE_REPRESENTATION('NONE',(#22),#17) ;
#84=ADVANCED_FACE('S3D-gedreht',(#83),#37,.F.) ;
#159=ADVANCED_FACE('S3D-gedreht',(#131,#140,#158),#97,.F.) ;
#189=ADVANCED_FACE('S3D-gedreht',(#188),#171,.F.) ;
#258=ADVANCED_FACE('S3D-gedreht',(#235,#239,#257),#201,.T.) ;
#287=ADVANCED_FACE('S3D-gedreht',(#286),#270,.T.) ;
#311=ADVANCED_FACE('S3D-gedreht',(#310),#299,.F.) ;
#335=ADVANCED_FACE('S3D-gedreht',(#334),#323,.T.) ;
#354=ADVANCED_FACE('S3D-gedreht',(#353),#347,.F.) ;
#383=ADVANCED_FACE('S3D-gedreht',(#382),#366,.F.) ;
#402=ADVANCED_FACE('S3D-gedreht',(#401),#395,.F.) ;
#4=APPLICATION_PROTOCOL_DEFINITION('international standard','automotive_design',2001,#1) ;
#38=B_SPLINE_CURVE_WITH_KNOTS('',5,(#39,#40,#41,#42,#43,#44,#45,#46,#47),.UNSPECIFIED.,.F.,.U.,(6,3,6),(-3.29867228627,2.22044604925E-016,3.29867228627),.UNSPECIFIED.) ;
#60=B_SPLINE_CURVE_WITH_KNOTS('',5,(#61,#62,#63,#64,#65,#66,#67,#68,#69),.UNSPECIFIED.,.F.,.U.,(6,3,6),(-3.29867228627,2.22044604925E-016,3.29867228627),.UNSPECIFIED.) ;
#172=B_SPLINE_CURVE_WITH_KNOTS('',5,(#173,#174,#175,#176,#177,#178,#179,#180,#181),.UNSPECIFIED.,.F.,.U.,(6,3,6),(-3.29867228627,2.22044604925E-016,3.29867228627),.UNSPECIFIED.) ;
#22=MANIFOLD_SOLID_BREP('S3D-gedreht',#32) ;
#135=CIRCLE('generated circle',#134,2.09999999963) ;
#144=CIRCLE('generated circle',#143,2.09999999963) ;
#153=CIRCLE('generated circle',#152,2.09999999963) ;
#243=CIRCLE('generated circle',#242,2.09999999963) ;
#252=CIRCLE('generated circle',#251,2.09999999963) ;
#23=COLOUR_RGB('Colour',0.823529411765,0.823529411765,1.) ;
#85=COLOUR_RGB('Colour',0.647058823529,0.647058823529,0.647058823529) ;
#92=OVER_RIDING_STYLED_ITEM(' ',(#91),#84,#30) ;
#166=OVER_RIDING_STYLED_ITEM(' ',(#165),#159,#30) ;
#196=OVER_RIDING_STYLED_ITEM(' ',(#195),#189,#30) ;
#265=OVER_RIDING_STYLED_ITEM(' ',(#264),#258,#30) ;
#294=OVER_RIDING_STYLED_ITEM(' ',(#293),#287,#30) ;
#318=OVER_RIDING_STYLED_ITEM(' ',(#317),#311,#30) ;
#342=OVER_RIDING_STYLED_ITEM(' ',(#341),#335,#30) ;
#361=OVER_RIDING_STYLED_ITEM(' ',(#360),#354,#30) ;
#390=OVER_RIDING_STYLED_ITEM(' ',(#389),#383,#30) ;
#409=OVER_RIDING_STYLED_ITEM(' ',(#408),#402,#30) ;
#37=CYLINDRICAL_SURFACE('generated cylinder',#36,2.1) ;
#171=CYLINDRICAL_SURFACE('generated cylinder',#170,2.1) ;
#366=CYLINDRICAL_SURFACE('generated cylinder',#365,2.1) ;
#395=CYLINDRICAL_SURFACE('generated cylinder',#394,2.1) ;
#52=EDGE_CURVE('',#49,#51,#38,.T.) ;
#59=EDGE_CURVE('',#58,#49,#56,.F.) ;
#72=EDGE_CURVE('',#58,#71,#60,.T.) ;
#77=EDGE_CURVE('',#71,#51,#76,.F.) ;
#106=EDGE_CURVE('',#103,#105,#101,.F.) ;
#113=EDGE_CURVE('',#112,#103,#110,.T.) ;
#120=EDGE_CURVE('',#119,#112,#117,.F.) ;
#125=EDGE_CURVE('',#105,#119,#124,.T.) ;
#136=EDGE_CURVE('',#51,#49,#135,.T.) ;
#149=EDGE_CURVE('',#146,#148,#144,.T.) ;
#154=EDGE_CURVE('',#148,#146,#153,.T.) ;
#182=EDGE_CURVE('',#71,#58,#172,.T.) ;
#210=EDGE_CURVE('',#207,#209,#205,.T.) ;
#217=EDGE_CURVE('',#209,#216,#214,.F.) ;
#224=EDGE_CURVE('',#216,#223,#221,.T.) ;
#229=EDGE_CURVE('',#223,#207,#228,.F.) ;
#248=EDGE_CURVE('',#245,#247,#243,.T.) ;
#253=EDGE_CURVE('',#247,#245,#252,.T.) ;
#275=EDGE_CURVE('',#207,#105,#274,.T.) ;
#280=EDGE_CURVE('',#223,#103,#279,.T.) ;
#304=EDGE_CURVE('',#216,#112,#303,.T.) ;
#328=EDGE_CURVE('',#209,#119,#327,.T.) ;
#371=EDGE_CURVE('',#247,#146,#370,.F.) ;
#376=EDGE_CURVE('',#245,#148,#375,.F.) ;
#78=EDGE_LOOP('',(#79,#80,#81,#82)) ;
#126=EDGE_LOOP('',(#127,#128,#129,#130)) ;
#137=EDGE_LOOP('',(#138,#139)) ;
#155=EDGE_LOOP('',(#156,#157)) ;
#183=EDGE_LOOP('',(#184,#185,#186,#187)) ;
#230=EDGE_LOOP('',(#231,#232,#233,#234)) ;
#236=EDGE_LOOP('',(#237,#238)) ;
#254=EDGE_LOOP('',(#255,#256)) ;
#281=EDGE_LOOP('',(#282,#283,#284,#285)) ;
#305=EDGE_LOOP('',(#306,#307,#308,#309)) ;
#329=EDGE_LOOP('',(#330,#331,#332,#333)) ;
#348=EDGE_LOOP('',(#349,#350,#351,#352)) ;
#377=EDGE_LOOP('',(#378,#379,#380,#381)) ;
#396=EDGE_LOOP('',(#397,#398,#399,#400)) ;
#83=FACE_OUTER_BOUND('',#78,.T.) ;
#131=FACE_OUTER_BOUND('',#126,.T.) ;
#188=FACE_OUTER_BOUND('',#183,.T.) ;
#235=FACE_OUTER_BOUND('',#230,.T.) ;
#286=FACE_OUTER_BOUND('',#281,.T.) ;
#310=FACE_OUTER_BOUND('',#305,.T.) ;
#334=FACE_OUTER_BOUND('',#329,.T.) ;
#353=FACE_OUTER_BOUND('',#348,.T.) ;
#382=FACE_OUTER_BOUND('',#377,.T.) ;
#401=FACE_OUTER_BOUND('',#396,.T.) ;
#56=LINE('Line',#53,#55) ;
#76=LINE('Line',#73,#75) ;
#101=LINE('Line',#98,#100) ;
#110=LINE('Line',#107,#109) ;
#117=LINE('Line',#114,#116) ;
#124=LINE('Line',#121,#123) ;
#205=LINE('Line',#202,#204) ;
#214=LINE('Line',#211,#213) ;
#221=LINE('Line',#218,#220) ;
#228=LINE('Line',#225,#227) ;
#274=LINE('Line',#271,#273) ;
#279=LINE('Line',#276,#278) ;
#303=LINE('Line',#300,#302) ;
#327=LINE('Line',#324,#326) ;
#370=LINE('Line',#367,#369) ;
#375=LINE('Line',#372,#374) ;
#97=PLANE('',#96) ;
#201=PLANE('',#200) ;
#270=PLANE('',#269) ;
#299=PLANE('',#298) ;
#323=PLANE('',#322) ;
#347=PLANE('',#346) ;
#14=PLANE_ANGLE_MEASURE_WITH_UNIT(PLANE_ANGLE_MEASURE(0.0174532925199),#13) ;
#9=PRODUCT_CATEGORY_RELATIONSHIP(' ',' ',#7,#8) ;
#6=PRODUCT_DEFINITION_FORMATION_WITH_SPECIFIED_SOURCE('',' ',#5,.NOT_KNOWN.) ;
#21=SHAPE_DEFINITION_REPRESENTATION(#11,#20) ;
#49=VERTEX_POINT('',#48) ;
#51=VERTEX_POINT('',#50) ;
#58=VERTEX_POINT('',#57) ;
#71=VERTEX_POINT('',#70) ;
#103=VERTEX_POINT('',#102) ;
#105=VERTEX_POINT('',#104) ;
#112=VERTEX_POINT('',#111) ;
#119=VERTEX_POINT('',#118) ;
#146=VERTEX_POINT('',#145) ;
#148=VERTEX_POINT('',#147) ;
#207=VERTEX_POINT('',#206) ;
#209=VERTEX_POINT('',#208) ;
#216=VERTEX_POINT('',#215) ;
#223=VERTEX_POINT('',#222) ;
#245=VERTEX_POINT('',#244) ;
#247=VERTEX_POINT('',#246) ;
#12=(LENGTH_UNIT()NAMED_UNIT(*)SI_UNIT(.MILLI.,.METRE.)) ;
#13=(NAMED_UNIT(*)PLANE_ANGLE_UNIT()SI_UNIT($,.RADIAN.)) ;
#15=(NAMED_UNIT(*)SI_UNIT($,.STERADIAN.)SOLID_ANGLE_UNIT()) ;
#17=(GEOMETRIC_REPRESENTATION_CONTEXT(3)GLOBAL_UNCERTAINTY_ASSIGNED_CONTEXT((#16))GLOBAL_UNIT_ASSIGNED_CONTEXT((#12,#13,#15))REPRESENTATION_CONTEXT(' ',' ')) ;
ENDSEC;
END-ISO-10303-21;
