ISO-10303-21;
HEADER;
FILE_DESCRIPTION(('CATIA V5R24 STEP','CAx-IF Rec.Pracs.--- Model Styling and Organization---1.2---2011-12-15'),'2;1');

FILE_NAME ('D1458804_0_1897030000_1897030000.stp','2017-07-28T06:37:58+00:00',('none'),('Weidmueller'),'CATIA Version 5-6 Release 2014 SP4 HF52','CATIA V5 STEP AP214','none');

FILE_SCHEMA(('AUTOMOTIVE_DESIGN { 1 0 10303 214 1 1 1 1 }'));

ENDSEC;
DATA;
#5=PRODUCT('v5-standard_part','','',(#2)) ;
#2=PRODUCT_CONTEXT(' ',#1,'mechanical') ;
#1=APPLICATION_CONTEXT('automotive design') ;
#10=PRODUCT_DEFINITION('',' ',#6,#3) ;
#3=PRODUCT_DEFINITION_CONTEXT('part definition',#1,' ') ;
#11=PRODUCT_DEFINITION_SHAPE(' ',' ',#10) ;
#459=MECHANICAL_DESIGN_GEOMETRIC_PRESENTATION_REPRESENTATION(' ',(#46),#16) ;
#19=SHAPE_REPRESENTATION(' ',(#18),#16) ;
#18=AXIS2_PLACEMENT_3D(' ',#17,$,$) ;
#24=AXIS2_PLACEMENT_3D('Plane Axis2P3D',#21,#22,#23) ;
#31=AXIS2_PLACEMENT_3D('Plane Axis2P3D',#28,#29,#30) ;
#36=AXIS2_PLACEMENT_3D('Plane Axis2P3D',#33,#34,#35) ;
#52=AXIS2_PLACEMENT_3D('Plane Axis2P3D',#49,#50,#51) ;
#92=AXIS2_PLACEMENT_3D('Plane Axis2P3D',#89,#90,#91) ;
#123=AXIS2_PLACEMENT_3D('Plane Axis2P3D',#120,#121,#122) ;
#154=AXIS2_PLACEMENT_3D('Plane Axis2P3D',#151,#152,#153) ;
#176=AXIS2_PLACEMENT_3D('Plane Axis2P3D',#173,#174,#175) ;
#186=AXIS2_PLACEMENT_3D('Circle Axis2P3D',#184,#185,$) ;
#195=AXIS2_PLACEMENT_3D('Circle Axis2P3D',#193,#194,$) ;
#204=AXIS2_PLACEMENT_3D('Circle Axis2P3D',#202,#203,$) ;
#213=AXIS2_PLACEMENT_3D('Circle Axis2P3D',#211,#212,$) ;
#222=AXIS2_PLACEMENT_3D('Circle Axis2P3D',#220,#221,$) ;
#231=AXIS2_PLACEMENT_3D('Circle Axis2P3D',#229,#230,$) ;
#240=AXIS2_PLACEMENT_3D('Circle Axis2P3D',#238,#239,$) ;
#249=AXIS2_PLACEMENT_3D('Circle Axis2P3D',#247,#248,$) ;
#260=AXIS2_PLACEMENT_3D('Plane Axis2P3D',#257,#258,#259) ;
#270=AXIS2_PLACEMENT_3D('Circle Axis2P3D',#268,#269,$) ;
#279=AXIS2_PLACEMENT_3D('Circle Axis2P3D',#277,#278,$) ;
#288=AXIS2_PLACEMENT_3D('Circle Axis2P3D',#286,#287,$) ;
#297=AXIS2_PLACEMENT_3D('Circle Axis2P3D',#295,#296,$) ;
#306=AXIS2_PLACEMENT_3D('Circle Axis2P3D',#304,#305,$) ;
#315=AXIS2_PLACEMENT_3D('Circle Axis2P3D',#313,#314,$) ;
#324=AXIS2_PLACEMENT_3D('Circle Axis2P3D',#322,#323,$) ;
#333=AXIS2_PLACEMENT_3D('Circle Axis2P3D',#331,#332,$) ;
#344=AXIS2_PLACEMENT_3D('Cylinder Axis2P3D',#341,#342,#343) ;
#373=AXIS2_PLACEMENT_3D('Cylinder Axis2P3D',#370,#371,#372) ;
#402=AXIS2_PLACEMENT_3D('Cylinder Axis2P3D',#399,#400,#401) ;
#431=AXIS2_PLACEMENT_3D('Cylinder Axis2P3D',#428,#429,#430) ;
#17=CARTESIAN_POINT(' ',(0.,0.,0.)) ;
#21=CARTESIAN_POINT('Axis2P3D Location',(0.,0.,0.)) ;
#28=CARTESIAN_POINT('Axis2P3D Location',(0.,0.,0.)) ;
#33=CARTESIAN_POINT('Axis2P3D Location',(0.,0.,0.)) ;
#49=CARTESIAN_POINT('Axis2P3D Location',(0.,0.,0.)) ;
#54=CARTESIAN_POINT('Line Origine',(0.,0.,1.)) ;
#58=CARTESIAN_POINT('Vertex',(0.,0.,0.)) ;
#60=CARTESIAN_POINT('Vertex',(0.,0.,2.)) ;
#63=CARTESIAN_POINT('Line Origine',(20.9,0.,0.)) ;
#67=CARTESIAN_POINT('Vertex',(41.8,0.,0.)) ;
#70=CARTESIAN_POINT('Line Origine',(41.8,0.,1.)) ;
#74=CARTESIAN_POINT('Vertex',(41.8,0.,2.)) ;
#77=CARTESIAN_POINT('Line Origine',(20.9,0.,2.)) ;
#89=CARTESIAN_POINT('Axis2P3D Location',(41.8,0.,0.)) ;
#94=CARTESIAN_POINT('Line Origine',(41.8,3.,0.)) ;
#98=CARTESIAN_POINT('Vertex',(41.8,6.,0.)) ;
#101=CARTESIAN_POINT('Line Origine',(41.8,6.,1.)) ;
#105=CARTESIAN_POINT('Vertex',(41.8,6.,2.)) ;
#108=CARTESIAN_POINT('Line Origine',(41.8,3.,2.)) ;
#120=CARTESIAN_POINT('Axis2P3D Location',(41.8,6.,0.)) ;
#125=CARTESIAN_POINT('Line Origine',(20.9,6.,0.)) ;
#129=CARTESIAN_POINT('Vertex',(3.5527136788E-015,6.,0.)) ;
#132=CARTESIAN_POINT('Line Origine',(0.,6.,1.)) ;
#136=CARTESIAN_POINT('Vertex',(3.5527136788E-015,6.,2.)) ;
#139=CARTESIAN_POINT('Line Origine',(20.9,6.,2.)) ;
#151=CARTESIAN_POINT('Axis2P3D Location',(0.,6.,0.)) ;
#156=CARTESIAN_POINT('Line Origine',(0.,3.,0.)) ;
#161=CARTESIAN_POINT('Line Origine',(0.,3.,2.)) ;
#173=CARTESIAN_POINT('Axis2P3D Location',(0.,0.,2.)) ;
#184=CARTESIAN_POINT('Axis2P3D Location',(4.4,3.,2.)) ;
#188=CARTESIAN_POINT('Vertex',(6.15,3.,2.)) ;
#190=CARTESIAN_POINT('Vertex',(2.65,3.,2.)) ;
#193=CARTESIAN_POINT('Axis2P3D Location',(4.4,3.,2.)) ;
#202=CARTESIAN_POINT('Axis2P3D Location',(15.4,3.,2.)) ;
#206=CARTESIAN_POINT('Vertex',(17.15,3.,2.)) ;
#208=CARTESIAN_POINT('Vertex',(13.65,3.,2.)) ;
#211=CARTESIAN_POINT('Axis2P3D Location',(15.4,3.,2.)) ;
#220=CARTESIAN_POINT('Axis2P3D Location',(26.4,3.,2.)) ;
#224=CARTESIAN_POINT('Vertex',(28.15,3.,2.)) ;
#226=CARTESIAN_POINT('Vertex',(24.65,3.,2.)) ;
#229=CARTESIAN_POINT('Axis2P3D Location',(26.4,3.,2.)) ;
#238=CARTESIAN_POINT('Axis2P3D Location',(37.4,3.,2.)) ;
#242=CARTESIAN_POINT('Vertex',(39.15,3.,2.)) ;
#244=CARTESIAN_POINT('Vertex',(35.65,3.,2.)) ;
#247=CARTESIAN_POINT('Axis2P3D Location',(37.4,3.,2.)) ;
#257=CARTESIAN_POINT('Axis2P3D Location',(0.,0.,0.)) ;
#268=CARTESIAN_POINT('Axis2P3D Location',(4.4,3.,0.)) ;
#272=CARTESIAN_POINT('Vertex',(2.65,3.,0.)) ;
#274=CARTESIAN_POINT('Vertex',(6.15,3.,0.)) ;
#277=CARTESIAN_POINT('Axis2P3D Location',(4.4,3.,0.)) ;
#286=CARTESIAN_POINT('Axis2P3D Location',(15.4,3.,0.)) ;
#290=CARTESIAN_POINT('Vertex',(13.65,3.,0.)) ;
#292=CARTESIAN_POINT('Vertex',(17.15,3.,0.)) ;
#295=CARTESIAN_POINT('Axis2P3D Location',(15.4,3.,0.)) ;
#304=CARTESIAN_POINT('Axis2P3D Location',(26.4,3.,0.)) ;
#308=CARTESIAN_POINT('Vertex',(24.65,3.,0.)) ;
#310=CARTESIAN_POINT('Vertex',(28.15,3.,0.)) ;
#313=CARTESIAN_POINT('Axis2P3D Location',(26.4,3.,0.)) ;
#322=CARTESIAN_POINT('Axis2P3D Location',(37.4,3.,0.)) ;
#326=CARTESIAN_POINT('Vertex',(35.65,3.,0.)) ;
#328=CARTESIAN_POINT('Vertex',(39.15,3.,0.)) ;
#331=CARTESIAN_POINT('Axis2P3D Location',(37.4,3.,0.)) ;
#341=CARTESIAN_POINT('Axis2P3D Location',(4.4,3.,1.)) ;
#346=CARTESIAN_POINT('Line Origine',(6.15,3.,1.)) ;
#351=CARTESIAN_POINT('Line Origine',(2.65,3.,1.)) ;
#370=CARTESIAN_POINT('Axis2P3D Location',(15.4,3.,1.)) ;
#375=CARTESIAN_POINT('Line Origine',(17.15,3.,1.)) ;
#380=CARTESIAN_POINT('Line Origine',(13.65,3.,1.)) ;
#399=CARTESIAN_POINT('Axis2P3D Location',(26.4,3.,1.)) ;
#404=CARTESIAN_POINT('Line Origine',(28.15,3.,1.)) ;
#409=CARTESIAN_POINT('Line Origine',(24.65,3.,1.)) ;
#428=CARTESIAN_POINT('Axis2P3D Location',(37.4,3.,1.)) ;
#433=CARTESIAN_POINT('Line Origine',(39.15,3.,1.)) ;
#438=CARTESIAN_POINT('Line Origine',(35.65,3.,1.)) ;
#22=DIRECTION('Axis2P3D Direction',(0.,0.,1.)) ;
#23=DIRECTION('Axis2P3D XDirection',(1.,0.,0.)) ;
#29=DIRECTION('Axis2P3D Direction',(1.,0.,0.)) ;
#30=DIRECTION('Axis2P3D XDirection',(0.,1.,0.)) ;
#34=DIRECTION('Axis2P3D Direction',(0.,1.,0.)) ;
#35=DIRECTION('Axis2P3D XDirection',(0.,0.,1.)) ;
#50=DIRECTION('Axis2P3D Direction',(0.,-1.,0.)) ;
#51=DIRECTION('Axis2P3D XDirection',(1.,0.,0.)) ;
#55=DIRECTION('Vector Direction',(0.,0.,1.)) ;
#64=DIRECTION('Vector Direction',(1.,0.,0.)) ;
#71=DIRECTION('Vector Direction',(0.,0.,1.)) ;
#78=DIRECTION('Vector Direction',(1.,0.,0.)) ;
#90=DIRECTION('Axis2P3D Direction',(1.,0.,0.)) ;
#91=DIRECTION('Axis2P3D XDirection',(0.,1.,0.)) ;
#95=DIRECTION('Vector Direction',(0.,1.,0.)) ;
#102=DIRECTION('Vector Direction',(0.,0.,1.)) ;
#109=DIRECTION('Vector Direction',(0.,1.,0.)) ;
#121=DIRECTION('Axis2P3D Direction',(0.,1.,-0.)) ;
#122=DIRECTION('Axis2P3D XDirection',(-1.,0.,0.)) ;
#126=DIRECTION('Vector Direction',(-1.,0.,0.)) ;
#133=DIRECTION('Vector Direction',(0.,0.,1.)) ;
#140=DIRECTION('Vector Direction',(-1.,0.,0.)) ;
#152=DIRECTION('Axis2P3D Direction',(-1.,0.,0.)) ;
#153=DIRECTION('Axis2P3D XDirection',(0.,-1.,0.)) ;
#157=DIRECTION('Vector Direction',(0.,-1.,0.)) ;
#162=DIRECTION('Vector Direction',(0.,-1.,0.)) ;
#174=DIRECTION('Axis2P3D Direction',(0.,0.,1.)) ;
#175=DIRECTION('Axis2P3D XDirection',(1.,0.,0.)) ;
#185=DIRECTION('Axis2P3D Direction',(0.,0.,1.)) ;
#194=DIRECTION('Axis2P3D Direction',(0.,0.,1.)) ;
#203=DIRECTION('Axis2P3D Direction',(0.,0.,1.)) ;
#212=DIRECTION('Axis2P3D Direction',(0.,0.,1.)) ;
#221=DIRECTION('Axis2P3D Direction',(0.,0.,1.)) ;
#230=DIRECTION('Axis2P3D Direction',(0.,0.,1.)) ;
#239=DIRECTION('Axis2P3D Direction',(0.,0.,1.)) ;
#248=DIRECTION('Axis2P3D Direction',(0.,0.,1.)) ;
#258=DIRECTION('Axis2P3D Direction',(0.,0.,1.)) ;
#259=DIRECTION('Axis2P3D XDirection',(1.,0.,0.)) ;
#269=DIRECTION('Axis2P3D Direction',(0.,0.,1.)) ;
#278=DIRECTION('Axis2P3D Direction',(0.,0.,1.)) ;
#287=DIRECTION('Axis2P3D Direction',(0.,0.,1.)) ;
#296=DIRECTION('Axis2P3D Direction',(0.,0.,1.)) ;
#305=DIRECTION('Axis2P3D Direction',(0.,0.,1.)) ;
#314=DIRECTION('Axis2P3D Direction',(0.,0.,1.)) ;
#323=DIRECTION('Axis2P3D Direction',(0.,0.,1.)) ;
#332=DIRECTION('Axis2P3D Direction',(0.,0.,1.)) ;
#342=DIRECTION('Axis2P3D Direction',(0.,0.,1.)) ;
#343=DIRECTION('Axis2P3D XDirection',(1.,0.,0.)) ;
#347=DIRECTION('Vector Direction',(0.,0.,1.)) ;
#352=DIRECTION('Vector Direction',(0.,0.,1.)) ;
#371=DIRECTION('Axis2P3D Direction',(0.,0.,1.)) ;
#372=DIRECTION('Axis2P3D XDirection',(1.,0.,0.)) ;
#376=DIRECTION('Vector Direction',(0.,0.,1.)) ;
#381=DIRECTION('Vector Direction',(0.,0.,1.)) ;
#400=DIRECTION('Axis2P3D Direction',(0.,0.,1.)) ;
#401=DIRECTION('Axis2P3D XDirection',(1.,0.,0.)) ;
#405=DIRECTION('Vector Direction',(0.,0.,1.)) ;
#410=DIRECTION('Vector Direction',(0.,0.,1.)) ;
#429=DIRECTION('Axis2P3D Direction',(0.,0.,1.)) ;
#430=DIRECTION('Axis2P3D XDirection',(1.,0.,0.)) ;
#434=DIRECTION('Vector Direction',(0.,0.,1.)) ;
#439=DIRECTION('Vector Direction',(0.,0.,1.)) ;
#47=PRESENTATION_LAYER_ASSIGNMENT('1',' ',(#38)) ;
#8=PRODUCT_RELATED_PRODUCT_CATEGORY('part',$,(#5)) ;
#7=PRODUCT_CATEGORY('part','specification') ;
#46=STYLED_ITEM(' ',(#45),#38) ;
#45=PRESENTATION_STYLE_ASSIGNMENT((#44)) ;
#44=SURFACE_STYLE_USAGE(.BOTH.,#43) ;
#43=SURFACE_SIDE_STYLE(' ',(#42)) ;
#42=SURFACE_STYLE_FILL_AREA(#41) ;
#41=FILL_AREA_STYLE(' ',(#40)) ;
#40=FILL_AREA_STYLE_COLOUR(' ',#39) ;
#56=VECTOR('Line Direction',#55,1.) ;
#65=VECTOR('Line Direction',#64,1.) ;
#72=VECTOR('Line Direction',#71,1.) ;
#79=VECTOR('Line Direction',#78,1.) ;
#96=VECTOR('Line Direction',#95,1.) ;
#103=VECTOR('Line Direction',#102,1.) ;
#110=VECTOR('Line Direction',#109,1.) ;
#127=VECTOR('Line Direction',#126,1.) ;
#134=VECTOR('Line Direction',#133,1.) ;
#141=VECTOR('Line Direction',#140,1.) ;
#158=VECTOR('Line Direction',#157,1.) ;
#163=VECTOR('Line Direction',#162,1.) ;
#348=VECTOR('Line Direction',#347,1.) ;
#353=VECTOR('Line Direction',#352,1.) ;
#377=VECTOR('Line Direction',#376,1.) ;
#382=VECTOR('Line Direction',#381,1.) ;
#406=VECTOR('Line Direction',#405,1.) ;
#411=VECTOR('Line Direction',#410,1.) ;
#435=VECTOR('Line Direction',#434,1.) ;
#440=VECTOR('Line Direction',#439,1.) ;
#15=UNCERTAINTY_MEASURE_WITH_UNIT(LENGTH_MEASURE(0.005),#12,'distance_accuracy_value','CONFUSED CURVE UNCERTAINTY') ;
#458=SHAPE_REPRESENTATION_RELATIONSHIP(' ',' ',#19,#457) ;
#83=ORIENTED_EDGE('',*,*,#62,.F.) ;
#84=ORIENTED_EDGE('',*,*,#69,.T.) ;
#85=ORIENTED_EDGE('',*,*,#76,.T.) ;
#86=ORIENTED_EDGE('',*,*,#81,.F.) ;
#114=ORIENTED_EDGE('',*,*,#76,.F.) ;
#115=ORIENTED_EDGE('',*,*,#100,.T.) ;
#116=ORIENTED_EDGE('',*,*,#107,.T.) ;
#117=ORIENTED_EDGE('',*,*,#112,.F.) ;
#145=ORIENTED_EDGE('',*,*,#107,.F.) ;
#146=ORIENTED_EDGE('',*,*,#131,.T.) ;
#147=ORIENTED_EDGE('',*,*,#138,.T.) ;
#148=ORIENTED_EDGE('',*,*,#143,.F.) ;
#167=ORIENTED_EDGE('',*,*,#138,.F.) ;
#168=ORIENTED_EDGE('',*,*,#160,.T.) ;
#169=ORIENTED_EDGE('',*,*,#62,.T.) ;
#170=ORIENTED_EDGE('',*,*,#165,.F.) ;
#179=ORIENTED_EDGE('',*,*,#81,.T.) ;
#180=ORIENTED_EDGE('',*,*,#112,.T.) ;
#181=ORIENTED_EDGE('',*,*,#143,.T.) ;
#182=ORIENTED_EDGE('',*,*,#165,.T.) ;
#199=ORIENTED_EDGE('',*,*,#192,.F.) ;
#200=ORIENTED_EDGE('',*,*,#197,.F.) ;
#217=ORIENTED_EDGE('',*,*,#210,.F.) ;
#218=ORIENTED_EDGE('',*,*,#215,.F.) ;
#235=ORIENTED_EDGE('',*,*,#228,.F.) ;
#236=ORIENTED_EDGE('',*,*,#233,.F.) ;
#253=ORIENTED_EDGE('',*,*,#246,.F.) ;
#254=ORIENTED_EDGE('',*,*,#251,.F.) ;
#263=ORIENTED_EDGE('',*,*,#160,.F.) ;
#264=ORIENTED_EDGE('',*,*,#131,.F.) ;
#265=ORIENTED_EDGE('',*,*,#100,.F.) ;
#266=ORIENTED_EDGE('',*,*,#69,.F.) ;
#283=ORIENTED_EDGE('',*,*,#276,.T.) ;
#284=ORIENTED_EDGE('',*,*,#281,.T.) ;
#301=ORIENTED_EDGE('',*,*,#294,.T.) ;
#302=ORIENTED_EDGE('',*,*,#299,.T.) ;
#319=ORIENTED_EDGE('',*,*,#312,.T.) ;
#320=ORIENTED_EDGE('',*,*,#317,.T.) ;
#337=ORIENTED_EDGE('',*,*,#330,.T.) ;
#338=ORIENTED_EDGE('',*,*,#335,.T.) ;
#357=ORIENTED_EDGE('',*,*,#350,.F.) ;
#358=ORIENTED_EDGE('',*,*,#192,.T.) ;
#359=ORIENTED_EDGE('',*,*,#355,.T.) ;
#360=ORIENTED_EDGE('',*,*,#281,.F.) ;
#364=ORIENTED_EDGE('',*,*,#355,.F.) ;
#365=ORIENTED_EDGE('',*,*,#197,.T.) ;
#366=ORIENTED_EDGE('',*,*,#350,.T.) ;
#367=ORIENTED_EDGE('',*,*,#276,.F.) ;
#386=ORIENTED_EDGE('',*,*,#379,.F.) ;
#387=ORIENTED_EDGE('',*,*,#210,.T.) ;
#388=ORIENTED_EDGE('',*,*,#384,.T.) ;
#389=ORIENTED_EDGE('',*,*,#299,.F.) ;
#393=ORIENTED_EDGE('',*,*,#384,.F.) ;
#394=ORIENTED_EDGE('',*,*,#215,.T.) ;
#395=ORIENTED_EDGE('',*,*,#379,.T.) ;
#396=ORIENTED_EDGE('',*,*,#294,.F.) ;
#415=ORIENTED_EDGE('',*,*,#408,.F.) ;
#416=ORIENTED_EDGE('',*,*,#228,.T.) ;
#417=ORIENTED_EDGE('',*,*,#413,.T.) ;
#418=ORIENTED_EDGE('',*,*,#317,.F.) ;
#422=ORIENTED_EDGE('',*,*,#413,.F.) ;
#423=ORIENTED_EDGE('',*,*,#233,.T.) ;
#424=ORIENTED_EDGE('',*,*,#408,.T.) ;
#425=ORIENTED_EDGE('',*,*,#312,.F.) ;
#444=ORIENTED_EDGE('',*,*,#437,.F.) ;
#445=ORIENTED_EDGE('',*,*,#246,.T.) ;
#446=ORIENTED_EDGE('',*,*,#442,.T.) ;
#447=ORIENTED_EDGE('',*,*,#335,.F.) ;
#451=ORIENTED_EDGE('',*,*,#442,.F.) ;
#452=ORIENTED_EDGE('',*,*,#251,.T.) ;
#453=ORIENTED_EDGE('',*,*,#437,.T.) ;
#454=ORIENTED_EDGE('',*,*,#330,.F.) ;
#201=FACE_BOUND('',#198,.T.) ;
#219=FACE_BOUND('',#216,.T.) ;
#237=FACE_BOUND('',#234,.T.) ;
#255=FACE_BOUND('',#252,.T.) ;
#285=FACE_BOUND('',#282,.T.) ;
#303=FACE_BOUND('',#300,.T.) ;
#321=FACE_BOUND('',#318,.T.) ;
#339=FACE_BOUND('',#336,.T.) ;
#48=CLOSED_SHELL('Closed Shell',(#88,#119,#150,#172,#256,#340,#362,#369,#391,#398,#420,#427,#449,#456)) ;
#457=ADVANCED_BREP_SHAPE_REPRESENTATION('NONE',(#38),#16) ;
#88=ADVANCED_FACE('V1',(#87),#53,.T.) ;
#119=ADVANCED_FACE('V1',(#118),#93,.T.) ;
#150=ADVANCED_FACE('V1',(#149),#124,.T.) ;
#172=ADVANCED_FACE('V1',(#171),#155,.T.) ;
#256=ADVANCED_FACE('V1',(#183,#201,#219,#237,#255),#177,.T.) ;
#340=ADVANCED_FACE('V1',(#267,#285,#303,#321,#339),#261,.F.) ;
#362=ADVANCED_FACE('V1',(#361),#345,.F.) ;
#369=ADVANCED_FACE('V1',(#368),#345,.F.) ;
#391=ADVANCED_FACE('V1',(#390),#374,.F.) ;
#398=ADVANCED_FACE('V1',(#397),#374,.F.) ;
#420=ADVANCED_FACE('V1',(#419),#403,.F.) ;
#427=ADVANCED_FACE('V1',(#426),#403,.F.) ;
#449=ADVANCED_FACE('V1',(#448),#432,.F.) ;
#456=ADVANCED_FACE('V1',(#455),#432,.F.) ;
#4=APPLICATION_PROTOCOL_DEFINITION('international standard','automotive_design',2001,#1) ;
#38=MANIFOLD_SOLID_BREP('V1',#48) ;
#187=CIRCLE('generated circle',#186,1.75) ;
#196=CIRCLE('generated circle',#195,1.75) ;
#205=CIRCLE('generated circle',#204,1.75) ;
#214=CIRCLE('generated circle',#213,1.75) ;
#223=CIRCLE('generated circle',#222,1.75) ;
#232=CIRCLE('generated circle',#231,1.75) ;
#241=CIRCLE('generated circle',#240,1.75) ;
#250=CIRCLE('generated circle',#249,1.75) ;
#271=CIRCLE('generated circle',#270,1.75) ;
#280=CIRCLE('generated circle',#279,1.75) ;
#289=CIRCLE('generated circle',#288,1.75) ;
#298=CIRCLE('generated circle',#297,1.75) ;
#307=CIRCLE('generated circle',#306,1.75) ;
#316=CIRCLE('generated circle',#315,1.75) ;
#325=CIRCLE('generated circle',#324,1.75) ;
#334=CIRCLE('generated circle',#333,1.75) ;
#39=COLOUR_RGB('Colour',0.823529411765,0.823529411765,1.) ;
#26=CONSTRUCTIVE_GEOMETRY_REPRESENTATION('supplemental geometry',(#25,#32,#37),#16) ;
#27=CONSTRUCTIVE_GEOMETRY_REPRESENTATION_RELATIONSHIP('supplemental geometry','',#19,#26) ;
#345=CYLINDRICAL_SURFACE('generated cylinder',#344,1.75) ;
#374=CYLINDRICAL_SURFACE('generated cylinder',#373,1.75) ;
#403=CYLINDRICAL_SURFACE('generated cylinder',#402,1.75) ;
#432=CYLINDRICAL_SURFACE('generated cylinder',#431,1.75) ;
#62=EDGE_CURVE('',#59,#61,#57,.T.) ;
#69=EDGE_CURVE('',#59,#68,#66,.T.) ;
#76=EDGE_CURVE('',#68,#75,#73,.T.) ;
#81=EDGE_CURVE('',#61,#75,#80,.T.) ;
#100=EDGE_CURVE('',#68,#99,#97,.T.) ;
#107=EDGE_CURVE('',#99,#106,#104,.T.) ;
#112=EDGE_CURVE('',#75,#106,#111,.T.) ;
#131=EDGE_CURVE('',#99,#130,#128,.T.) ;
#138=EDGE_CURVE('',#130,#137,#135,.T.) ;
#143=EDGE_CURVE('',#106,#137,#142,.T.) ;
#160=EDGE_CURVE('',#130,#59,#159,.T.) ;
#165=EDGE_CURVE('',#137,#61,#164,.T.) ;
#192=EDGE_CURVE('',#189,#191,#187,.T.) ;
#197=EDGE_CURVE('',#191,#189,#196,.T.) ;
#210=EDGE_CURVE('',#207,#209,#205,.T.) ;
#215=EDGE_CURVE('',#209,#207,#214,.T.) ;
#228=EDGE_CURVE('',#225,#227,#223,.T.) ;
#233=EDGE_CURVE('',#227,#225,#232,.T.) ;
#246=EDGE_CURVE('',#243,#245,#241,.T.) ;
#251=EDGE_CURVE('',#245,#243,#250,.T.) ;
#276=EDGE_CURVE('',#273,#275,#271,.T.) ;
#281=EDGE_CURVE('',#275,#273,#280,.T.) ;
#294=EDGE_CURVE('',#291,#293,#289,.T.) ;
#299=EDGE_CURVE('',#293,#291,#298,.T.) ;
#312=EDGE_CURVE('',#309,#311,#307,.T.) ;
#317=EDGE_CURVE('',#311,#309,#316,.T.) ;
#330=EDGE_CURVE('',#327,#329,#325,.T.) ;
#335=EDGE_CURVE('',#329,#327,#334,.T.) ;
#350=EDGE_CURVE('',#189,#275,#349,.F.) ;
#355=EDGE_CURVE('',#191,#273,#354,.F.) ;
#379=EDGE_CURVE('',#207,#293,#378,.F.) ;
#384=EDGE_CURVE('',#209,#291,#383,.F.) ;
#408=EDGE_CURVE('',#225,#311,#407,.F.) ;
#413=EDGE_CURVE('',#227,#309,#412,.F.) ;
#437=EDGE_CURVE('',#243,#329,#436,.F.) ;
#442=EDGE_CURVE('',#245,#327,#441,.F.) ;
#82=EDGE_LOOP('',(#83,#84,#85,#86)) ;
#113=EDGE_LOOP('',(#114,#115,#116,#117)) ;
#144=EDGE_LOOP('',(#145,#146,#147,#148)) ;
#166=EDGE_LOOP('',(#167,#168,#169,#170)) ;
#178=EDGE_LOOP('',(#179,#180,#181,#182)) ;
#198=EDGE_LOOP('',(#199,#200)) ;
#216=EDGE_LOOP('',(#217,#218)) ;
#234=EDGE_LOOP('',(#235,#236)) ;
#252=EDGE_LOOP('',(#253,#254)) ;
#262=EDGE_LOOP('',(#263,#264,#265,#266)) ;
#282=EDGE_LOOP('',(#283,#284)) ;
#300=EDGE_LOOP('',(#301,#302)) ;
#318=EDGE_LOOP('',(#319,#320)) ;
#336=EDGE_LOOP('',(#337,#338)) ;
#356=EDGE_LOOP('',(#357,#358,#359,#360)) ;
#363=EDGE_LOOP('',(#364,#365,#366,#367)) ;
#385=EDGE_LOOP('',(#386,#387,#388,#389)) ;
#392=EDGE_LOOP('',(#393,#394,#395,#396)) ;
#414=EDGE_LOOP('',(#415,#416,#417,#418)) ;
#421=EDGE_LOOP('',(#422,#423,#424,#425)) ;
#443=EDGE_LOOP('',(#444,#445,#446,#447)) ;
#450=EDGE_LOOP('',(#451,#452,#453,#454)) ;
#87=FACE_OUTER_BOUND('',#82,.T.) ;
#118=FACE_OUTER_BOUND('',#113,.T.) ;
#149=FACE_OUTER_BOUND('',#144,.T.) ;
#171=FACE_OUTER_BOUND('',#166,.T.) ;
#183=FACE_OUTER_BOUND('',#178,.T.) ;
#267=FACE_OUTER_BOUND('',#262,.T.) ;
#361=FACE_OUTER_BOUND('',#356,.T.) ;
#368=FACE_OUTER_BOUND('',#363,.T.) ;
#390=FACE_OUTER_BOUND('',#385,.T.) ;
#397=FACE_OUTER_BOUND('',#392,.T.) ;
#419=FACE_OUTER_BOUND('',#414,.T.) ;
#426=FACE_OUTER_BOUND('',#421,.T.) ;
#448=FACE_OUTER_BOUND('',#443,.T.) ;
#455=FACE_OUTER_BOUND('',#450,.T.) ;
#57=LINE('Line',#54,#56) ;
#66=LINE('Line',#63,#65) ;
#73=LINE('Line',#70,#72) ;
#80=LINE('Line',#77,#79) ;
#97=LINE('Line',#94,#96) ;
#104=LINE('Line',#101,#103) ;
#111=LINE('Line',#108,#110) ;
#128=LINE('Line',#125,#127) ;
#135=LINE('Line',#132,#134) ;
#142=LINE('Line',#139,#141) ;
#159=LINE('Line',#156,#158) ;
#164=LINE('Line',#161,#163) ;
#349=LINE('Line',#346,#348) ;
#354=LINE('Line',#351,#353) ;
#378=LINE('Line',#375,#377) ;
#383=LINE('Line',#380,#382) ;
#407=LINE('Line',#404,#406) ;
#412=LINE('Line',#409,#411) ;
#436=LINE('Line',#433,#435) ;
#441=LINE('Line',#438,#440) ;
#25=PLANE('Referenz_xy',#24) ;
#32=PLANE('Referenz_yz',#31) ;
#37=PLANE('Referenz_xz',#36) ;
#53=PLANE('',#52) ;
#93=PLANE('',#92) ;
#124=PLANE('',#123) ;
#155=PLANE('',#154) ;
#177=PLANE('',#176) ;
#261=PLANE('',#260) ;
#9=PRODUCT_CATEGORY_RELATIONSHIP(' ',' ',#7,#8) ;
#6=PRODUCT_DEFINITION_FORMATION_WITH_SPECIFIED_SOURCE('',' ',#5,.NOT_KNOWN.) ;
#20=SHAPE_DEFINITION_REPRESENTATION(#11,#19) ;
#59=VERTEX_POINT('',#58) ;
#61=VERTEX_POINT('',#60) ;
#68=VERTEX_POINT('',#67) ;
#75=VERTEX_POINT('',#74) ;
#99=VERTEX_POINT('',#98) ;
#106=VERTEX_POINT('',#105) ;
#130=VERTEX_POINT('',#129) ;
#137=VERTEX_POINT('',#136) ;
#189=VERTEX_POINT('',#188) ;
#191=VERTEX_POINT('',#190) ;
#207=VERTEX_POINT('',#206) ;
#209=VERTEX_POINT('',#208) ;
#225=VERTEX_POINT('',#224) ;
#227=VERTEX_POINT('',#226) ;
#243=VERTEX_POINT('',#242) ;
#245=VERTEX_POINT('',#244) ;
#273=VERTEX_POINT('',#272) ;
#275=VERTEX_POINT('',#274) ;
#291=VERTEX_POINT('',#290) ;
#293=VERTEX_POINT('',#292) ;
#309=VERTEX_POINT('',#308) ;
#311=VERTEX_POINT('',#310) ;
#327=VERTEX_POINT('',#326) ;
#329=VERTEX_POINT('',#328) ;
#12=(LENGTH_UNIT()NAMED_UNIT(*)SI_UNIT(.MILLI.,.METRE.)) ;
#13=(NAMED_UNIT(*)PLANE_ANGLE_UNIT()SI_UNIT($,.RADIAN.)) ;
#14=(NAMED_UNIT(*)SI_UNIT($,.STERADIAN.)SOLID_ANGLE_UNIT()) ;
#16=(GEOMETRIC_REPRESENTATION_CONTEXT(3)GLOBAL_UNCERTAINTY_ASSIGNED_CONTEXT((#15))GLOBAL_UNIT_ASSIGNED_CONTEXT((#12,#13,#14))REPRESENTATION_CONTEXT(' ',' ')) ;
ENDSEC;
END-ISO-10303-21;
