ISO-10303-21;
HEADER;
FILE_DESCRIPTION(('CATIA V5R24 STEP','CAx-IF Rec.Pracs.--- Model Styling and Organization---1.2---2011-12-15'),'2;1');

FILE_NAME ('015922-2_1_1553270000_1553270000.stp','2018-07-20T09:46:36+00:00',('none'),('Weidmueller'),'CATIA Version 5-6 Release 2014 SP4 HF52','CATIA V5 STEP AP214','none');

FILE_SCHEMA(('AUTOMOTIVE_DESIGN { 1 0 10303 214 1 1 1 1 }'));

ENDSEC;
DATA;
#5=PRODUCT('1553270000','','',(#2)) ;
#2=PRODUCT_CONTEXT(' ',#1,'mechanical') ;
#1=APPLICATION_CONTEXT('automotive design') ;
#10=PRODUCT_DEFINITION('',' ',#6,#3) ;
#3=PRODUCT_DEFINITION_CONTEXT('part definition',#1,' ') ;
#11=PRODUCT_DEFINITION_SHAPE(' ',' ',#10) ;
#347=MECHANICAL_DESIGN_GEOMETRIC_PRESENTATION_REPRESENTATION(' ',(#95,#159,#184,#241,#259,#277,#295,#313,#331,#344,#46),#16) ;
#19=SHAPE_REPRESENTATION(' ',(#18),#16) ;
#18=AXIS2_PLACEMENT_3D(' ',#17,$,$) ;
#24=AXIS2_PLACEMENT_3D('Plane Axis2P3D',#21,#22,#23) ;
#31=AXIS2_PLACEMENT_3D('Plane Axis2P3D',#28,#29,#30) ;
#36=AXIS2_PLACEMENT_3D('Plane Axis2P3D',#33,#34,#35) ;
#51=AXIS2_PLACEMENT_3D('Cylinder Axis2P3D',#48,#49,#50) ;
#55=AXIS2_PLACEMENT_3D('Circle Axis2P3D',#53,#54,$) ;
#71=AXIS2_PLACEMENT_3D('Circle Axis2P3D',#69,#70,$) ;
#99=AXIS2_PLACEMENT_3D('Plane Axis2P3D',#96,#97,#98) ;
#124=AXIS2_PLACEMENT_3D('Circle Axis2P3D',#122,#123,$) ;
#163=AXIS2_PLACEMENT_3D('Plane Axis2P3D',#160,#161,#162) ;
#188=AXIS2_PLACEMENT_3D('Plane Axis2P3D',#185,#186,#187) ;
#206=AXIS2_PLACEMENT_3D('Circle Axis2P3D',#204,#205,$) ;
#245=AXIS2_PLACEMENT_3D('Plane Axis2P3D',#242,#243,#244) ;
#263=AXIS2_PLACEMENT_3D('Plane Axis2P3D',#260,#261,#262) ;
#281=AXIS2_PLACEMENT_3D('Plane Axis2P3D',#278,#279,#280) ;
#299=AXIS2_PLACEMENT_3D('Cylinder Axis2P3D',#296,#297,#298) ;
#317=AXIS2_PLACEMENT_3D('Plane Axis2P3D',#314,#315,#316) ;
#335=AXIS2_PLACEMENT_3D('Plane Axis2P3D',#332,#333,#334) ;
#17=CARTESIAN_POINT(' ',(0.,0.,0.)) ;
#21=CARTESIAN_POINT('Axis2P3D Location',(0.,0.,0.)) ;
#28=CARTESIAN_POINT('Axis2P3D Location',(0.,0.,0.)) ;
#33=CARTESIAN_POINT('Axis2P3D Location',(0.,0.,0.)) ;
#48=CARTESIAN_POINT('Axis2P3D Location',(5.99999999567,-1.66259539469E-009,6.00000000433)) ;
#53=CARTESIAN_POINT('Axis2P3D Location',(5.99999999567,9.99999999834,6.00000000433)) ;
#57=CARTESIAN_POINT('Vertex',(-4.33000035827E-009,9.99999999834,6.00000000433)) ;
#59=CARTESIAN_POINT('Vertex',(5.99999999567,9.99999999834,4.33000124644E-009)) ;
#62=CARTESIAN_POINT('Line Origine',(5.99999999567,-1.86264514923E-009,4.33000035827E-009)) ;
#66=CARTESIAN_POINT('Vertex',(5.99999999567,-1.6625946599E-009,4.33000035827E-009)) ;
#69=CARTESIAN_POINT('Axis2P3D Location',(5.99999999567,-1.66259539469E-009,6.00000000433)) ;
#73=CARTESIAN_POINT('Vertex',(-4.33000035827E-009,-1.66259539469E-009,6.00000000433)) ;
#76=CARTESIAN_POINT('Line Origine',(-4.33000035827E-009,-1.86264514923E-009,6.00000000433)) ;
#96=CARTESIAN_POINT('Axis2P3D Location',(5.99999999567,9.99999999834,6.00000000433)) ;
#101=CARTESIAN_POINT('Line Origine',(-4.33000504731E-009,9.99999999834,33.0000000043)) ;
#105=CARTESIAN_POINT('Vertex',(-4.33000973634E-009,9.99999999834,60.0000000043)) ;
#108=CARTESIAN_POINT('Line Origine',(1.49999999567,9.99999999834,60.0000000043)) ;
#112=CARTESIAN_POINT('Vertex',(2.99999999567,9.99999999834,60.0000000043)) ;
#115=CARTESIAN_POINT('Line Origine',(2.99999999567,9.99999999834,33.0000000043)) ;
#119=CARTESIAN_POINT('Vertex',(2.99999999567,9.99999999834,6.00000000433)) ;
#122=CARTESIAN_POINT('Axis2P3D Location',(5.99999999879,9.99999999834,6.00000000745)) ;
#126=CARTESIAN_POINT('Vertex',(5.99999999567,9.99999999834,3.00000000433)) ;
#129=CARTESIAN_POINT('Line Origine',(69.9999999957,9.99999999834,3.00000000433)) ;
#133=CARTESIAN_POINT('Vertex',(133.999999996,9.99999999834,3.00000000433)) ;
#136=CARTESIAN_POINT('Line Origine',(133.999999996,9.99999999834,1.50000000433)) ;
#140=CARTESIAN_POINT('Vertex',(133.999999996,9.99999999834,4.33002256273E-009)) ;
#143=CARTESIAN_POINT('Line Origine',(69.9999999957,9.99999999834,4.3300114605E-009)) ;
#160=CARTESIAN_POINT('Axis2P3D Location',(5.99999999567,-1.66259539469E-009,4.32617275786E-009)) ;
#165=CARTESIAN_POINT('Line Origine',(133.999999996,4.99999999834,4.32620343744E-009)) ;
#169=CARTESIAN_POINT('Vertex',(133.999999996,-1.66259539469E-009,4.32620282512E-009)) ;
#172=CARTESIAN_POINT('Line Origine',(69.9999999957,-1.66259539469E-009,4.32618779149E-009)) ;
#185=CARTESIAN_POINT('Axis2P3D Location',(5.99999999567,-1.66259539469E-009,6.00000000433)) ;
#190=CARTESIAN_POINT('Line Origine',(133.999999996,-1.6625948436E-009,1.50000000433)) ;
#194=CARTESIAN_POINT('Vertex',(133.999999996,-1.6625950273E-009,3.00000000433)) ;
#197=CARTESIAN_POINT('Line Origine',(69.9999999957,-1.6625950273E-009,3.00000000433)) ;
#201=CARTESIAN_POINT('Vertex',(5.99999999567,-1.6625950273E-009,3.00000000433)) ;
#204=CARTESIAN_POINT('Axis2P3D Location',(5.99999999879,-1.66259539469E-009,6.00000000745)) ;
#208=CARTESIAN_POINT('Vertex',(2.99999999567,-1.66259539469E-009,6.00000000433)) ;
#211=CARTESIAN_POINT('Line Origine',(2.99999999567,-1.66259870124E-009,33.0000000043)) ;
#215=CARTESIAN_POINT('Vertex',(2.99999999567,-1.66260200778E-009,60.0000000043)) ;
#218=CARTESIAN_POINT('Line Origine',(1.49999999567,-1.66260200778E-009,60.0000000043)) ;
#222=CARTESIAN_POINT('Vertex',(-4.33000973634E-009,-1.66260200778E-009,60.0000000043)) ;
#225=CARTESIAN_POINT('Line Origine',(-4.33000504731E-009,-1.66259870124E-009,33.0000000043)) ;
#242=CARTESIAN_POINT('Axis2P3D Location',(-4.32620662872E-009,-1.66260250012E-009,60.0000000043)) ;
#247=CARTESIAN_POINT('Line Origine',(-4.32620662872E-009,4.99999999834,60.0000000043)) ;
#260=CARTESIAN_POINT('Axis2P3D Location',(2.99999999567,-1.66260250012E-009,60.0000000043)) ;
#265=CARTESIAN_POINT('Line Origine',(2.99999999567,4.99999999834,60.0000000043)) ;
#278=CARTESIAN_POINT('Axis2P3D Location',(2.99999999567,-1.66259539469E-009,6.00000000433)) ;
#283=CARTESIAN_POINT('Line Origine',(2.99999999567,4.99999999834,6.00000000433)) ;
#296=CARTESIAN_POINT('Axis2P3D Location',(5.99999999567,-1.66259539469E-009,6.00000000433)) ;
#301=CARTESIAN_POINT('Line Origine',(5.99999999567,-1.86264514923E-009,3.00000000433)) ;
#314=CARTESIAN_POINT('Axis2P3D Location',(133.999999996,-1.66259539469E-009,3.00000000433)) ;
#319=CARTESIAN_POINT('Line Origine',(133.999999996,4.99999999834,3.00000000433)) ;
#332=CARTESIAN_POINT('Axis2P3D Location',(133.999999996,-1.66259539469E-009,4.326208285E-009)) ;
#22=DIRECTION('Axis2P3D Direction',(0.,0.,1.)) ;
#23=DIRECTION('Axis2P3D XDirection',(1.,0.,0.)) ;
#29=DIRECTION('Axis2P3D Direction',(1.,0.,0.)) ;
#30=DIRECTION('Axis2P3D XDirection',(0.,1.,0.)) ;
#34=DIRECTION('Axis2P3D Direction',(0.,1.,0.)) ;
#35=DIRECTION('Axis2P3D XDirection',(0.,0.,1.)) ;
#49=DIRECTION('Axis2P3D Direction',(2.12682108262E-032,-1.,-1.22464679915E-016)) ;
#50=DIRECTION('Axis2P3D XDirection',(-1.,0.,-1.73668120808E-016)) ;
#54=DIRECTION('Axis2P3D Direction',(2.12682108262E-032,-1.,-1.22464679915E-016)) ;
#63=DIRECTION('Vector Direction',(0.,-1.,-1.22464705044E-016)) ;
#70=DIRECTION('Axis2P3D Direction',(2.12682108262E-032,-1.,-1.22464679915E-016)) ;
#77=DIRECTION('Vector Direction',(0.,-1.,-1.22464705044E-016)) ;
#97=DIRECTION('Axis2P3D Direction',(2.12682108262E-032,-1.,-1.22464679915E-016)) ;
#98=DIRECTION('Axis2P3D XDirection',(1.,0.,1.73668120808E-016)) ;
#102=DIRECTION('Vector Direction',(1.73668120814E-016,1.31581988104E-016,-1.)) ;
#109=DIRECTION('Vector Direction',(-1.,0.,0.)) ;
#116=DIRECTION('Vector Direction',(-1.72701359386E-016,-1.31581988104E-016,1.)) ;
#123=DIRECTION('Axis2P3D Direction',(2.12682108262E-032,-1.,-1.22464679915E-016)) ;
#130=DIRECTION('Vector Direction',(-1.,0.,-1.73472347598E-016)) ;
#137=DIRECTION('Vector Direction',(0.,0.,1.)) ;
#144=DIRECTION('Vector Direction',(1.,0.,1.73472347598E-016)) ;
#161=DIRECTION('Axis2P3D Direction',(-2.34900460765E-016,-1.22464679915E-016,1.)) ;
#162=DIRECTION('Axis2P3D XDirection',(-1.,0.,-2.34900460765E-016)) ;
#166=DIRECTION('Vector Direction',(0.,1.,1.22464679882E-016)) ;
#173=DIRECTION('Vector Direction',(1.,0.,2.34900460762E-016)) ;
#186=DIRECTION('Axis2P3D Direction',(2.12682108262E-032,-1.,-1.22464679915E-016)) ;
#187=DIRECTION('Axis2P3D XDirection',(1.,0.,1.73668120808E-016)) ;
#191=DIRECTION('Vector Direction',(0.,-1.22464679951E-016,1.)) ;
#198=DIRECTION('Vector Direction',(-1.,0.,-1.73472347598E-016)) ;
#205=DIRECTION('Axis2P3D Direction',(2.12682108262E-032,-1.,-1.22464679915E-016)) ;
#212=DIRECTION('Vector Direction',(-1.72701359386E-016,-1.22464679916E-016,1.)) ;
#219=DIRECTION('Vector Direction',(-1.,0.,0.)) ;
#226=DIRECTION('Vector Direction',(1.73668120814E-016,1.22464679916E-016,-1.)) ;
#243=DIRECTION('Axis2P3D Direction',(1.,-7.85009219003E-032,6.410086725E-016)) ;
#244=DIRECTION('Axis2P3D XDirection',(-6.410086725E-016,-1.22464679915E-016,1.)) ;
#248=DIRECTION('Vector Direction',(0.,1.,0.)) ;
#261=DIRECTION('Axis2P3D Direction',(1.73668120808E-016,1.22464679915E-016,-1.)) ;
#262=DIRECTION('Axis2P3D XDirection',(1.,0.,1.73668120808E-016)) ;
#266=DIRECTION('Vector Direction',(0.,1.,0.)) ;
#279=DIRECTION('Axis2P3D Direction',(-1.,1.43835048697E-032,-1.17450230383E-016)) ;
#280=DIRECTION('Axis2P3D XDirection',(1.17450230383E-016,1.22464679915E-016,-1.)) ;
#284=DIRECTION('Vector Direction',(0.,1.,8.881784197E-017)) ;
#297=DIRECTION('Axis2P3D Direction',(2.12682108262E-032,-1.,-1.22464679915E-016)) ;
#298=DIRECTION('Axis2P3D XDirection',(-1.,0.,-1.73668120808E-016)) ;
#302=DIRECTION('Vector Direction',(0.,-1.,-1.22464705044E-016)) ;
#315=DIRECTION('Axis2P3D Direction',(2.31266361221E-016,1.22464679915E-016,-1.)) ;
#316=DIRECTION('Axis2P3D XDirection',(1.,0.,2.31266361221E-016)) ;
#320=DIRECTION('Vector Direction',(0.,1.,1.33226762955E-016)) ;
#333=DIRECTION('Axis2P3D Direction',(-1.,2.12682108261E-032,-1.73668120808E-016)) ;
#334=DIRECTION('Axis2P3D XDirection',(1.73668120808E-016,1.22464679915E-016,-1.)) ;
#8=PRODUCT_RELATED_PRODUCT_CATEGORY('part',$,(#5)) ;
#7=PRODUCT_CATEGORY('part','specification') ;
#46=STYLED_ITEM(' ',(#45),#38) ;
#45=PRESENTATION_STYLE_ASSIGNMENT((#44)) ;
#94=PRESENTATION_STYLE_ASSIGNMENT((#93)) ;
#44=SURFACE_STYLE_USAGE(.BOTH.,#43) ;
#93=SURFACE_STYLE_USAGE(.BOTH.,#92) ;
#43=SURFACE_SIDE_STYLE(' ',(#42)) ;
#92=SURFACE_SIDE_STYLE(' ',(#91)) ;
#42=SURFACE_STYLE_FILL_AREA(#41) ;
#91=SURFACE_STYLE_FILL_AREA(#90) ;
#41=FILL_AREA_STYLE(' ',(#40)) ;
#90=FILL_AREA_STYLE(' ',(#89)) ;
#40=FILL_AREA_STYLE_COLOUR(' ',#39) ;
#89=FILL_AREA_STYLE_COLOUR(' ',#88) ;
#64=VECTOR('Line Direction',#63,1.) ;
#78=VECTOR('Line Direction',#77,1.) ;
#103=VECTOR('Line Direction',#102,1.) ;
#110=VECTOR('Line Direction',#109,1.) ;
#117=VECTOR('Line Direction',#116,1.) ;
#131=VECTOR('Line Direction',#130,1.) ;
#138=VECTOR('Line Direction',#137,1.) ;
#145=VECTOR('Line Direction',#144,1.) ;
#167=VECTOR('Line Direction',#166,1.) ;
#174=VECTOR('Line Direction',#173,1.) ;
#192=VECTOR('Line Direction',#191,1.) ;
#199=VECTOR('Line Direction',#198,1.) ;
#213=VECTOR('Line Direction',#212,1.) ;
#220=VECTOR('Line Direction',#219,1.) ;
#227=VECTOR('Line Direction',#226,1.) ;
#249=VECTOR('Line Direction',#248,1.) ;
#267=VECTOR('Line Direction',#266,1.) ;
#285=VECTOR('Line Direction',#284,1.) ;
#303=VECTOR('Line Direction',#302,1.) ;
#321=VECTOR('Line Direction',#320,1.) ;
#15=UNCERTAINTY_MEASURE_WITH_UNIT(LENGTH_MEASURE(0.005),#12,'distance_accuracy_value','CONFUSED CURVE UNCERTAINTY') ;
#346=SHAPE_REPRESENTATION_RELATIONSHIP(' ',' ',#19,#345) ;
#82=ORIENTED_EDGE('',*,*,#61,.T.) ;
#83=ORIENTED_EDGE('',*,*,#68,.F.) ;
#84=ORIENTED_EDGE('',*,*,#75,.F.) ;
#85=ORIENTED_EDGE('',*,*,#80,.T.) ;
#149=ORIENTED_EDGE('',*,*,#61,.F.) ;
#150=ORIENTED_EDGE('',*,*,#107,.F.) ;
#151=ORIENTED_EDGE('',*,*,#114,.F.) ;
#152=ORIENTED_EDGE('',*,*,#121,.F.) ;
#153=ORIENTED_EDGE('',*,*,#128,.T.) ;
#154=ORIENTED_EDGE('',*,*,#135,.F.) ;
#155=ORIENTED_EDGE('',*,*,#142,.F.) ;
#156=ORIENTED_EDGE('',*,*,#147,.F.) ;
#178=ORIENTED_EDGE('',*,*,#147,.T.) ;
#179=ORIENTED_EDGE('',*,*,#171,.F.) ;
#180=ORIENTED_EDGE('',*,*,#176,.F.) ;
#181=ORIENTED_EDGE('',*,*,#68,.T.) ;
#231=ORIENTED_EDGE('',*,*,#75,.T.) ;
#232=ORIENTED_EDGE('',*,*,#176,.T.) ;
#233=ORIENTED_EDGE('',*,*,#196,.T.) ;
#234=ORIENTED_EDGE('',*,*,#203,.T.) ;
#235=ORIENTED_EDGE('',*,*,#210,.F.) ;
#236=ORIENTED_EDGE('',*,*,#217,.T.) ;
#237=ORIENTED_EDGE('',*,*,#224,.T.) ;
#238=ORIENTED_EDGE('',*,*,#229,.T.) ;
#253=ORIENTED_EDGE('',*,*,#107,.T.) ;
#254=ORIENTED_EDGE('',*,*,#80,.F.) ;
#255=ORIENTED_EDGE('',*,*,#229,.F.) ;
#256=ORIENTED_EDGE('',*,*,#251,.T.) ;
#271=ORIENTED_EDGE('',*,*,#114,.T.) ;
#272=ORIENTED_EDGE('',*,*,#251,.F.) ;
#273=ORIENTED_EDGE('',*,*,#224,.F.) ;
#274=ORIENTED_EDGE('',*,*,#269,.T.) ;
#289=ORIENTED_EDGE('',*,*,#121,.T.) ;
#290=ORIENTED_EDGE('',*,*,#269,.F.) ;
#291=ORIENTED_EDGE('',*,*,#217,.F.) ;
#292=ORIENTED_EDGE('',*,*,#287,.T.) ;
#307=ORIENTED_EDGE('',*,*,#128,.F.) ;
#308=ORIENTED_EDGE('',*,*,#287,.F.) ;
#309=ORIENTED_EDGE('',*,*,#210,.T.) ;
#310=ORIENTED_EDGE('',*,*,#305,.T.) ;
#325=ORIENTED_EDGE('',*,*,#135,.T.) ;
#326=ORIENTED_EDGE('',*,*,#305,.F.) ;
#327=ORIENTED_EDGE('',*,*,#203,.F.) ;
#328=ORIENTED_EDGE('',*,*,#323,.T.) ;
#338=ORIENTED_EDGE('',*,*,#142,.T.) ;
#339=ORIENTED_EDGE('',*,*,#323,.F.) ;
#340=ORIENTED_EDGE('',*,*,#196,.F.) ;
#341=ORIENTED_EDGE('',*,*,#171,.T.) ;
#47=CLOSED_SHELL('Closed Shell',(#87,#158,#183,#240,#258,#276,#294,#312,#330,#343)) ;
#345=ADVANCED_BREP_SHAPE_REPRESENTATION('NONE',(#38),#16) ;
#87=ADVANCED_FACE('_SMSE WSH 90/60 MT 1553270000',(#86),#52,.T.) ;
#158=ADVANCED_FACE('_SMSE WSH 90/60 MT 1553270000',(#157),#100,.F.) ;
#183=ADVANCED_FACE('_SMSE WSH 90/60 MT 1553270000',(#182),#164,.F.) ;
#240=ADVANCED_FACE('_SMSE WSH 90/60 MT 1553270000',(#239),#189,.T.) ;
#258=ADVANCED_FACE('_SMSE WSH 90/60 MT 1553270000',(#257),#246,.F.) ;
#276=ADVANCED_FACE('_SMSE WSH 90/60 MT 1553270000',(#275),#264,.F.) ;
#294=ADVANCED_FACE('_SMSE WSH 90/60 MT 1553270000',(#293),#282,.F.) ;
#312=ADVANCED_FACE('_SMSE WSH 90/60 MT 1553270000',(#311),#300,.F.) ;
#330=ADVANCED_FACE('_SMSE WSH 90/60 MT 1553270000',(#329),#318,.F.) ;
#343=ADVANCED_FACE('_SMSE WSH 90/60 MT 1553270000',(#342),#336,.F.) ;
#4=APPLICATION_PROTOCOL_DEFINITION('international standard','automotive_design',2001,#1) ;
#38=MANIFOLD_SOLID_BREP('_SMSE WSH 90/60 MT 1553270000',#47) ;
#56=CIRCLE('generated circle',#55,6.) ;
#72=CIRCLE('generated circle',#71,6.) ;
#125=CIRCLE('generated circle',#124,3.00000000312) ;
#207=CIRCLE('generated circle',#206,3.00000000312) ;
#39=COLOUR_RGB('Colour',0.823529411765,0.823529411765,1.) ;
#88=COLOUR_RGB('Colour',0.690196078431,0.690196078431,0.690196078431) ;
#26=CONSTRUCTIVE_GEOMETRY_REPRESENTATION('supplemental geometry',(#25,#32,#37),#16) ;
#27=CONSTRUCTIVE_GEOMETRY_REPRESENTATION_RELATIONSHIP('supplemental geometry','',#19,#26) ;
#95=OVER_RIDING_STYLED_ITEM(' ',(#94),#87,#46) ;
#159=OVER_RIDING_STYLED_ITEM(' ',(#94),#158,#46) ;
#184=OVER_RIDING_STYLED_ITEM(' ',(#94),#183,#46) ;
#241=OVER_RIDING_STYLED_ITEM(' ',(#94),#240,#46) ;
#259=OVER_RIDING_STYLED_ITEM(' ',(#94),#258,#46) ;
#277=OVER_RIDING_STYLED_ITEM(' ',(#94),#276,#46) ;
#295=OVER_RIDING_STYLED_ITEM(' ',(#94),#294,#46) ;
#313=OVER_RIDING_STYLED_ITEM(' ',(#94),#312,#46) ;
#331=OVER_RIDING_STYLED_ITEM(' ',(#94),#330,#46) ;
#344=OVER_RIDING_STYLED_ITEM(' ',(#94),#343,#46) ;
#52=CYLINDRICAL_SURFACE('generated cylinder',#51,6.) ;
#300=CYLINDRICAL_SURFACE('generated cylinder',#299,3.) ;
#61=EDGE_CURVE('',#58,#60,#56,.T.) ;
#68=EDGE_CURVE('',#67,#60,#65,.F.) ;
#75=EDGE_CURVE('',#74,#67,#72,.T.) ;
#80=EDGE_CURVE('',#74,#58,#79,.F.) ;
#107=EDGE_CURVE('',#106,#58,#104,.T.) ;
#114=EDGE_CURVE('',#113,#106,#111,.T.) ;
#121=EDGE_CURVE('',#120,#113,#118,.T.) ;
#128=EDGE_CURVE('',#120,#127,#125,.T.) ;
#135=EDGE_CURVE('',#134,#127,#132,.T.) ;
#142=EDGE_CURVE('',#141,#134,#139,.T.) ;
#147=EDGE_CURVE('',#60,#141,#146,.T.) ;
#171=EDGE_CURVE('',#170,#141,#168,.T.) ;
#176=EDGE_CURVE('',#67,#170,#175,.T.) ;
#196=EDGE_CURVE('',#170,#195,#193,.T.) ;
#203=EDGE_CURVE('',#195,#202,#200,.T.) ;
#210=EDGE_CURVE('',#209,#202,#207,.T.) ;
#217=EDGE_CURVE('',#209,#216,#214,.T.) ;
#224=EDGE_CURVE('',#216,#223,#221,.T.) ;
#229=EDGE_CURVE('',#223,#74,#228,.T.) ;
#251=EDGE_CURVE('',#223,#106,#250,.T.) ;
#269=EDGE_CURVE('',#216,#113,#268,.T.) ;
#287=EDGE_CURVE('',#209,#120,#286,.T.) ;
#305=EDGE_CURVE('',#202,#127,#304,.F.) ;
#323=EDGE_CURVE('',#195,#134,#322,.T.) ;
#81=EDGE_LOOP('',(#82,#83,#84,#85)) ;
#148=EDGE_LOOP('',(#149,#150,#151,#152,#153,#154,#155,#156)) ;
#177=EDGE_LOOP('',(#178,#179,#180,#181)) ;
#230=EDGE_LOOP('',(#231,#232,#233,#234,#235,#236,#237,#238)) ;
#252=EDGE_LOOP('',(#253,#254,#255,#256)) ;
#270=EDGE_LOOP('',(#271,#272,#273,#274)) ;
#288=EDGE_LOOP('',(#289,#290,#291,#292)) ;
#306=EDGE_LOOP('',(#307,#308,#309,#310)) ;
#324=EDGE_LOOP('',(#325,#326,#327,#328)) ;
#337=EDGE_LOOP('',(#338,#339,#340,#341)) ;
#86=FACE_OUTER_BOUND('',#81,.T.) ;
#157=FACE_OUTER_BOUND('',#148,.T.) ;
#182=FACE_OUTER_BOUND('',#177,.T.) ;
#239=FACE_OUTER_BOUND('',#230,.T.) ;
#257=FACE_OUTER_BOUND('',#252,.T.) ;
#275=FACE_OUTER_BOUND('',#270,.T.) ;
#293=FACE_OUTER_BOUND('',#288,.T.) ;
#311=FACE_OUTER_BOUND('',#306,.T.) ;
#329=FACE_OUTER_BOUND('',#324,.T.) ;
#342=FACE_OUTER_BOUND('',#337,.T.) ;
#65=LINE('Line',#62,#64) ;
#79=LINE('Line',#76,#78) ;
#104=LINE('Line',#101,#103) ;
#111=LINE('Line',#108,#110) ;
#118=LINE('Line',#115,#117) ;
#132=LINE('Line',#129,#131) ;
#139=LINE('Line',#136,#138) ;
#146=LINE('Line',#143,#145) ;
#168=LINE('Line',#165,#167) ;
#175=LINE('Line',#172,#174) ;
#193=LINE('Line',#190,#192) ;
#200=LINE('Line',#197,#199) ;
#214=LINE('Line',#211,#213) ;
#221=LINE('Line',#218,#220) ;
#228=LINE('Line',#225,#227) ;
#250=LINE('Line',#247,#249) ;
#268=LINE('Line',#265,#267) ;
#286=LINE('Line',#283,#285) ;
#304=LINE('Line',#301,#303) ;
#322=LINE('Line',#319,#321) ;
#25=PLANE('Referenz_xy',#24) ;
#32=PLANE('Referenz_yz',#31) ;
#37=PLANE('Referenz_zx',#36) ;
#100=PLANE('',#99) ;
#164=PLANE('',#163) ;
#189=PLANE('',#188) ;
#246=PLANE('',#245) ;
#264=PLANE('',#263) ;
#282=PLANE('',#281) ;
#318=PLANE('',#317) ;
#336=PLANE('',#335) ;
#9=PRODUCT_CATEGORY_RELATIONSHIP(' ',' ',#7,#8) ;
#6=PRODUCT_DEFINITION_FORMATION_WITH_SPECIFIED_SOURCE('',' ',#5,.NOT_KNOWN.) ;
#20=SHAPE_DEFINITION_REPRESENTATION(#11,#19) ;
#58=VERTEX_POINT('',#57) ;
#60=VERTEX_POINT('',#59) ;
#67=VERTEX_POINT('',#66) ;
#74=VERTEX_POINT('',#73) ;
#106=VERTEX_POINT('',#105) ;
#113=VERTEX_POINT('',#112) ;
#120=VERTEX_POINT('',#119) ;
#127=VERTEX_POINT('',#126) ;
#134=VERTEX_POINT('',#133) ;
#141=VERTEX_POINT('',#140) ;
#170=VERTEX_POINT('',#169) ;
#195=VERTEX_POINT('',#194) ;
#202=VERTEX_POINT('',#201) ;
#209=VERTEX_POINT('',#208) ;
#216=VERTEX_POINT('',#215) ;
#223=VERTEX_POINT('',#222) ;
#12=(LENGTH_UNIT()NAMED_UNIT(*)SI_UNIT(.MILLI.,.METRE.)) ;
#13=(NAMED_UNIT(*)PLANE_ANGLE_UNIT()SI_UNIT($,.RADIAN.)) ;
#14=(NAMED_UNIT(*)SI_UNIT($,.STERADIAN.)SOLID_ANGLE_UNIT()) ;
#16=(GEOMETRIC_REPRESENTATION_CONTEXT(3)GLOBAL_UNCERTAINTY_ASSIGNED_CONTEXT((#15))GLOBAL_UNIT_ASSIGNED_CONTEXT((#12,#13,#14))REPRESENTATION_CONTEXT(' ',' ')) ;
ENDSEC;
END-ISO-10303-21;
