ISO-10303-21;
HEADER;
FILE_DESCRIPTION(('CATIA V5R24 STEP','CAx-IF Rec.Pracs.--- Model Styling and Organization---1.2---2011-12-15'),'2;1');

FILE_NAME ('D1456436_0_1798650000_1798650000.stp','2015-12-03T14:42:59+00:00',('none'),('Weidmueller'),'CATIA Version 5-6 Release 2014 SP4','CATIA V5 STEP AP214','none');

FILE_SCHEMA(('AUTOMOTIVE_DESIGN { 1 0 10303 214 1 1 1 1 }'));

ENDSEC;
DATA;
#5=PRODUCT('TM 200/15 V0','','<Q-CHECKER_SEAL> Q-Checker Version 2.14.8  \X2\000A\X0\CATIA-Version         : Catia V5 R20 SP5 Build Date 01-06-2014.17.15\X2\000A\X0\Model size (in KByte) : 0\X2\000A\X0\Checking date         : 2014-06-05 08:49:55\X2\000A\X0\Checking profile      : ADMIN / Release_2D-3D [CATPart]\X2\000A\X0\Model assessment      : In Ordnung (IO)\X2\000A\X0\Total weight sum      : 0\X2\000A\X0\<CROSS_CHECK_SUM>\X2\000A\X0\  <CHKSUM_DATE> 1233197985 </CHKSUM_DATE>\X2\000A\X0\  <CHKSUM_ENTITIES> -1473968788 </CHKSUM_ENTITIES>\X2\000A\X0\  <CHKSUM_PROFILE> 1594213346 </CHKSUM_PROFILE>\X2\000A\X0\  <CHKSUM_DIMENSION> -186917087 </CHKSUM_DIMENSION>\X2\000A\X0\  <CHKSUM_PROJINTERSEC> -896974048 </CHKSUM_PROJINTERSEC>\X2\000A\X0\  <CHKSUM_IDENTCRV> -896974048 </CHKSUM_IDENTCRV>\X2\000A\X0\  <CHKSUM_INFINITY> 138018827 </CHKSUM_INFINITY>\X2\000A\X0\</CROSS_CHECK_SUM>\X2\000A\X0\</Q-CHECKER_SEAL> \X2\000A\X0\ \X2\000A\X0\ \X2\000A\X0\ \X2\000A\X0\ \X2\000A\X0\ \X2\000A\X0\ \X2\000A\X0\ \X2\000A\X0\',(#2)) ;
#2=PRODUCT_CONTEXT(' ',#1,'mechanical') ;
#1=APPLICATION_CONTEXT('automotive design') ;
#10=PRODUCT_DEFINITION('52983',' ',#6,#3) ;
#3=PRODUCT_DEFINITION_CONTEXT('part definition',#1,' ') ;
#11=PRODUCT_DEFINITION_SHAPE(' ',' ',#10) ;
#520=MECHANICAL_DESIGN_GEOMETRIC_PRESENTATION_REPRESENTATION(' ',(#29),#16) ;
#19=SHAPE_REPRESENTATION(' ',(#18),#16) ;
#18=AXIS2_PLACEMENT_3D(' ',#17,$,$) ;
#35=AXIS2_PLACEMENT_3D('Cylinder Axis2P3D',#32,#33,#34) ;
#48=AXIS2_PLACEMENT_3D('Circle Axis2P3D',#46,#47,$) ;
#62=AXIS2_PLACEMENT_3D('Circle Axis2P3D',#60,#61,$) ;
#75=AXIS2_PLACEMENT_3D('Plane Axis2P3D',#72,#73,#74) ;
#106=AXIS2_PLACEMENT_3D('Cylinder Axis2P3D',#103,#104,#105) ;
#110=AXIS2_PLACEMENT_3D('Circle Axis2P3D',#108,#109,$) ;
#124=AXIS2_PLACEMENT_3D('Circle Axis2P3D',#122,#123,$) ;
#137=AXIS2_PLACEMENT_3D('Plane Axis2P3D',#134,#135,#136) ;
#168=AXIS2_PLACEMENT_3D('Cylinder Axis2P3D',#165,#166,#167) ;
#172=AXIS2_PLACEMENT_3D('Circle Axis2P3D',#170,#171,$) ;
#186=AXIS2_PLACEMENT_3D('Circle Axis2P3D',#184,#185,$) ;
#199=AXIS2_PLACEMENT_3D('Plane Axis2P3D',#196,#197,#198) ;
#221=AXIS2_PLACEMENT_3D('Plane Axis2P3D',#218,#219,#220) ;
#261=AXIS2_PLACEMENT_3D('Cylinder Axis2P3D',#258,#259,#260) ;
#265=AXIS2_PLACEMENT_3D('Circle Axis2P3D',#263,#264,$) ;
#270=AXIS2_PLACEMENT_3D('Circle Axis2P3D',#268,#269,$) ;
#283=AXIS2_PLACEMENT_3D('Plane Axis2P3D',#280,#281,#282) ;
#323=AXIS2_PLACEMENT_3D('Plane Axis2P3D',#320,#321,#322) ;
#354=AXIS2_PLACEMENT_3D('Cylinder Axis2P3D',#351,#352,#353) ;
#358=AXIS2_PLACEMENT_3D('Circle Axis2P3D',#356,#357,$) ;
#365=AXIS2_PLACEMENT_3D('Circle Axis2P3D',#363,#364,$) ;
#385=AXIS2_PLACEMENT_3D('Plane Axis2P3D',#382,#383,#384) ;
#416=AXIS2_PLACEMENT_3D('Cylinder Axis2P3D',#413,#414,#415) ;
#420=AXIS2_PLACEMENT_3D('Circle Axis2P3D',#418,#419,$) ;
#427=AXIS2_PLACEMENT_3D('Circle Axis2P3D',#425,#426,$) ;
#447=AXIS2_PLACEMENT_3D('Plane Axis2P3D',#444,#445,#446) ;
#469=AXIS2_PLACEMENT_3D('Plane Axis2P3D',#466,#467,#468) ;
#495=AXIS2_PLACEMENT_3D('Plane Axis2P3D',#492,#493,#494) ;
#17=CARTESIAN_POINT(' ',(0.,0.,0.)) ;
#32=CARTESIAN_POINT('Axis2P3D Location',(2.4,7.5,2.43248145)) ;
#37=CARTESIAN_POINT('Line Origine',(0.123668176841,7.5,1.67201223243)) ;
#41=CARTESIAN_POINT('Vertex',(0.123668176841,3.2533555776E-016,1.67201223243)) ;
#43=CARTESIAN_POINT('Vertex',(0.123668176841,15.,1.67201223243)) ;
#46=CARTESIAN_POINT('Axis2P3D Location',(2.4,0.,2.43248145)) ;
#50=CARTESIAN_POINT('Vertex',(4.67633182316,-2.32204938446E-016,1.67201223243)) ;
#53=CARTESIAN_POINT('Line Origine',(4.67633182316,7.5,1.67201223243)) ;
#57=CARTESIAN_POINT('Vertex',(4.67633182316,15.,1.67201223243)) ;
#60=CARTESIAN_POINT('Axis2P3D Location',(2.4,15.,2.43248145)) ;
#72=CARTESIAN_POINT('Axis2P3D Location',(4.67633182316,-2.56697874429E-016,1.67201223243)) ;
#77=CARTESIAN_POINT('Line Origine',(4.51115191829,-2.06193623259E-016,1.17757502798)) ;
#81=CARTESIAN_POINT('Vertex',(4.34597201341,-1.5568937209E-016,0.683137823521)) ;
#84=CARTESIAN_POINT('Line Origine',(4.34597201341,7.5,0.683137823521)) ;
#88=CARTESIAN_POINT('Vertex',(4.34597201341,15.,0.683137823521)) ;
#91=CARTESIAN_POINT('Line Origine',(4.51115191829,15.,1.17757502798)) ;
#103=CARTESIAN_POINT('Axis2P3D Location',(3.39750042043,7.5,0.999999997509)) ;
#108=CARTESIAN_POINT('Axis2P3D Location',(3.39750042043,0.,0.999999997509)) ;
#112=CARTESIAN_POINT('Vertex',(3.39750042043,6.12323399574E-017,-2.49096654414E-009)) ;
#115=CARTESIAN_POINT('Line Origine',(3.39750042043,7.5,-2.49096610005E-009)) ;
#119=CARTESIAN_POINT('Vertex',(3.39750042043,15.,-2.49096565597E-009)) ;
#122=CARTESIAN_POINT('Axis2P3D Location',(3.39750042043,15.,0.999999997509)) ;
#134=CARTESIAN_POINT('Axis2P3D Location',(3.39750042043,2.29502555316E-018,-2.49096610005E-009)) ;
#139=CARTESIAN_POINT('Line Origine',(2.4,1.24453595256E-016,-2.49096610005E-009)) ;
#143=CARTESIAN_POINT('Vertex',(1.40249957957,2.46612164959E-016,-2.49096610005E-009)) ;
#146=CARTESIAN_POINT('Line Origine',(1.40249957957,7.5,-2.49096564081E-009)) ;
#150=CARTESIAN_POINT('Vertex',(1.40249957957,15.,-2.49096521188E-009)) ;
#153=CARTESIAN_POINT('Line Origine',(2.4,15.,-2.49096518157E-009)) ;
#165=CARTESIAN_POINT('Axis2P3D Location',(1.40249957957,7.5,0.999999997509)) ;
#170=CARTESIAN_POINT('Axis2P3D Location',(1.40249957957,0.,0.999999997509)) ;
#174=CARTESIAN_POINT('Vertex',(0.454027986587,1.355564824E-016,0.683137823521)) ;
#177=CARTESIAN_POINT('Line Origine',(0.454027986587,7.5,0.683137823521)) ;
#181=CARTESIAN_POINT('Vertex',(0.454027986587,15.,0.683137823521)) ;
#184=CARTESIAN_POINT('Axis2P3D Location',(1.40249957957,15.,0.999999997509)) ;
#196=CARTESIAN_POINT('Axis2P3D Location',(0.123668176841,3.00842621777E-016,1.67201223243)) ;
#201=CARTESIAN_POINT('Line Origine',(0.288848081714,3.10889464589E-016,1.17757502798)) ;
#206=CARTESIAN_POINT('Line Origine',(0.288848081714,15.,1.17757502798)) ;
#218=CARTESIAN_POINT('Axis2P3D Location',(4.15499287748,-2.14924640993E-016,2.03248145)) ;
#223=CARTESIAN_POINT('Line Origine',(2.4,15.,2.03248145)) ;
#227=CARTESIAN_POINT('Vertex',(4.15499287748,15.,2.03248145)) ;
#229=CARTESIAN_POINT('Vertex',(0.645007122522,15.,2.03248145)) ;
#232=CARTESIAN_POINT('Line Origine',(0.645007122522,7.5,2.03248145)) ;
#236=CARTESIAN_POINT('Vertex',(0.645007122522,2.39417576976E-016,2.03248145)) ;
#239=CARTESIAN_POINT('Line Origine',(2.4,0.,2.03248145)) ;
#243=CARTESIAN_POINT('Vertex',(4.15499287748,-1.9043170501E-016,2.03248145)) ;
#246=CARTESIAN_POINT('Line Origine',(4.15499287748,7.5,2.03248145)) ;
#258=CARTESIAN_POINT('Axis2P3D Location',(2.4,7.5,2.43248145)) ;
#263=CARTESIAN_POINT('Axis2P3D Location',(2.4,15.,2.43248145)) ;
#268=CARTESIAN_POINT('Axis2P3D Location',(2.4,0.,2.43248145)) ;
#280=CARTESIAN_POINT('Axis2P3D Location',(3.96371349125,-1.5476026821E-016,1.43248145)) ;
#285=CARTESIAN_POINT('Line Origine',(2.4,15.,1.43248145)) ;
#289=CARTESIAN_POINT('Vertex',(0.836286508753,15.,1.43248145)) ;
#291=CARTESIAN_POINT('Vertex',(3.96371349125,15.,1.43248145)) ;
#294=CARTESIAN_POINT('Line Origine',(3.96371349125,7.5,1.43248145)) ;
#298=CARTESIAN_POINT('Vertex',(3.96371349125,-1.5476026821E-016,1.43248145)) ;
#301=CARTESIAN_POINT('Line Origine',(2.4,3.67394039744E-017,1.43248145)) ;
#305=CARTESIAN_POINT('Vertex',(0.836286508753,2.28239076158E-016,1.43248145)) ;
#308=CARTESIAN_POINT('Line Origine',(0.836286508753,7.5,1.43248145)) ;
#320=CARTESIAN_POINT('Axis2P3D Location',(0.836286508753,2.28239076158E-016,1.43248145)) ;
#325=CARTESIAN_POINT('Line Origine',(0.963931780875,15.,1.05039761506)) ;
#329=CARTESIAN_POINT('Vertex',(1.091577053,15.,0.66831378011)) ;
#332=CARTESIAN_POINT('Line Origine',(0.963931780875,2.36002926039E-016,1.05039761506)) ;
#336=CARTESIAN_POINT('Vertex',(1.091577053,1.355564824E-017,0.66831378011)) ;
#339=CARTESIAN_POINT('Line Origine',(1.091577053,7.5,0.66831378011)) ;
#351=CARTESIAN_POINT('Axis2P3D Location',(1.18642421229,7.5,0.699999997509)) ;
#356=CARTESIAN_POINT('Axis2P3D Location',(1.18642421229,15.,0.699999997509)) ;
#360=CARTESIAN_POINT('Vertex',(1.18642421229,15.,0.599999997509)) ;
#363=CARTESIAN_POINT('Axis2P3D Location',(1.18642421229,0.,0.699999997509)) ;
#367=CARTESIAN_POINT('Vertex',(1.18642421229,2.36334361675E-016,0.599999997509)) ;
#370=CARTESIAN_POINT('Line Origine',(1.18642421229,7.5,0.599999997509)) ;
#382=CARTESIAN_POINT('Axis2P3D Location',(3.61357578771,-6.09059791121E-017,0.599999997509)) ;
#387=CARTESIAN_POINT('Line Origine',(2.4,15.,0.599999997509)) ;
#391=CARTESIAN_POINT('Vertex',(3.61357578771,15.,0.599999997509)) ;
#394=CARTESIAN_POINT('Line Origine',(2.4,8.77141912816E-017,0.599999997509)) ;
#398=CARTESIAN_POINT('Vertex',(3.61357578771,6.12323399574E-018,0.599999997509)) ;
#401=CARTESIAN_POINT('Line Origine',(3.61357578771,7.5,0.599999997509)) ;
#413=CARTESIAN_POINT('Axis2P3D Location',(3.61357578771,7.5,0.699999997509)) ;
#418=CARTESIAN_POINT('Axis2P3D Location',(3.61357578771,15.,0.699999997509)) ;
#422=CARTESIAN_POINT('Vertex',(3.708422947,15.,0.66831378011)) ;
#425=CARTESIAN_POINT('Axis2P3D Location',(3.61357578771,0.,0.699999997509)) ;
#429=CARTESIAN_POINT('Vertex',(3.708422947,-7.67044188764E-017,0.66831378011)) ;
#432=CARTESIAN_POINT('Line Origine',(3.708422947,7.5,0.66831378011)) ;
#444=CARTESIAN_POINT('Axis2P3D Location',(3.96371349125,-1.5476026821E-016,1.43248145)) ;
#449=CARTESIAN_POINT('Line Origine',(3.83606821913,15.,1.05039761506)) ;
#454=CARTESIAN_POINT('Line Origine',(3.83606821913,-1.15732343543E-016,1.05039761506)) ;
#466=CARTESIAN_POINT('Axis2P3D Location',(2.4,0.,2.03248145)) ;
#492=CARTESIAN_POINT('Axis2P3D Location',(2.4,15.,2.03248145)) ;
#33=DIRECTION('Axis2P3D Direction',(1.22464679915E-016,1.,6.12323399574E-017)) ;
#34=DIRECTION('Axis2P3D XDirection',(-0.948471592983,1.355564824E-016,-0.316862173988)) ;
#38=DIRECTION('Vector Direction',(1.18423789293E-016,1.,5.92118946467E-017)) ;
#47=DIRECTION('Axis2P3D Direction',(1.22464679915E-016,1.,6.12323399574E-017)) ;
#54=DIRECTION('Vector Direction',(1.18423789293E-016,1.,5.92118946467E-017)) ;
#61=DIRECTION('Axis2P3D Direction',(1.22464679915E-016,1.,6.12323399574E-017)) ;
#73=DIRECTION('Axis2P3D Direction',(0.948471592983,-9.67520576857E-017,-0.316862173988)) ;
#74=DIRECTION('Axis2P3D XDirection',(-0.316862173988,9.68815597359E-017,-0.948471592983)) ;
#78=DIRECTION('Vector Direction',(-0.316862173988,9.68815597359E-017,-0.948471592983)) ;
#85=DIRECTION('Vector Direction',(1.18423789293E-016,1.,5.92118946467E-017)) ;
#92=DIRECTION('Vector Direction',(-0.316862173988,0.,-0.948471592983)) ;
#104=DIRECTION('Axis2P3D Direction',(1.22464679915E-016,1.,6.12323399574E-017)) ;
#105=DIRECTION('Axis2P3D XDirection',(0.948471592983,-9.67520576857E-017,-0.316862173988)) ;
#109=DIRECTION('Axis2P3D Direction',(1.22464679915E-016,1.,6.12323399574E-017)) ;
#116=DIRECTION('Vector Direction',(1.18423789293E-016,1.,5.92118946467E-017)) ;
#123=DIRECTION('Axis2P3D Direction',(1.22464679915E-016,1.,6.12323399574E-017)) ;
#135=DIRECTION('Axis2P3D Direction',(7.49879891331E-033,6.12323399574E-017,-1.)) ;
#136=DIRECTION('Axis2P3D XDirection',(-1.,1.22464679915E-016,0.)) ;
#140=DIRECTION('Vector Direction',(-1.,1.22464679915E-016,0.)) ;
#147=DIRECTION('Vector Direction',(1.18423789293E-016,1.,6.12323399547E-017)) ;
#154=DIRECTION('Vector Direction',(-1.,0.,0.)) ;
#166=DIRECTION('Axis2P3D Direction',(1.22464679915E-016,1.,6.12323399574E-017)) ;
#167=DIRECTION('Axis2P3D XDirection',(1.83697019872E-016,6.12323399574E-017,-1.)) ;
#171=DIRECTION('Axis2P3D Direction',(1.22464679915E-016,1.,6.12323399574E-017)) ;
#178=DIRECTION('Vector Direction',(1.18423789293E-016,1.,5.92118946467E-017)) ;
#185=DIRECTION('Axis2P3D Direction',(1.22464679915E-016,1.,6.12323399574E-017)) ;
#197=DIRECTION('Axis2P3D Direction',(0.948471592983,-1.355564824E-016,0.316862173988)) ;
#198=DIRECTION('Axis2P3D XDirection',(0.316862173988,1.9272710307E-017,-0.948471592983)) ;
#202=DIRECTION('Vector Direction',(0.316862173988,1.9272710307E-017,-0.948471592983)) ;
#207=DIRECTION('Vector Direction',(0.316862173988,0.,-0.948471592983)) ;
#219=DIRECTION('Axis2P3D Direction',(7.49879891331E-033,6.12323399574E-017,-1.)) ;
#220=DIRECTION('Axis2P3D XDirection',(-1.,1.22464679915E-016,0.)) ;
#224=DIRECTION('Vector Direction',(-1.,0.,0.)) ;
#233=DIRECTION('Vector Direction',(1.25825276124E-016,1.,5.92118946467E-017)) ;
#240=DIRECTION('Vector Direction',(-1.,1.22464679915E-016,0.)) ;
#247=DIRECTION('Vector Direction',(1.18423789293E-016,1.,5.92118946467E-017)) ;
#259=DIRECTION('Axis2P3D Direction',(1.22464679915E-016,1.,6.12323399574E-017)) ;
#260=DIRECTION('Axis2P3D XDirection',(-0.974996043044,1.33009764987E-016,-0.222222222222)) ;
#264=DIRECTION('Axis2P3D Direction',(1.22464679915E-016,1.,6.12323399574E-017)) ;
#269=DIRECTION('Axis2P3D Direction',(1.22464679915E-016,1.,6.12323399574E-017)) ;
#281=DIRECTION('Axis2P3D Direction',(7.49879891331E-033,6.12323399574E-017,-1.)) ;
#282=DIRECTION('Axis2P3D XDirection',(-1.,1.22464679915E-016,0.)) ;
#286=DIRECTION('Vector Direction',(-1.,0.,0.)) ;
#295=DIRECTION('Vector Direction',(1.18423789293E-016,1.,5.92118946467E-017)) ;
#302=DIRECTION('Vector Direction',(-1.,1.22464679915E-016,0.)) ;
#309=DIRECTION('Vector Direction',(1.25825276124E-016,1.,5.92118946467E-017)) ;
#321=DIRECTION('Axis2P3D Direction',(0.948471592983,-1.355564824E-016,0.316862173988)) ;
#322=DIRECTION('Axis2P3D XDirection',(0.316862173988,1.9272710307E-017,-0.948471592983)) ;
#326=DIRECTION('Vector Direction',(0.316862173988,0.,-0.948471592983)) ;
#333=DIRECTION('Vector Direction',(0.316862173988,1.9272710307E-017,-0.948471592983)) ;
#340=DIRECTION('Vector Direction',(1.18423789293E-016,1.,5.92118946467E-017)) ;
#352=DIRECTION('Axis2P3D Direction',(1.22464679915E-016,1.,6.12323399574E-017)) ;
#353=DIRECTION('Axis2P3D XDirection',(1.83697019872E-016,6.12323399574E-017,-1.)) ;
#357=DIRECTION('Axis2P3D Direction',(1.22464679915E-016,1.,6.12323399574E-017)) ;
#364=DIRECTION('Axis2P3D Direction',(1.22464679915E-016,1.,6.12323399574E-017)) ;
#371=DIRECTION('Vector Direction',(1.18423789293E-016,1.,5.92118946467E-017)) ;
#383=DIRECTION('Axis2P3D Direction',(7.49879891331E-033,6.12323399574E-017,-1.)) ;
#384=DIRECTION('Axis2P3D XDirection',(-1.,1.22464679915E-016,0.)) ;
#388=DIRECTION('Vector Direction',(-1.,0.,0.)) ;
#395=DIRECTION('Vector Direction',(-1.,1.22464679915E-016,0.)) ;
#402=DIRECTION('Vector Direction',(1.18423789293E-016,1.,5.92118946467E-017)) ;
#414=DIRECTION('Axis2P3D Direction',(1.22464679915E-016,1.,6.12323399574E-017)) ;
#415=DIRECTION('Axis2P3D XDirection',(0.948471592983,-9.67520576857E-017,-0.316862173988)) ;
#419=DIRECTION('Axis2P3D Direction',(1.22464679915E-016,1.,6.12323399574E-017)) ;
#426=DIRECTION('Axis2P3D Direction',(1.22464679915E-016,1.,6.12323399574E-017)) ;
#433=DIRECTION('Vector Direction',(1.18423789293E-016,1.,5.92118946467E-017)) ;
#445=DIRECTION('Axis2P3D Direction',(0.948471592983,-9.67520576857E-017,-0.316862173988)) ;
#446=DIRECTION('Axis2P3D XDirection',(-0.316862173988,9.68815597359E-017,-0.948471592983)) ;
#450=DIRECTION('Vector Direction',(-0.316862173988,0.,-0.948471592983)) ;
#455=DIRECTION('Vector Direction',(-0.316862173988,9.68815597359E-017,-0.948471592983)) ;
#467=DIRECTION('Axis2P3D Direction',(1.22464679915E-016,1.,6.12323399574E-017)) ;
#468=DIRECTION('Axis2P3D XDirection',(-1.,1.22464679915E-016,0.)) ;
#493=DIRECTION('Axis2P3D Direction',(1.22464679915E-016,1.,6.12323399574E-017)) ;
#494=DIRECTION('Axis2P3D XDirection',(-1.,1.22464679915E-016,0.)) ;
#30=PRESENTATION_LAYER_ASSIGNMENT('1',' ',(#21)) ;
#8=PRODUCT_RELATED_PRODUCT_CATEGORY('part',$,(#5)) ;
#7=PRODUCT_CATEGORY('part','specification') ;
#29=STYLED_ITEM(' ',(#28),#21) ;
#28=PRESENTATION_STYLE_ASSIGNMENT((#27)) ;
#27=SURFACE_STYLE_USAGE(.BOTH.,#26) ;
#26=SURFACE_SIDE_STYLE(' ',(#25)) ;
#25=SURFACE_STYLE_FILL_AREA(#24) ;
#24=FILL_AREA_STYLE(' ',(#23)) ;
#23=FILL_AREA_STYLE_COLOUR(' ',#22) ;
#39=VECTOR('Line Direction',#38,1.) ;
#55=VECTOR('Line Direction',#54,1.) ;
#79=VECTOR('Line Direction',#78,1.) ;
#86=VECTOR('Line Direction',#85,1.) ;
#93=VECTOR('Line Direction',#92,1.) ;
#117=VECTOR('Line Direction',#116,1.) ;
#141=VECTOR('Line Direction',#140,1.) ;
#148=VECTOR('Line Direction',#147,1.) ;
#155=VECTOR('Line Direction',#154,1.) ;
#179=VECTOR('Line Direction',#178,1.) ;
#203=VECTOR('Line Direction',#202,1.) ;
#208=VECTOR('Line Direction',#207,1.) ;
#225=VECTOR('Line Direction',#224,1.) ;
#234=VECTOR('Line Direction',#233,1.) ;
#241=VECTOR('Line Direction',#240,1.) ;
#248=VECTOR('Line Direction',#247,1.) ;
#287=VECTOR('Line Direction',#286,1.) ;
#296=VECTOR('Line Direction',#295,1.) ;
#303=VECTOR('Line Direction',#302,1.) ;
#310=VECTOR('Line Direction',#309,1.) ;
#327=VECTOR('Line Direction',#326,1.) ;
#334=VECTOR('Line Direction',#333,1.) ;
#341=VECTOR('Line Direction',#340,1.) ;
#372=VECTOR('Line Direction',#371,1.) ;
#389=VECTOR('Line Direction',#388,1.) ;
#396=VECTOR('Line Direction',#395,1.) ;
#403=VECTOR('Line Direction',#402,1.) ;
#434=VECTOR('Line Direction',#433,1.) ;
#451=VECTOR('Line Direction',#450,1.) ;
#456=VECTOR('Line Direction',#455,1.) ;
#15=UNCERTAINTY_MEASURE_WITH_UNIT(LENGTH_MEASURE(0.005),#12,'distance_accuracy_value','CONFUSED CURVE UNCERTAINTY') ;
#519=SHAPE_REPRESENTATION_RELATIONSHIP(' ',' ',#19,#518) ;
#66=ORIENTED_EDGE('',*,*,#45,.F.) ;
#67=ORIENTED_EDGE('',*,*,#52,.T.) ;
#68=ORIENTED_EDGE('',*,*,#59,.T.) ;
#69=ORIENTED_EDGE('',*,*,#64,.F.) ;
#97=ORIENTED_EDGE('',*,*,#59,.F.) ;
#98=ORIENTED_EDGE('',*,*,#83,.T.) ;
#99=ORIENTED_EDGE('',*,*,#90,.T.) ;
#100=ORIENTED_EDGE('',*,*,#95,.F.) ;
#128=ORIENTED_EDGE('',*,*,#90,.F.) ;
#129=ORIENTED_EDGE('',*,*,#114,.T.) ;
#130=ORIENTED_EDGE('',*,*,#121,.T.) ;
#131=ORIENTED_EDGE('',*,*,#126,.F.) ;
#159=ORIENTED_EDGE('',*,*,#121,.F.) ;
#160=ORIENTED_EDGE('',*,*,#145,.T.) ;
#161=ORIENTED_EDGE('',*,*,#152,.T.) ;
#162=ORIENTED_EDGE('',*,*,#157,.F.) ;
#190=ORIENTED_EDGE('',*,*,#152,.F.) ;
#191=ORIENTED_EDGE('',*,*,#176,.T.) ;
#192=ORIENTED_EDGE('',*,*,#183,.T.) ;
#193=ORIENTED_EDGE('',*,*,#188,.F.) ;
#212=ORIENTED_EDGE('',*,*,#183,.F.) ;
#213=ORIENTED_EDGE('',*,*,#205,.T.) ;
#214=ORIENTED_EDGE('',*,*,#45,.T.) ;
#215=ORIENTED_EDGE('',*,*,#210,.F.) ;
#252=ORIENTED_EDGE('',*,*,#231,.T.) ;
#253=ORIENTED_EDGE('',*,*,#238,.F.) ;
#254=ORIENTED_EDGE('',*,*,#245,.F.) ;
#255=ORIENTED_EDGE('',*,*,#250,.T.) ;
#274=ORIENTED_EDGE('',*,*,#267,.T.) ;
#275=ORIENTED_EDGE('',*,*,#250,.F.) ;
#276=ORIENTED_EDGE('',*,*,#272,.F.) ;
#277=ORIENTED_EDGE('',*,*,#238,.T.) ;
#314=ORIENTED_EDGE('',*,*,#293,.T.) ;
#315=ORIENTED_EDGE('',*,*,#300,.F.) ;
#316=ORIENTED_EDGE('',*,*,#307,.F.) ;
#317=ORIENTED_EDGE('',*,*,#312,.T.) ;
#345=ORIENTED_EDGE('',*,*,#331,.T.) ;
#346=ORIENTED_EDGE('',*,*,#312,.F.) ;
#347=ORIENTED_EDGE('',*,*,#338,.F.) ;
#348=ORIENTED_EDGE('',*,*,#343,.T.) ;
#376=ORIENTED_EDGE('',*,*,#362,.T.) ;
#377=ORIENTED_EDGE('',*,*,#343,.F.) ;
#378=ORIENTED_EDGE('',*,*,#369,.F.) ;
#379=ORIENTED_EDGE('',*,*,#374,.T.) ;
#407=ORIENTED_EDGE('',*,*,#393,.T.) ;
#408=ORIENTED_EDGE('',*,*,#374,.F.) ;
#409=ORIENTED_EDGE('',*,*,#400,.F.) ;
#410=ORIENTED_EDGE('',*,*,#405,.T.) ;
#438=ORIENTED_EDGE('',*,*,#424,.T.) ;
#439=ORIENTED_EDGE('',*,*,#405,.F.) ;
#440=ORIENTED_EDGE('',*,*,#431,.F.) ;
#441=ORIENTED_EDGE('',*,*,#436,.T.) ;
#460=ORIENTED_EDGE('',*,*,#453,.T.) ;
#461=ORIENTED_EDGE('',*,*,#436,.F.) ;
#462=ORIENTED_EDGE('',*,*,#458,.F.) ;
#463=ORIENTED_EDGE('',*,*,#300,.T.) ;
#472=ORIENTED_EDGE('',*,*,#205,.F.) ;
#473=ORIENTED_EDGE('',*,*,#176,.F.) ;
#474=ORIENTED_EDGE('',*,*,#145,.F.) ;
#475=ORIENTED_EDGE('',*,*,#114,.F.) ;
#476=ORIENTED_EDGE('',*,*,#83,.F.) ;
#477=ORIENTED_EDGE('',*,*,#52,.F.) ;
#480=ORIENTED_EDGE('',*,*,#272,.T.) ;
#481=ORIENTED_EDGE('',*,*,#245,.T.) ;
#484=ORIENTED_EDGE('',*,*,#458,.T.) ;
#485=ORIENTED_EDGE('',*,*,#431,.T.) ;
#486=ORIENTED_EDGE('',*,*,#400,.T.) ;
#487=ORIENTED_EDGE('',*,*,#369,.T.) ;
#488=ORIENTED_EDGE('',*,*,#338,.T.) ;
#489=ORIENTED_EDGE('',*,*,#307,.T.) ;
#498=ORIENTED_EDGE('',*,*,#64,.T.) ;
#499=ORIENTED_EDGE('',*,*,#95,.T.) ;
#500=ORIENTED_EDGE('',*,*,#126,.T.) ;
#501=ORIENTED_EDGE('',*,*,#157,.T.) ;
#502=ORIENTED_EDGE('',*,*,#188,.T.) ;
#503=ORIENTED_EDGE('',*,*,#210,.T.) ;
#506=ORIENTED_EDGE('',*,*,#231,.F.) ;
#507=ORIENTED_EDGE('',*,*,#267,.F.) ;
#510=ORIENTED_EDGE('',*,*,#293,.F.) ;
#511=ORIENTED_EDGE('',*,*,#331,.F.) ;
#512=ORIENTED_EDGE('',*,*,#362,.F.) ;
#513=ORIENTED_EDGE('',*,*,#393,.F.) ;
#514=ORIENTED_EDGE('',*,*,#424,.F.) ;
#515=ORIENTED_EDGE('',*,*,#453,.F.) ;
#482=FACE_BOUND('',#479,.T.) ;
#490=FACE_BOUND('',#483,.T.) ;
#508=FACE_BOUND('',#505,.T.) ;
#516=FACE_BOUND('',#509,.T.) ;
#31=CLOSED_SHELL('Closed Shell',(#71,#102,#133,#164,#195,#217,#257,#279,#319,#350,#381,#412,#443,#465,#491,#517)) ;
#518=ADVANCED_BREP_SHAPE_REPRESENTATION('NONE',(#21),#16) ;
#71=ADVANCED_FACE('S3D-Kopie',(#70),#36,.T.) ;
#102=ADVANCED_FACE('S3D-Kopie',(#101),#76,.T.) ;
#133=ADVANCED_FACE('S3D-Kopie',(#132),#107,.T.) ;
#164=ADVANCED_FACE('S3D-Kopie',(#163),#138,.T.) ;
#195=ADVANCED_FACE('S3D-Kopie',(#194),#169,.T.) ;
#217=ADVANCED_FACE('S3D-Kopie',(#216),#200,.F.) ;
#257=ADVANCED_FACE('S3D-Kopie',(#256),#222,.F.) ;
#279=ADVANCED_FACE('S3D-Kopie',(#278),#262,.F.) ;
#319=ADVANCED_FACE('S3D-Kopie',(#318),#284,.T.) ;
#350=ADVANCED_FACE('S3D-Kopie',(#349),#324,.T.) ;
#381=ADVANCED_FACE('S3D-Kopie',(#380),#355,.F.) ;
#412=ADVANCED_FACE('S3D-Kopie',(#411),#386,.F.) ;
#443=ADVANCED_FACE('S3D-Kopie',(#442),#417,.F.) ;
#465=ADVANCED_FACE('S3D-Kopie',(#464),#448,.F.) ;
#491=ADVANCED_FACE('S3D-Kopie',(#478,#482,#490),#470,.F.) ;
#517=ADVANCED_FACE('S3D-Kopie',(#504,#508,#516),#496,.T.) ;
#4=APPLICATION_PROTOCOL_DEFINITION('international standard','automotive_design',2001,#1) ;
#21=MANIFOLD_SOLID_BREP('S3D-Kopie',#31) ;
#49=CIRCLE('generated circle',#48,2.4) ;
#63=CIRCLE('generated circle',#62,2.4) ;
#111=CIRCLE('generated circle',#110,1.) ;
#125=CIRCLE('generated circle',#124,1.) ;
#173=CIRCLE('generated circle',#172,1.) ;
#187=CIRCLE('generated circle',#186,1.) ;
#266=CIRCLE('generated circle',#265,1.8) ;
#271=CIRCLE('generated circle',#270,1.8) ;
#359=CIRCLE('generated circle',#358,0.1) ;
#366=CIRCLE('generated circle',#365,0.1) ;
#421=CIRCLE('generated circle',#420,0.1) ;
#428=CIRCLE('generated circle',#427,0.1) ;
#22=COLOUR_RGB('Colour',0.823529411765,0.823529411765,1.) ;
#36=CYLINDRICAL_SURFACE('generated cylinder',#35,2.4) ;
#107=CYLINDRICAL_SURFACE('generated cylinder',#106,1.) ;
#169=CYLINDRICAL_SURFACE('generated cylinder',#168,1.) ;
#262=CYLINDRICAL_SURFACE('generated cylinder',#261,1.8) ;
#355=CYLINDRICAL_SURFACE('generated cylinder',#354,0.1) ;
#417=CYLINDRICAL_SURFACE('generated cylinder',#416,0.1) ;
#45=EDGE_CURVE('',#42,#44,#40,.T.) ;
#52=EDGE_CURVE('',#42,#51,#49,.T.) ;
#59=EDGE_CURVE('',#51,#58,#56,.T.) ;
#64=EDGE_CURVE('',#44,#58,#63,.T.) ;
#83=EDGE_CURVE('',#51,#82,#80,.T.) ;
#90=EDGE_CURVE('',#82,#89,#87,.T.) ;
#95=EDGE_CURVE('',#58,#89,#94,.T.) ;
#114=EDGE_CURVE('',#82,#113,#111,.T.) ;
#121=EDGE_CURVE('',#113,#120,#118,.T.) ;
#126=EDGE_CURVE('',#89,#120,#125,.T.) ;
#145=EDGE_CURVE('',#113,#144,#142,.T.) ;
#152=EDGE_CURVE('',#144,#151,#149,.T.) ;
#157=EDGE_CURVE('',#120,#151,#156,.T.) ;
#176=EDGE_CURVE('',#144,#175,#173,.T.) ;
#183=EDGE_CURVE('',#175,#182,#180,.T.) ;
#188=EDGE_CURVE('',#151,#182,#187,.T.) ;
#205=EDGE_CURVE('',#175,#42,#204,.F.) ;
#210=EDGE_CURVE('',#182,#44,#209,.F.) ;
#231=EDGE_CURVE('',#228,#230,#226,.T.) ;
#238=EDGE_CURVE('',#237,#230,#235,.T.) ;
#245=EDGE_CURVE('',#244,#237,#242,.T.) ;
#250=EDGE_CURVE('',#244,#228,#249,.T.) ;
#267=EDGE_CURVE('',#230,#228,#266,.T.) ;
#272=EDGE_CURVE('',#237,#244,#271,.T.) ;
#293=EDGE_CURVE('',#290,#292,#288,.F.) ;
#300=EDGE_CURVE('',#299,#292,#297,.T.) ;
#307=EDGE_CURVE('',#306,#299,#304,.F.) ;
#312=EDGE_CURVE('',#306,#290,#311,.T.) ;
#331=EDGE_CURVE('',#330,#290,#328,.F.) ;
#338=EDGE_CURVE('',#337,#306,#335,.F.) ;
#343=EDGE_CURVE('',#337,#330,#342,.T.) ;
#362=EDGE_CURVE('',#361,#330,#359,.T.) ;
#369=EDGE_CURVE('',#368,#337,#366,.T.) ;
#374=EDGE_CURVE('',#368,#361,#373,.T.) ;
#393=EDGE_CURVE('',#392,#361,#390,.T.) ;
#400=EDGE_CURVE('',#399,#368,#397,.T.) ;
#405=EDGE_CURVE('',#399,#392,#404,.T.) ;
#424=EDGE_CURVE('',#423,#392,#421,.T.) ;
#431=EDGE_CURVE('',#430,#399,#428,.T.) ;
#436=EDGE_CURVE('',#430,#423,#435,.T.) ;
#453=EDGE_CURVE('',#292,#423,#452,.T.) ;
#458=EDGE_CURVE('',#299,#430,#457,.T.) ;
#65=EDGE_LOOP('',(#66,#67,#68,#69)) ;
#96=EDGE_LOOP('',(#97,#98,#99,#100)) ;
#127=EDGE_LOOP('',(#128,#129,#130,#131)) ;
#158=EDGE_LOOP('',(#159,#160,#161,#162)) ;
#189=EDGE_LOOP('',(#190,#191,#192,#193)) ;
#211=EDGE_LOOP('',(#212,#213,#214,#215)) ;
#251=EDGE_LOOP('',(#252,#253,#254,#255)) ;
#273=EDGE_LOOP('',(#274,#275,#276,#277)) ;
#313=EDGE_LOOP('',(#314,#315,#316,#317)) ;
#344=EDGE_LOOP('',(#345,#346,#347,#348)) ;
#375=EDGE_LOOP('',(#376,#377,#378,#379)) ;
#406=EDGE_LOOP('',(#407,#408,#409,#410)) ;
#437=EDGE_LOOP('',(#438,#439,#440,#441)) ;
#459=EDGE_LOOP('',(#460,#461,#462,#463)) ;
#471=EDGE_LOOP('',(#472,#473,#474,#475,#476,#477)) ;
#479=EDGE_LOOP('',(#480,#481)) ;
#483=EDGE_LOOP('',(#484,#485,#486,#487,#488,#489)) ;
#497=EDGE_LOOP('',(#498,#499,#500,#501,#502,#503)) ;
#505=EDGE_LOOP('',(#506,#507)) ;
#509=EDGE_LOOP('',(#510,#511,#512,#513,#514,#515)) ;
#70=FACE_OUTER_BOUND('',#65,.T.) ;
#101=FACE_OUTER_BOUND('',#96,.T.) ;
#132=FACE_OUTER_BOUND('',#127,.T.) ;
#163=FACE_OUTER_BOUND('',#158,.T.) ;
#194=FACE_OUTER_BOUND('',#189,.T.) ;
#216=FACE_OUTER_BOUND('',#211,.T.) ;
#256=FACE_OUTER_BOUND('',#251,.T.) ;
#278=FACE_OUTER_BOUND('',#273,.T.) ;
#318=FACE_OUTER_BOUND('',#313,.T.) ;
#349=FACE_OUTER_BOUND('',#344,.T.) ;
#380=FACE_OUTER_BOUND('',#375,.T.) ;
#411=FACE_OUTER_BOUND('',#406,.T.) ;
#442=FACE_OUTER_BOUND('',#437,.T.) ;
#464=FACE_OUTER_BOUND('',#459,.T.) ;
#478=FACE_OUTER_BOUND('',#471,.T.) ;
#504=FACE_OUTER_BOUND('',#497,.T.) ;
#40=LINE('Line',#37,#39) ;
#56=LINE('Line',#53,#55) ;
#80=LINE('Line',#77,#79) ;
#87=LINE('Line',#84,#86) ;
#94=LINE('Line',#91,#93) ;
#118=LINE('Line',#115,#117) ;
#142=LINE('Line',#139,#141) ;
#149=LINE('Line',#146,#148) ;
#156=LINE('Line',#153,#155) ;
#180=LINE('Line',#177,#179) ;
#204=LINE('Line',#201,#203) ;
#209=LINE('Line',#206,#208) ;
#226=LINE('Line',#223,#225) ;
#235=LINE('Line',#232,#234) ;
#242=LINE('Line',#239,#241) ;
#249=LINE('Line',#246,#248) ;
#288=LINE('Line',#285,#287) ;
#297=LINE('Line',#294,#296) ;
#304=LINE('Line',#301,#303) ;
#311=LINE('Line',#308,#310) ;
#328=LINE('Line',#325,#327) ;
#335=LINE('Line',#332,#334) ;
#342=LINE('Line',#339,#341) ;
#373=LINE('Line',#370,#372) ;
#390=LINE('Line',#387,#389) ;
#397=LINE('Line',#394,#396) ;
#404=LINE('Line',#401,#403) ;
#435=LINE('Line',#432,#434) ;
#452=LINE('Line',#449,#451) ;
#457=LINE('Line',#454,#456) ;
#76=PLANE('',#75) ;
#138=PLANE('',#137) ;
#200=PLANE('',#199) ;
#222=PLANE('',#221) ;
#284=PLANE('',#283) ;
#324=PLANE('',#323) ;
#386=PLANE('',#385) ;
#448=PLANE('',#447) ;
#470=PLANE('',#469) ;
#496=PLANE('',#495) ;
#9=PRODUCT_CATEGORY_RELATIONSHIP(' ',' ',#7,#8) ;
#6=PRODUCT_DEFINITION_FORMATION_WITH_SPECIFIED_SOURCE('1798650000',' ',#5,.BOUGHT.) ;
#20=SHAPE_DEFINITION_REPRESENTATION(#11,#19) ;
#42=VERTEX_POINT('',#41) ;
#44=VERTEX_POINT('',#43) ;
#51=VERTEX_POINT('',#50) ;
#58=VERTEX_POINT('',#57) ;
#82=VERTEX_POINT('',#81) ;
#89=VERTEX_POINT('',#88) ;
#113=VERTEX_POINT('',#112) ;
#120=VERTEX_POINT('',#119) ;
#144=VERTEX_POINT('',#143) ;
#151=VERTEX_POINT('',#150) ;
#175=VERTEX_POINT('',#174) ;
#182=VERTEX_POINT('',#181) ;
#228=VERTEX_POINT('',#227) ;
#230=VERTEX_POINT('',#229) ;
#237=VERTEX_POINT('',#236) ;
#244=VERTEX_POINT('',#243) ;
#290=VERTEX_POINT('',#289) ;
#292=VERTEX_POINT('',#291) ;
#299=VERTEX_POINT('',#298) ;
#306=VERTEX_POINT('',#305) ;
#330=VERTEX_POINT('',#329) ;
#337=VERTEX_POINT('',#336) ;
#361=VERTEX_POINT('',#360) ;
#368=VERTEX_POINT('',#367) ;
#392=VERTEX_POINT('',#391) ;
#399=VERTEX_POINT('',#398) ;
#423=VERTEX_POINT('',#422) ;
#430=VERTEX_POINT('',#429) ;
#12=(LENGTH_UNIT()NAMED_UNIT(*)SI_UNIT(.MILLI.,.METRE.)) ;
#13=(NAMED_UNIT(*)PLANE_ANGLE_UNIT()SI_UNIT($,.RADIAN.)) ;
#14=(NAMED_UNIT(*)SI_UNIT($,.STERADIAN.)SOLID_ANGLE_UNIT()) ;
#16=(GEOMETRIC_REPRESENTATION_CONTEXT(3)GLOBAL_UNCERTAINTY_ASSIGNED_CONTEXT((#15))GLOBAL_UNIT_ASSIGNED_CONTEXT((#12,#13,#14))REPRESENTATION_CONTEXT(' ',' ')) ;
ENDSEC;
END-ISO-10303-21;
