ISO-10303-21;
HEADER;
FILE_DESCRIPTION(('CATIA V5R19 STEP'),'2;1');

FILE_NAME ('D1454160_0_1640740000_1640740000.stp','2014-12-03T07:44:51+00:00',('none'),('Weidmueller'),'CATIA Version 5 Release 20 SP 5 (IN-10)','CATIA V5 STEP AP214','none');

FILE_SCHEMA(('AUTOMOTIVE_DESIGN { 1 0 10303 214 1 1 1 1 }'));

ENDSEC;
/* file written by CATIA V5R20 */
DATA;
#5=PRODUCT('WS 8/5','','',(#2)) ;
#2=PRODUCT_CONTEXT(' ',#1,'mechanical') ;
#1=APPLICATION_CONTEXT('automotive design') ;
#10=PRODUCT_DEFINITION('',' ',#6,#3) ;
#3=PRODUCT_DEFINITION_CONTEXT('part definition',#1,' ') ;
#11=PRODUCT_DEFINITION_SHAPE(' ',' ',#10) ;
#574=MECHANICAL_DESIGN_GEOMETRIC_PRESENTATION_REPRESENTATION(' ',(#30),#17) ;
#20=SHAPE_REPRESENTATION(' ',(#19),#17) ;
#19=AXIS2_PLACEMENT_3D(' ',#18,$,$) ;
#36=AXIS2_PLACEMENT_3D('Plane Axis2P3D',#33,#34,#35) ;
#110=AXIS2_PLACEMENT_3D('Plane Axis2P3D',#107,#108,#109) ;
#141=AXIS2_PLACEMENT_3D('Plane Axis2P3D',#138,#139,#140) ;
#165=AXIS2_PLACEMENT_3D('Plane Axis2P3D',#162,#163,#164) ;
#189=AXIS2_PLACEMENT_3D('Plane Axis2P3D',#186,#187,#188) ;
#206=AXIS2_PLACEMENT_3D('Plane Axis2P3D',#203,#204,#205) ;
#237=AXIS2_PLACEMENT_3D('Plane Axis2P3D',#234,#235,#236) ;
#268=AXIS2_PLACEMENT_3D('Plane Axis2P3D',#265,#266,#267) ;
#280=AXIS2_PLACEMENT_3D('Plane Axis2P3D',#277,#278,#279) ;
#372=AXIS2_PLACEMENT_3D('Plane Axis2P3D',#369,#370,#371) ;
#403=AXIS2_PLACEMENT_3D('Plane Axis2P3D',#400,#401,#402) ;
#434=AXIS2_PLACEMENT_3D('Plane Axis2P3D',#431,#432,#433) ;
#465=AXIS2_PLACEMENT_3D('Plane Axis2P3D',#462,#463,#464) ;
#496=AXIS2_PLACEMENT_3D('Plane Axis2P3D',#493,#494,#495) ;
#535=AXIS2_PLACEMENT_3D('Plane Axis2P3D',#532,#533,#534) ;
#555=AXIS2_PLACEMENT_3D('Plane Axis2P3D',#552,#553,#554) ;
#18=CARTESIAN_POINT(' ',(0.,0.,0.)) ;
#33=CARTESIAN_POINT('Axis2P3D Location',(2.425,7.8,2.335)) ;
#38=CARTESIAN_POINT('Line Origine',(0.,3.9,2.335)) ;
#42=CARTESIAN_POINT('Vertex',(0.,0.,2.335)) ;
#44=CARTESIAN_POINT('Vertex',(0.,7.8,2.335)) ;
#47=CARTESIAN_POINT('Line Origine',(2.425,7.8,2.335)) ;
#51=CARTESIAN_POINT('Vertex',(4.85,7.8,2.335)) ;
#54=CARTESIAN_POINT('Line Origine',(4.85,3.9,2.335)) ;
#58=CARTESIAN_POINT('Vertex',(4.85,0.,2.335)) ;
#61=CARTESIAN_POINT('Line Origine',(2.425,0.,2.335)) ;
#72=CARTESIAN_POINT('Line Origine',(2.425,0.9,2.335)) ;
#76=CARTESIAN_POINT('Vertex',(4.35,0.9,2.335)) ;
#78=CARTESIAN_POINT('Vertex',(0.5,0.9,2.335)) ;
#81=CARTESIAN_POINT('Line Origine',(4.35,3.9,2.335)) ;
#85=CARTESIAN_POINT('Vertex',(4.35,6.9,2.335)) ;
#88=CARTESIAN_POINT('Line Origine',(2.425,6.9,2.335)) ;
#92=CARTESIAN_POINT('Vertex',(0.5,6.9,2.335)) ;
#95=CARTESIAN_POINT('Line Origine',(0.5,3.9,2.335)) ;
#107=CARTESIAN_POINT('Axis2P3D Location',(0.,0.,3.135)) ;
#112=CARTESIAN_POINT('Line Origine',(0.,0.,2.735)) ;
#116=CARTESIAN_POINT('Vertex',(0.,0.,3.135)) ;
#119=CARTESIAN_POINT('Line Origine',(0.,3.9,3.135)) ;
#123=CARTESIAN_POINT('Vertex',(0.,7.8,3.135)) ;
#126=CARTESIAN_POINT('Line Origine',(0.,7.8,2.735)) ;
#138=CARTESIAN_POINT('Axis2P3D Location',(2.425,7.8,3.135)) ;
#143=CARTESIAN_POINT('Line Origine',(2.425,7.8,3.135)) ;
#147=CARTESIAN_POINT('Vertex',(4.85,7.8,3.135)) ;
#150=CARTESIAN_POINT('Line Origine',(4.85,7.8,2.735)) ;
#162=CARTESIAN_POINT('Axis2P3D Location',(4.85,0.,3.135)) ;
#167=CARTESIAN_POINT('Line Origine',(4.85,3.9,3.135)) ;
#171=CARTESIAN_POINT('Vertex',(4.85,0.,3.135)) ;
#174=CARTESIAN_POINT('Line Origine',(4.85,0.,2.735)) ;
#186=CARTESIAN_POINT('Axis2P3D Location',(2.425,0.,2.335)) ;
#191=CARTESIAN_POINT('Line Origine',(2.425,0.,3.135)) ;
#203=CARTESIAN_POINT('Axis2P3D Location',(2.425,0.9,2.335)) ;
#208=CARTESIAN_POINT('Line Origine',(2.425,0.9,1.785)) ;
#212=CARTESIAN_POINT('Vertex',(4.35,0.9,1.785)) ;
#214=CARTESIAN_POINT('Vertex',(0.5,0.9,1.785)) ;
#217=CARTESIAN_POINT('Line Origine',(4.35,0.9,2.06)) ;
#222=CARTESIAN_POINT('Line Origine',(0.5,0.9,2.06)) ;
#234=CARTESIAN_POINT('Axis2P3D Location',(2.425,6.9,1.785)) ;
#239=CARTESIAN_POINT('Line Origine',(4.35,6.9,2.06)) ;
#243=CARTESIAN_POINT('Vertex',(4.35,6.9,1.785)) ;
#246=CARTESIAN_POINT('Line Origine',(2.425,6.9,1.785)) ;
#250=CARTESIAN_POINT('Vertex',(0.5,6.9,1.785)) ;
#253=CARTESIAN_POINT('Line Origine',(0.5,6.9,2.06)) ;
#265=CARTESIAN_POINT('Axis2P3D Location',(2.425,0.,3.135)) ;
#277=CARTESIAN_POINT('Axis2P3D Location',(2.425,0.9,1.785)) ;
#282=CARTESIAN_POINT('Line Origine',(2.425,1.685,1.785)) ;
#286=CARTESIAN_POINT('Vertex',(4.35,1.685,1.785)) ;
#288=CARTESIAN_POINT('Vertex',(0.5,1.685,1.785)) ;
#291=CARTESIAN_POINT('Line Origine',(4.35,1.2925,1.785)) ;
#296=CARTESIAN_POINT('Line Origine',(0.5,1.2925,1.785)) ;
#308=CARTESIAN_POINT('Line Origine',(2.425,6.115,1.785)) ;
#312=CARTESIAN_POINT('Vertex',(4.35,6.115,1.785)) ;
#314=CARTESIAN_POINT('Vertex',(0.5,6.115,1.785)) ;
#317=CARTESIAN_POINT('Line Origine',(0.5,6.5075,1.785)) ;
#322=CARTESIAN_POINT('Line Origine',(4.35,6.5075,1.785)) ;
#334=CARTESIAN_POINT('Line Origine',(2.425,5.06399963795,1.785)) ;
#338=CARTESIAN_POINT('Vertex',(4.35,5.06399963795,1.785)) ;
#340=CARTESIAN_POINT('Vertex',(0.5,5.06399963795,1.785)) ;
#343=CARTESIAN_POINT('Line Origine',(4.35,3.9,1.785)) ;
#347=CARTESIAN_POINT('Vertex',(4.35,2.73600036205,1.785)) ;
#350=CARTESIAN_POINT('Line Origine',(2.425,2.73600036205,1.785)) ;
#354=CARTESIAN_POINT('Vertex',(0.5,2.73600036205,1.785)) ;
#357=CARTESIAN_POINT('Line Origine',(0.5,3.9,1.785)) ;
#369=CARTESIAN_POINT('Axis2P3D Location',(2.425,2.73600036205,1.785)) ;
#374=CARTESIAN_POINT('Line Origine',(4.35,2.55101004046,0.8925)) ;
#378=CARTESIAN_POINT('Vertex',(4.35,2.36601971888,-8.881784197E-016)) ;
#381=CARTESIAN_POINT('Line Origine',(2.425,2.36601971888,-1.11022302463E-015)) ;
#385=CARTESIAN_POINT('Vertex',(0.5,2.36601971888,-8.881784197E-016)) ;
#388=CARTESIAN_POINT('Line Origine',(0.5,2.55101004046,0.8925)) ;
#400=CARTESIAN_POINT('Axis2P3D Location',(2.425,1.685,1.785)) ;
#405=CARTESIAN_POINT('Line Origine',(2.425,1.685,-4.4408920985E-016)) ;
#409=CARTESIAN_POINT('Vertex',(4.35,1.685,-4.4408920985E-016)) ;
#411=CARTESIAN_POINT('Vertex',(0.5,1.685,-4.4408920985E-016)) ;
#414=CARTESIAN_POINT('Line Origine',(4.35,1.685,0.8925)) ;
#419=CARTESIAN_POINT('Line Origine',(0.5,1.685,0.8925)) ;
#431=CARTESIAN_POINT('Axis2P3D Location',(2.425,6.115,1.785)) ;
#436=CARTESIAN_POINT('Line Origine',(0.5,6.115,0.8925)) ;
#440=CARTESIAN_POINT('Vertex',(0.5,6.115,0.)) ;
#443=CARTESIAN_POINT('Line Origine',(4.35,6.115,0.8925)) ;
#447=CARTESIAN_POINT('Vertex',(4.35,6.115,0.)) ;
#450=CARTESIAN_POINT('Line Origine',(2.425,6.115,8.881784197E-016)) ;
#462=CARTESIAN_POINT('Axis2P3D Location',(2.425,5.06399963795,1.785)) ;
#467=CARTESIAN_POINT('Line Origine',(0.5,5.24898995954,0.8925)) ;
#471=CARTESIAN_POINT('Vertex',(0.5,5.43398028112,0.)) ;
#474=CARTESIAN_POINT('Line Origine',(2.425,5.43398028112,-4.4408920985E-016)) ;
#478=CARTESIAN_POINT('Vertex',(4.35,5.43398028112,0.)) ;
#481=CARTESIAN_POINT('Line Origine',(4.35,5.24898995954,0.8925)) ;
#493=CARTESIAN_POINT('Axis2P3D Location',(2.425,1.685,-4.4408920985E-016)) ;
#498=CARTESIAN_POINT('Line Origine',(4.35,2.02550985944,-4.4408920985E-016)) ;
#503=CARTESIAN_POINT('Line Origine',(0.5,2.02550985944,-4.4408920985E-016)) ;
#515=CARTESIAN_POINT('Line Origine',(0.5,5.77449014056,-4.4408920985E-016)) ;
#520=CARTESIAN_POINT('Line Origine',(4.35,5.77449014056,-4.4408920985E-016)) ;
#532=CARTESIAN_POINT('Axis2P3D Location',(4.35,0.,3.135)) ;
#552=CARTESIAN_POINT('Axis2P3D Location',(0.5,0.,3.135)) ;
#34=DIRECTION('Axis2P3D Direction',(-0.,-0.,-1.)) ;
#35=DIRECTION('Axis2P3D XDirection',(0.,-1.,0.)) ;
#39=DIRECTION('Vector Direction',(0.,-1.,0.)) ;
#48=DIRECTION('Vector Direction',(-1.,0.,0.)) ;
#55=DIRECTION('Vector Direction',(0.,-1.,0.)) ;
#62=DIRECTION('Vector Direction',(-1.,0.,0.)) ;
#73=DIRECTION('Vector Direction',(-1.,0.,0.)) ;
#82=DIRECTION('Vector Direction',(0.,-1.,0.)) ;
#89=DIRECTION('Vector Direction',(-1.,0.,0.)) ;
#96=DIRECTION('Vector Direction',(0.,-1.,0.)) ;
#108=DIRECTION('Axis2P3D Direction',(1.,0.,0.)) ;
#109=DIRECTION('Axis2P3D XDirection',(0.,1.,0.)) ;
#113=DIRECTION('Vector Direction',(0.,0.,1.)) ;
#120=DIRECTION('Vector Direction',(0.,1.,0.)) ;
#127=DIRECTION('Vector Direction',(0.,0.,-1.)) ;
#139=DIRECTION('Axis2P3D Direction',(0.,1.,0.)) ;
#140=DIRECTION('Axis2P3D XDirection',(0.,0.,-1.)) ;
#144=DIRECTION('Vector Direction',(-1.,0.,0.)) ;
#151=DIRECTION('Vector Direction',(0.,0.,-1.)) ;
#163=DIRECTION('Axis2P3D Direction',(1.,0.,0.)) ;
#164=DIRECTION('Axis2P3D XDirection',(0.,1.,0.)) ;
#168=DIRECTION('Vector Direction',(0.,1.,0.)) ;
#175=DIRECTION('Vector Direction',(0.,0.,1.)) ;
#187=DIRECTION('Axis2P3D Direction',(0.,-1.,0.)) ;
#188=DIRECTION('Axis2P3D XDirection',(0.,0.,1.)) ;
#192=DIRECTION('Vector Direction',(-1.,0.,0.)) ;
#204=DIRECTION('Axis2P3D Direction',(0.,1.,0.)) ;
#205=DIRECTION('Axis2P3D XDirection',(0.,-0.,-1.)) ;
#209=DIRECTION('Vector Direction',(-1.,0.,0.)) ;
#218=DIRECTION('Vector Direction',(0.,0.,-1.)) ;
#223=DIRECTION('Vector Direction',(0.,0.,-1.)) ;
#235=DIRECTION('Axis2P3D Direction',(0.,-1.,0.)) ;
#236=DIRECTION('Axis2P3D XDirection',(0.,0.,1.)) ;
#240=DIRECTION('Vector Direction',(0.,0.,1.)) ;
#247=DIRECTION('Vector Direction',(-1.,0.,0.)) ;
#254=DIRECTION('Vector Direction',(0.,0.,1.)) ;
#266=DIRECTION('Axis2P3D Direction',(0.,-0.,1.)) ;
#267=DIRECTION('Axis2P3D XDirection',(0.,1.,0.)) ;
#278=DIRECTION('Axis2P3D Direction',(0.,-0.,1.)) ;
#279=DIRECTION('Axis2P3D XDirection',(0.,1.,0.)) ;
#283=DIRECTION('Vector Direction',(-1.,0.,0.)) ;
#292=DIRECTION('Vector Direction',(0.,1.,0.)) ;
#297=DIRECTION('Vector Direction',(0.,1.,0.)) ;
#309=DIRECTION('Vector Direction',(-1.,0.,0.)) ;
#318=DIRECTION('Vector Direction',(0.,1.,0.)) ;
#323=DIRECTION('Vector Direction',(0.,1.,0.)) ;
#335=DIRECTION('Vector Direction',(-1.,0.,0.)) ;
#344=DIRECTION('Vector Direction',(0.,1.,0.)) ;
#351=DIRECTION('Vector Direction',(-1.,0.,0.)) ;
#358=DIRECTION('Vector Direction',(0.,1.,0.)) ;
#370=DIRECTION('Axis2P3D Direction',(1.79873807763E-016,0.979187402648,-0.202958198889)) ;
#371=DIRECTION('Axis2P3D XDirection',(-3.72828162944E-017,-0.202958198889,-0.979187402648)) ;
#375=DIRECTION('Vector Direction',(0.,-0.202958198889,-0.979187402648)) ;
#382=DIRECTION('Vector Direction',(-1.,2.30695693429E-016,0.)) ;
#389=DIRECTION('Vector Direction',(0.,-0.202958198889,-0.979187402648)) ;
#401=DIRECTION('Axis2P3D Direction',(1.83697019872E-016,1.,3.03858167864E-063)) ;
#402=DIRECTION('Axis2P3D XDirection',(-2.58195522249E-032,4.74297479815E-048,-1.)) ;
#406=DIRECTION('Vector Direction',(-1.,2.30695693429E-016,0.)) ;
#415=DIRECTION('Vector Direction',(0.,0.,-1.)) ;
#420=DIRECTION('Vector Direction',(0.,0.,-1.)) ;
#432=DIRECTION('Axis2P3D Direction',(1.83697019872E-016,1.,3.03858167864E-063)) ;
#433=DIRECTION('Axis2P3D XDirection',(-2.58195522249E-032,4.74297479815E-048,-1.)) ;
#437=DIRECTION('Vector Direction',(0.,0.,-1.)) ;
#444=DIRECTION('Vector Direction',(0.,0.,-1.)) ;
#451=DIRECTION('Vector Direction',(-1.,0.,0.)) ;
#463=DIRECTION('Axis2P3D Direction',(1.79873807763E-016,0.979187402648,0.202958198889)) ;
#464=DIRECTION('Axis2P3D XDirection',(3.72828162944E-017,0.202958198889,-0.979187402648)) ;
#468=DIRECTION('Vector Direction',(0.,0.202958198889,-0.979187402648)) ;
#475=DIRECTION('Vector Direction',(-1.,0.,0.)) ;
#482=DIRECTION('Vector Direction',(0.,0.202958198889,-0.979187402648)) ;
#494=DIRECTION('Axis2P3D Direction',(0.,0.,1.)) ;
#495=DIRECTION('Axis2P3D XDirection',(1.83697019872E-016,1.,-0.)) ;
#499=DIRECTION('Vector Direction',(0.,1.,0.)) ;
#504=DIRECTION('Vector Direction',(0.,1.,0.)) ;
#516=DIRECTION('Vector Direction',(0.,1.,0.)) ;
#521=DIRECTION('Vector Direction',(0.,1.,0.)) ;
#533=DIRECTION('Axis2P3D Direction',(-1.,0.,0.)) ;
#534=DIRECTION('Axis2P3D XDirection',(0.,-1.,0.)) ;
#553=DIRECTION('Axis2P3D Direction',(-1.,0.,0.)) ;
#554=DIRECTION('Axis2P3D XDirection',(0.,-1.,0.)) ;
#31=PRESENTATION_LAYER_ASSIGNMENT('1',' ',(#22)) ;
#8=PRODUCT_RELATED_PRODUCT_CATEGORY('part',$,(#5)) ;
#7=PRODUCT_CATEGORY('part','specification') ;
#30=STYLED_ITEM(' ',(#29),#22) ;
#29=PRESENTATION_STYLE_ASSIGNMENT((#28)) ;
#28=SURFACE_STYLE_USAGE(.BOTH.,#27) ;
#27=SURFACE_SIDE_STYLE(' ',(#26)) ;
#26=SURFACE_STYLE_FILL_AREA(#25) ;
#25=FILL_AREA_STYLE(' ',(#24)) ;
#24=FILL_AREA_STYLE_COLOUR(' ',#23) ;
#40=VECTOR('Line Direction',#39,1.) ;
#49=VECTOR('Line Direction',#48,1.) ;
#56=VECTOR('Line Direction',#55,1.) ;
#63=VECTOR('Line Direction',#62,1.) ;
#74=VECTOR('Line Direction',#73,1.) ;
#83=VECTOR('Line Direction',#82,1.) ;
#90=VECTOR('Line Direction',#89,1.) ;
#97=VECTOR('Line Direction',#96,1.) ;
#114=VECTOR('Line Direction',#113,1.) ;
#121=VECTOR('Line Direction',#120,1.) ;
#128=VECTOR('Line Direction',#127,1.) ;
#145=VECTOR('Line Direction',#144,1.) ;
#152=VECTOR('Line Direction',#151,1.) ;
#169=VECTOR('Line Direction',#168,1.) ;
#176=VECTOR('Line Direction',#175,1.) ;
#193=VECTOR('Line Direction',#192,1.) ;
#210=VECTOR('Line Direction',#209,1.) ;
#219=VECTOR('Line Direction',#218,1.) ;
#224=VECTOR('Line Direction',#223,1.) ;
#241=VECTOR('Line Direction',#240,1.) ;
#248=VECTOR('Line Direction',#247,1.) ;
#255=VECTOR('Line Direction',#254,1.) ;
#284=VECTOR('Line Direction',#283,1.) ;
#293=VECTOR('Line Direction',#292,1.) ;
#298=VECTOR('Line Direction',#297,1.) ;
#310=VECTOR('Line Direction',#309,1.) ;
#319=VECTOR('Line Direction',#318,1.) ;
#324=VECTOR('Line Direction',#323,1.) ;
#336=VECTOR('Line Direction',#335,1.) ;
#345=VECTOR('Line Direction',#344,1.) ;
#352=VECTOR('Line Direction',#351,1.) ;
#359=VECTOR('Line Direction',#358,1.) ;
#376=VECTOR('Line Direction',#375,1.) ;
#383=VECTOR('Line Direction',#382,1.) ;
#390=VECTOR('Line Direction',#389,1.) ;
#407=VECTOR('Line Direction',#406,1.) ;
#416=VECTOR('Line Direction',#415,1.) ;
#421=VECTOR('Line Direction',#420,1.) ;
#438=VECTOR('Line Direction',#437,1.) ;
#445=VECTOR('Line Direction',#444,1.) ;
#452=VECTOR('Line Direction',#451,1.) ;
#469=VECTOR('Line Direction',#468,1.) ;
#476=VECTOR('Line Direction',#475,1.) ;
#483=VECTOR('Line Direction',#482,1.) ;
#500=VECTOR('Line Direction',#499,1.) ;
#505=VECTOR('Line Direction',#504,1.) ;
#517=VECTOR('Line Direction',#516,1.) ;
#522=VECTOR('Line Direction',#521,1.) ;
#16=UNCERTAINTY_MEASURE_WITH_UNIT(LENGTH_MEASURE(0.005),#12,'distance_accuracy_value','CONFUSED CURVE UNCERTAINTY') ;
#573=SHAPE_REPRESENTATION_RELATIONSHIP(' ',' ',#20,#572) ;
#67=ORIENTED_EDGE('',*,*,#46,.T.) ;
#68=ORIENTED_EDGE('',*,*,#53,.F.) ;
#69=ORIENTED_EDGE('',*,*,#60,.F.) ;
#70=ORIENTED_EDGE('',*,*,#65,.T.) ;
#101=ORIENTED_EDGE('',*,*,#80,.F.) ;
#102=ORIENTED_EDGE('',*,*,#87,.T.) ;
#103=ORIENTED_EDGE('',*,*,#94,.T.) ;
#104=ORIENTED_EDGE('',*,*,#99,.F.) ;
#132=ORIENTED_EDGE('',*,*,#118,.F.) ;
#133=ORIENTED_EDGE('',*,*,#125,.F.) ;
#134=ORIENTED_EDGE('',*,*,#130,.F.) ;
#135=ORIENTED_EDGE('',*,*,#46,.F.) ;
#156=ORIENTED_EDGE('',*,*,#130,.T.) ;
#157=ORIENTED_EDGE('',*,*,#149,.F.) ;
#158=ORIENTED_EDGE('',*,*,#154,.F.) ;
#159=ORIENTED_EDGE('',*,*,#53,.T.) ;
#180=ORIENTED_EDGE('',*,*,#60,.T.) ;
#181=ORIENTED_EDGE('',*,*,#154,.T.) ;
#182=ORIENTED_EDGE('',*,*,#173,.T.) ;
#183=ORIENTED_EDGE('',*,*,#178,.T.) ;
#197=ORIENTED_EDGE('',*,*,#118,.T.) ;
#198=ORIENTED_EDGE('',*,*,#65,.F.) ;
#199=ORIENTED_EDGE('',*,*,#178,.F.) ;
#200=ORIENTED_EDGE('',*,*,#195,.T.) ;
#228=ORIENTED_EDGE('',*,*,#216,.F.) ;
#229=ORIENTED_EDGE('',*,*,#221,.T.) ;
#230=ORIENTED_EDGE('',*,*,#80,.T.) ;
#231=ORIENTED_EDGE('',*,*,#226,.F.) ;
#259=ORIENTED_EDGE('',*,*,#94,.F.) ;
#260=ORIENTED_EDGE('',*,*,#245,.T.) ;
#261=ORIENTED_EDGE('',*,*,#252,.T.) ;
#262=ORIENTED_EDGE('',*,*,#257,.F.) ;
#271=ORIENTED_EDGE('',*,*,#125,.T.) ;
#272=ORIENTED_EDGE('',*,*,#195,.F.) ;
#273=ORIENTED_EDGE('',*,*,#173,.F.) ;
#274=ORIENTED_EDGE('',*,*,#149,.T.) ;
#302=ORIENTED_EDGE('',*,*,#290,.F.) ;
#303=ORIENTED_EDGE('',*,*,#295,.T.) ;
#304=ORIENTED_EDGE('',*,*,#216,.T.) ;
#305=ORIENTED_EDGE('',*,*,#300,.F.) ;
#328=ORIENTED_EDGE('',*,*,#316,.T.) ;
#329=ORIENTED_EDGE('',*,*,#321,.F.) ;
#330=ORIENTED_EDGE('',*,*,#252,.F.) ;
#331=ORIENTED_EDGE('',*,*,#326,.T.) ;
#363=ORIENTED_EDGE('',*,*,#342,.F.) ;
#364=ORIENTED_EDGE('',*,*,#349,.T.) ;
#365=ORIENTED_EDGE('',*,*,#356,.T.) ;
#366=ORIENTED_EDGE('',*,*,#361,.F.) ;
#394=ORIENTED_EDGE('',*,*,#356,.F.) ;
#395=ORIENTED_EDGE('',*,*,#380,.T.) ;
#396=ORIENTED_EDGE('',*,*,#387,.T.) ;
#397=ORIENTED_EDGE('',*,*,#392,.F.) ;
#425=ORIENTED_EDGE('',*,*,#413,.F.) ;
#426=ORIENTED_EDGE('',*,*,#418,.T.) ;
#427=ORIENTED_EDGE('',*,*,#290,.T.) ;
#428=ORIENTED_EDGE('',*,*,#423,.F.) ;
#456=ORIENTED_EDGE('',*,*,#442,.T.) ;
#457=ORIENTED_EDGE('',*,*,#316,.F.) ;
#458=ORIENTED_EDGE('',*,*,#449,.F.) ;
#459=ORIENTED_EDGE('',*,*,#454,.T.) ;
#487=ORIENTED_EDGE('',*,*,#473,.T.) ;
#488=ORIENTED_EDGE('',*,*,#480,.F.) ;
#489=ORIENTED_EDGE('',*,*,#485,.F.) ;
#490=ORIENTED_EDGE('',*,*,#342,.T.) ;
#509=ORIENTED_EDGE('',*,*,#387,.F.) ;
#510=ORIENTED_EDGE('',*,*,#502,.T.) ;
#511=ORIENTED_EDGE('',*,*,#413,.T.) ;
#512=ORIENTED_EDGE('',*,*,#507,.F.) ;
#526=ORIENTED_EDGE('',*,*,#519,.T.) ;
#527=ORIENTED_EDGE('',*,*,#454,.F.) ;
#528=ORIENTED_EDGE('',*,*,#524,.F.) ;
#529=ORIENTED_EDGE('',*,*,#480,.T.) ;
#538=ORIENTED_EDGE('',*,*,#245,.F.) ;
#539=ORIENTED_EDGE('',*,*,#87,.F.) ;
#540=ORIENTED_EDGE('',*,*,#221,.F.) ;
#541=ORIENTED_EDGE('',*,*,#295,.F.) ;
#542=ORIENTED_EDGE('',*,*,#418,.F.) ;
#543=ORIENTED_EDGE('',*,*,#502,.F.) ;
#544=ORIENTED_EDGE('',*,*,#380,.F.) ;
#545=ORIENTED_EDGE('',*,*,#349,.F.) ;
#546=ORIENTED_EDGE('',*,*,#485,.T.) ;
#547=ORIENTED_EDGE('',*,*,#524,.T.) ;
#548=ORIENTED_EDGE('',*,*,#449,.T.) ;
#549=ORIENTED_EDGE('',*,*,#326,.F.) ;
#558=ORIENTED_EDGE('',*,*,#321,.T.) ;
#559=ORIENTED_EDGE('',*,*,#442,.F.) ;
#560=ORIENTED_EDGE('',*,*,#519,.F.) ;
#561=ORIENTED_EDGE('',*,*,#473,.F.) ;
#562=ORIENTED_EDGE('',*,*,#361,.T.) ;
#563=ORIENTED_EDGE('',*,*,#392,.T.) ;
#564=ORIENTED_EDGE('',*,*,#507,.T.) ;
#565=ORIENTED_EDGE('',*,*,#423,.T.) ;
#566=ORIENTED_EDGE('',*,*,#300,.T.) ;
#567=ORIENTED_EDGE('',*,*,#226,.T.) ;
#568=ORIENTED_EDGE('',*,*,#99,.T.) ;
#569=ORIENTED_EDGE('',*,*,#257,.T.) ;
#105=FACE_BOUND('',#100,.T.) ;
#32=CLOSED_SHELL('Closed Shell',(#106,#137,#161,#185,#202,#233,#264,#276,#307,#333,#368,#399,#430,#461,#492,#514,#531,#551,#571)) ;
#572=ADVANCED_BREP_SHAPE_REPRESENTATION('NONE',(#22),#17) ;
#106=ADVANCED_FACE('S3D - gedreht',(#71,#105),#37,.T.) ;
#137=ADVANCED_FACE('S3D - gedreht',(#136),#111,.F.) ;
#161=ADVANCED_FACE('S3D - gedreht',(#160),#142,.T.) ;
#185=ADVANCED_FACE('S3D - gedreht',(#184),#166,.T.) ;
#202=ADVANCED_FACE('S3D - gedreht',(#201),#190,.T.) ;
#233=ADVANCED_FACE('S3D - gedreht',(#232),#207,.F.) ;
#264=ADVANCED_FACE('S3D - gedreht',(#263),#238,.F.) ;
#276=ADVANCED_FACE('S3D - gedreht',(#275),#269,.T.) ;
#307=ADVANCED_FACE('S3D - gedreht',(#306),#281,.F.) ;
#333=ADVANCED_FACE('S3D - gedreht',(#332),#281,.F.) ;
#368=ADVANCED_FACE('S3D - gedreht',(#367),#281,.F.) ;
#399=ADVANCED_FACE('S3D - gedreht',(#398),#373,.T.) ;
#430=ADVANCED_FACE('S3D - gedreht',(#429),#404,.F.) ;
#461=ADVANCED_FACE('S3D - gedreht',(#460),#435,.T.) ;
#492=ADVANCED_FACE('S3D - gedreht',(#491),#466,.F.) ;
#514=ADVANCED_FACE('S3D - gedreht',(#513),#497,.F.) ;
#531=ADVANCED_FACE('S3D - gedreht',(#530),#497,.F.) ;
#551=ADVANCED_FACE('S3D - gedreht',(#550),#536,.F.) ;
#571=ADVANCED_FACE('S3D - gedreht',(#570),#556,.T.) ;
#4=APPLICATION_PROTOCOL_DEFINITION('international standard','automotive_design',2001,#1) ;
#22=MANIFOLD_SOLID_BREP('S3D - gedreht',#32) ;
#23=DRAUGHTING_PRE_DEFINED_COLOUR('white') ;
#46=EDGE_CURVE('',#43,#45,#41,.F.) ;
#53=EDGE_CURVE('',#52,#45,#50,.T.) ;
#60=EDGE_CURVE('',#59,#52,#57,.F.) ;
#65=EDGE_CURVE('',#59,#43,#64,.T.) ;
#80=EDGE_CURVE('',#77,#79,#75,.T.) ;
#87=EDGE_CURVE('',#77,#86,#84,.F.) ;
#94=EDGE_CURVE('',#86,#93,#91,.T.) ;
#99=EDGE_CURVE('',#79,#93,#98,.F.) ;
#118=EDGE_CURVE('',#117,#43,#115,.F.) ;
#125=EDGE_CURVE('',#124,#117,#122,.F.) ;
#130=EDGE_CURVE('',#45,#124,#129,.F.) ;
#149=EDGE_CURVE('',#148,#124,#146,.T.) ;
#154=EDGE_CURVE('',#52,#148,#153,.F.) ;
#173=EDGE_CURVE('',#148,#172,#170,.F.) ;
#178=EDGE_CURVE('',#172,#59,#177,.F.) ;
#195=EDGE_CURVE('',#172,#117,#194,.T.) ;
#216=EDGE_CURVE('',#213,#215,#211,.T.) ;
#221=EDGE_CURVE('',#213,#77,#220,.F.) ;
#226=EDGE_CURVE('',#215,#79,#225,.F.) ;
#245=EDGE_CURVE('',#86,#244,#242,.F.) ;
#252=EDGE_CURVE('',#244,#251,#249,.T.) ;
#257=EDGE_CURVE('',#93,#251,#256,.F.) ;
#290=EDGE_CURVE('',#287,#289,#285,.T.) ;
#295=EDGE_CURVE('',#287,#213,#294,.F.) ;
#300=EDGE_CURVE('',#289,#215,#299,.F.) ;
#316=EDGE_CURVE('',#313,#315,#311,.T.) ;
#321=EDGE_CURVE('',#251,#315,#320,.F.) ;
#326=EDGE_CURVE('',#244,#313,#325,.F.) ;
#342=EDGE_CURVE('',#339,#341,#337,.T.) ;
#349=EDGE_CURVE('',#339,#348,#346,.F.) ;
#356=EDGE_CURVE('',#348,#355,#353,.T.) ;
#361=EDGE_CURVE('',#341,#355,#360,.F.) ;
#380=EDGE_CURVE('',#348,#379,#377,.T.) ;
#387=EDGE_CURVE('',#379,#386,#384,.T.) ;
#392=EDGE_CURVE('',#355,#386,#391,.T.) ;
#413=EDGE_CURVE('',#410,#412,#408,.T.) ;
#418=EDGE_CURVE('',#410,#287,#417,.F.) ;
#423=EDGE_CURVE('',#412,#289,#422,.F.) ;
#442=EDGE_CURVE('',#441,#315,#439,.F.) ;
#449=EDGE_CURVE('',#448,#313,#446,.F.) ;
#454=EDGE_CURVE('',#448,#441,#453,.T.) ;
#473=EDGE_CURVE('',#341,#472,#470,.T.) ;
#480=EDGE_CURVE('',#479,#472,#477,.T.) ;
#485=EDGE_CURVE('',#339,#479,#484,.T.) ;
#502=EDGE_CURVE('',#379,#410,#501,.F.) ;
#507=EDGE_CURVE('',#386,#412,#506,.F.) ;
#519=EDGE_CURVE('',#472,#441,#518,.T.) ;
#524=EDGE_CURVE('',#479,#448,#523,.T.) ;
#66=EDGE_LOOP('',(#67,#68,#69,#70)) ;
#100=EDGE_LOOP('',(#101,#102,#103,#104)) ;
#131=EDGE_LOOP('',(#132,#133,#134,#135)) ;
#155=EDGE_LOOP('',(#156,#157,#158,#159)) ;
#179=EDGE_LOOP('',(#180,#181,#182,#183)) ;
#196=EDGE_LOOP('',(#197,#198,#199,#200)) ;
#227=EDGE_LOOP('',(#228,#229,#230,#231)) ;
#258=EDGE_LOOP('',(#259,#260,#261,#262)) ;
#270=EDGE_LOOP('',(#271,#272,#273,#274)) ;
#301=EDGE_LOOP('',(#302,#303,#304,#305)) ;
#327=EDGE_LOOP('',(#328,#329,#330,#331)) ;
#362=EDGE_LOOP('',(#363,#364,#365,#366)) ;
#393=EDGE_LOOP('',(#394,#395,#396,#397)) ;
#424=EDGE_LOOP('',(#425,#426,#427,#428)) ;
#455=EDGE_LOOP('',(#456,#457,#458,#459)) ;
#486=EDGE_LOOP('',(#487,#488,#489,#490)) ;
#508=EDGE_LOOP('',(#509,#510,#511,#512)) ;
#525=EDGE_LOOP('',(#526,#527,#528,#529)) ;
#537=EDGE_LOOP('',(#538,#539,#540,#541,#542,#543,#544,#545,#546,#547,#548,#549)) ;
#557=EDGE_LOOP('',(#558,#559,#560,#561,#562,#563,#564,#565,#566,#567,#568,#569)) ;
#71=FACE_OUTER_BOUND('',#66,.T.) ;
#136=FACE_OUTER_BOUND('',#131,.T.) ;
#160=FACE_OUTER_BOUND('',#155,.T.) ;
#184=FACE_OUTER_BOUND('',#179,.T.) ;
#201=FACE_OUTER_BOUND('',#196,.T.) ;
#232=FACE_OUTER_BOUND('',#227,.T.) ;
#263=FACE_OUTER_BOUND('',#258,.T.) ;
#275=FACE_OUTER_BOUND('',#270,.T.) ;
#306=FACE_OUTER_BOUND('',#301,.T.) ;
#332=FACE_OUTER_BOUND('',#327,.T.) ;
#367=FACE_OUTER_BOUND('',#362,.T.) ;
#398=FACE_OUTER_BOUND('',#393,.T.) ;
#429=FACE_OUTER_BOUND('',#424,.T.) ;
#460=FACE_OUTER_BOUND('',#455,.T.) ;
#491=FACE_OUTER_BOUND('',#486,.T.) ;
#513=FACE_OUTER_BOUND('',#508,.T.) ;
#530=FACE_OUTER_BOUND('',#525,.T.) ;
#550=FACE_OUTER_BOUND('',#537,.T.) ;
#570=FACE_OUTER_BOUND('',#557,.T.) ;
#41=LINE('Line',#38,#40) ;
#50=LINE('Line',#47,#49) ;
#57=LINE('Line',#54,#56) ;
#64=LINE('Line',#61,#63) ;
#75=LINE('Line',#72,#74) ;
#84=LINE('Line',#81,#83) ;
#91=LINE('Line',#88,#90) ;
#98=LINE('Line',#95,#97) ;
#115=LINE('Line',#112,#114) ;
#122=LINE('Line',#119,#121) ;
#129=LINE('Line',#126,#128) ;
#146=LINE('Line',#143,#145) ;
#153=LINE('Line',#150,#152) ;
#170=LINE('Line',#167,#169) ;
#177=LINE('Line',#174,#176) ;
#194=LINE('Line',#191,#193) ;
#211=LINE('Line',#208,#210) ;
#220=LINE('Line',#217,#219) ;
#225=LINE('Line',#222,#224) ;
#242=LINE('Line',#239,#241) ;
#249=LINE('Line',#246,#248) ;
#256=LINE('Line',#253,#255) ;
#285=LINE('Line',#282,#284) ;
#294=LINE('Line',#291,#293) ;
#299=LINE('Line',#296,#298) ;
#311=LINE('Line',#308,#310) ;
#320=LINE('Line',#317,#319) ;
#325=LINE('Line',#322,#324) ;
#337=LINE('Line',#334,#336) ;
#346=LINE('Line',#343,#345) ;
#353=LINE('Line',#350,#352) ;
#360=LINE('Line',#357,#359) ;
#377=LINE('Line',#374,#376) ;
#384=LINE('Line',#381,#383) ;
#391=LINE('Line',#388,#390) ;
#408=LINE('Line',#405,#407) ;
#417=LINE('Line',#414,#416) ;
#422=LINE('Line',#419,#421) ;
#439=LINE('Line',#436,#438) ;
#446=LINE('Line',#443,#445) ;
#453=LINE('Line',#450,#452) ;
#470=LINE('Line',#467,#469) ;
#477=LINE('Line',#474,#476) ;
#484=LINE('Line',#481,#483) ;
#501=LINE('Line',#498,#500) ;
#506=LINE('Line',#503,#505) ;
#518=LINE('Line',#515,#517) ;
#523=LINE('Line',#520,#522) ;
#37=PLANE('',#36) ;
#111=PLANE('',#110) ;
#142=PLANE('',#141) ;
#166=PLANE('',#165) ;
#190=PLANE('',#189) ;
#207=PLANE('',#206) ;
#238=PLANE('',#237) ;
#269=PLANE('',#268) ;
#281=PLANE('',#280) ;
#373=PLANE('',#372) ;
#404=PLANE('',#403) ;
#435=PLANE('',#434) ;
#466=PLANE('',#465) ;
#497=PLANE('',#496) ;
#536=PLANE('',#535) ;
#556=PLANE('',#555) ;
#14=PLANE_ANGLE_MEASURE_WITH_UNIT(PLANE_ANGLE_MEASURE(0.0174532925199),#13) ;
#9=PRODUCT_CATEGORY_RELATIONSHIP(' ',' ',#7,#8) ;
#6=PRODUCT_DEFINITION_FORMATION_WITH_SPECIFIED_SOURCE('',' ',#5,.NOT_KNOWN.) ;
#21=SHAPE_DEFINITION_REPRESENTATION(#11,#20) ;
#43=VERTEX_POINT('',#42) ;
#45=VERTEX_POINT('',#44) ;
#52=VERTEX_POINT('',#51) ;
#59=VERTEX_POINT('',#58) ;
#77=VERTEX_POINT('',#76) ;
#79=VERTEX_POINT('',#78) ;
#86=VERTEX_POINT('',#85) ;
#93=VERTEX_POINT('',#92) ;
#117=VERTEX_POINT('',#116) ;
#124=VERTEX_POINT('',#123) ;
#148=VERTEX_POINT('',#147) ;
#172=VERTEX_POINT('',#171) ;
#213=VERTEX_POINT('',#212) ;
#215=VERTEX_POINT('',#214) ;
#244=VERTEX_POINT('',#243) ;
#251=VERTEX_POINT('',#250) ;
#287=VERTEX_POINT('',#286) ;
#289=VERTEX_POINT('',#288) ;
#313=VERTEX_POINT('',#312) ;
#315=VERTEX_POINT('',#314) ;
#339=VERTEX_POINT('',#338) ;
#341=VERTEX_POINT('',#340) ;
#348=VERTEX_POINT('',#347) ;
#355=VERTEX_POINT('',#354) ;
#379=VERTEX_POINT('',#378) ;
#386=VERTEX_POINT('',#385) ;
#410=VERTEX_POINT('',#409) ;
#412=VERTEX_POINT('',#411) ;
#441=VERTEX_POINT('',#440) ;
#448=VERTEX_POINT('',#447) ;
#472=VERTEX_POINT('',#471) ;
#479=VERTEX_POINT('',#478) ;
#12=(LENGTH_UNIT()NAMED_UNIT(*)SI_UNIT(.MILLI.,.METRE.)) ;
#13=(NAMED_UNIT(*)PLANE_ANGLE_UNIT()SI_UNIT($,.RADIAN.)) ;
#15=(NAMED_UNIT(*)SI_UNIT($,.STERADIAN.)SOLID_ANGLE_UNIT()) ;
#17=(GEOMETRIC_REPRESENTATION_CONTEXT(3)GLOBAL_UNCERTAINTY_ASSIGNED_CONTEXT((#16))GLOBAL_UNIT_ASSIGNED_CONTEXT((#12,#13,#15))REPRESENTATION_CONTEXT(' ',' ')) ;
ENDSEC;
END-ISO-10303-21;
