ISO-10303-21;
HEADER;
FILE_DESCRIPTION(('CATIA V5R19 STEP'),'2;1');

FILE_NAME ('D1454370_0', '2015-02-17T09:29:35+00:00', ('Weidmueller Interface'), ('Weidmueller'), 'CATIA Version 5 Release 20 SP 5 (IN-10)', 'CATIA V5 STEP AP214', 'none');

FILE_SCHEMA(('AUTOMOTIVE_DESIGN { 1 0 10303 214 1 1 1 1 }'));

ENDSEC;
/* file written by CATIA V5R20 */
DATA;
#5=PRODUCT('TM-I 20','','Leitermarkierer TM-I 20\X2\000A\X0\<Q-CHECKER_SEAL> Q-Checker Version 2.6.2  \X2\000A\X0\CATIA-Version         : Catia V5 R12 SP7 Build Date 05-11-2004.18.30\X2\000A\X0\Model size (in KByte) : 0\X2\000A\X0\Checking date         : 2008-09-29 08:50:08\X2\000A\X0\Checking profile      : ADMIN / Release_CATDrawings [CATPart]\X2\000A\X0\Model assessment      : In Ordnung (IO)\X2\000A\X0\Total weight sum      : 0\X2\000A\X0\<CROSS_CHECK_SUM>\X2\000A\X0\  <CHKSUM_DATE> 1910993230 </CHKSUM_DATE>\X2\000A\X0\  <CHKSUM_ENTITIES> 1116874864 </CHKSUM_ENTITIES>\X2\000A\X0\  <CHKSUM_PROFILE> 1875091983 </CHKSUM_PROFILE>\X2\000A\X0\  <CHKSUM_DIMENSION> -186917087 </CHKSUM_DIMENSION>\X2\000A\X0\  <CHKSUM_PROJINTERSEC> -896974048 </CHKSUM_PROJINTERSEC>\X2\000A\X0\  <CHKSUM_IDENTCRV> -896974048 </CHKSUM_IDENTCRV>\X2\000A\X0\  <CHKSUM_INFINITY> 138018827 </CHKSUM_INFINITY>\X2\000A\X0\</CROSS_CHECK_SUM>\X2\000A\X0\</Q-CHECKER_SEAL> \X2\000A\X0\',(#2)) ;
#2=PRODUCT_CONTEXT(' ',#1,'mechanical') ;
#1=APPLICATION_CONTEXT('automotive design') ;
#10=PRODUCT_DEFINITION('',' ',#6,#3) ;
#3=PRODUCT_DEFINITION_CONTEXT('part definition',#1,' ') ;
#11=PRODUCT_DEFINITION_SHAPE(' ',' ',#10) ;
#518=MECHANICAL_DESIGN_GEOMETRIC_PRESENTATION_REPRESENTATION(' ',(#30),#17) ;
#20=SHAPE_REPRESENTATION(' ',(#19),#17) ;
#19=AXIS2_PLACEMENT_3D(' ',#18,$,$) ;
#36=AXIS2_PLACEMENT_3D('Cylinder Axis2P3D',#33,#34,#35) ;
#49=AXIS2_PLACEMENT_3D('Circle Axis2P3D',#47,#48,$) ;
#63=AXIS2_PLACEMENT_3D('Circle Axis2P3D',#61,#62,$) ;
#76=AXIS2_PLACEMENT_3D('Cylinder Axis2P3D',#73,#74,#75) ;
#89=AXIS2_PLACEMENT_3D('Circle Axis2P3D',#87,#88,$) ;
#103=AXIS2_PLACEMENT_3D('Circle Axis2P3D',#101,#102,$) ;
#116=AXIS2_PLACEMENT_3D('Plane Axis2P3D',#113,#114,#115) ;
#129=AXIS2_PLACEMENT_3D('Circle Axis2P3D',#127,#128,$) ;
#143=AXIS2_PLACEMENT_3D('Circle Axis2P3D',#141,#142,$) ;
#157=AXIS2_PLACEMENT_3D('Circle Axis2P3D',#155,#156,$) ;
#171=AXIS2_PLACEMENT_3D('Circle Axis2P3D',#169,#170,$) ;
#186=AXIS2_PLACEMENT_3D('Circle Axis2P3D',#184,#185,$) ;
#213=AXIS2_PLACEMENT_3D('Plane Axis2P3D',#210,#211,#212) ;
#241=AXIS2_PLACEMENT_3D('Circle Axis2P3D',#239,#240,$) ;
#261=AXIS2_PLACEMENT_3D('Cylinder Axis2P3D',#258,#259,#260) ;
#283=AXIS2_PLACEMENT_3D('Cylinder Axis2P3D',#280,#281,#282) ;
#294=AXIS2_PLACEMENT_3D('Circle Axis2P3D',#292,#293,$) ;
#314=AXIS2_PLACEMENT_3D('Plane Axis2P3D',#311,#312,#313) ;
#338=AXIS2_PLACEMENT_3D('Cylinder Axis2P3D',#335,#336,#337) ;
#349=AXIS2_PLACEMENT_3D('Circle Axis2P3D',#347,#348,$) ;
#362=AXIS2_PLACEMENT_3D('Plane Axis2P3D',#359,#360,#361) ;
#386=AXIS2_PLACEMENT_3D('Cylinder Axis2P3D',#383,#384,#385) ;
#397=AXIS2_PLACEMENT_3D('Circle Axis2P3D',#395,#396,$) ;
#410=AXIS2_PLACEMENT_3D('Plane Axis2P3D',#407,#408,#409) ;
#434=AXIS2_PLACEMENT_3D('Cylinder Axis2P3D',#431,#432,#433) ;
#445=AXIS2_PLACEMENT_3D('Circle Axis2P3D',#443,#444,$) ;
#458=AXIS2_PLACEMENT_3D('Plane Axis2P3D',#455,#456,#457) ;
#475=AXIS2_PLACEMENT_3D('Plane Axis2P3D',#472,#473,#474) ;
#491=AXIS2_PLACEMENT_3D('Plane Axis2P3D',#488,#489,#490) ;
#505=AXIS2_PLACEMENT_3D('Plane Axis2P3D',#502,#503,#504) ;
#18=CARTESIAN_POINT(' ',(0.,0.,0.)) ;
#33=CARTESIAN_POINT('Axis2P3D Location',(2.,9.35,5.)) ;
#38=CARTESIAN_POINT('Line Origine',(2.,7.64412778908,0.3)) ;
#42=CARTESIAN_POINT('Vertex',(1.275,7.64412778908,0.3)) ;
#44=CARTESIAN_POINT('Vertex',(2.725,7.64412778908,0.3)) ;
#47=CARTESIAN_POINT('Axis2P3D Location',(1.275,9.35,5.)) ;
#51=CARTESIAN_POINT('Vertex',(1.275,11.0558722109,0.3)) ;
#54=CARTESIAN_POINT('Line Origine',(2.,11.0558722109,0.3)) ;
#58=CARTESIAN_POINT('Vertex',(2.725,11.0558722109,0.3)) ;
#61=CARTESIAN_POINT('Axis2P3D Location',(2.725,9.35,5.)) ;
#73=CARTESIAN_POINT('Axis2P3D Location',(2.,1.725,0.6)) ;
#78=CARTESIAN_POINT('Line Origine',(2.725,1.725,0.6)) ;
#82=CARTESIAN_POINT('Vertex',(2.725,1.725,0.9)) ;
#84=CARTESIAN_POINT('Vertex',(2.725,1.725,0.3)) ;
#87=CARTESIAN_POINT('Axis2P3D Location',(2.,1.725,0.9)) ;
#91=CARTESIAN_POINT('Vertex',(1.275,1.725,0.9)) ;
#94=CARTESIAN_POINT('Line Origine',(1.275,1.725,0.6)) ;
#98=CARTESIAN_POINT('Vertex',(1.275,1.725,0.3)) ;
#101=CARTESIAN_POINT('Axis2P3D Location',(2.,1.725,0.3)) ;
#113=CARTESIAN_POINT('Axis2P3D Location',(2.,-4.12433940232E-033,0.9)) ;
#118=CARTESIAN_POINT('Line Origine',(4.,9.85,0.9)) ;
#122=CARTESIAN_POINT('Vertex',(4.,0.4,0.9)) ;
#124=CARTESIAN_POINT('Vertex',(4.,19.3,0.9)) ;
#127=CARTESIAN_POINT('Axis2P3D Location',(3.6,0.4,0.9)) ;
#131=CARTESIAN_POINT('Vertex',(3.6,-9.79717439318E-017,0.9)) ;
#134=CARTESIAN_POINT('Line Origine',(2.,0.,0.9)) ;
#138=CARTESIAN_POINT('Vertex',(0.4,9.79717439318E-017,0.9)) ;
#141=CARTESIAN_POINT('Axis2P3D Location',(0.4,0.4,0.9)) ;
#145=CARTESIAN_POINT('Vertex',(1.7763568394E-015,0.4,0.9)) ;
#148=CARTESIAN_POINT('Line Origine',(2.44249065418E-015,9.85,0.9)) ;
#152=CARTESIAN_POINT('Vertex',(3.99680288865E-015,19.3,0.9)) ;
#155=CARTESIAN_POINT('Axis2P3D Location',(0.4,19.3,0.9)) ;
#159=CARTESIAN_POINT('Vertex',(0.4,19.7,0.9)) ;
#162=CARTESIAN_POINT('Line Origine',(2.,19.7,0.9)) ;
#166=CARTESIAN_POINT('Vertex',(3.6,19.7,0.9)) ;
#169=CARTESIAN_POINT('Axis2P3D Location',(3.6,19.3,0.9)) ;
#184=CARTESIAN_POINT('Axis2P3D Location',(2.,17.975,0.9)) ;
#188=CARTESIAN_POINT('Vertex',(1.275,17.975,0.9)) ;
#190=CARTESIAN_POINT('Vertex',(2.725,17.975,0.9)) ;
#193=CARTESIAN_POINT('Line Origine',(1.275,9.85,0.9)) ;
#198=CARTESIAN_POINT('Line Origine',(2.725,9.85,0.9)) ;
#210=CARTESIAN_POINT('Axis2P3D Location',(2.,-6.37397907631E-033,0.3)) ;
#215=CARTESIAN_POINT('Line Origine',(2.725,4.68456389454,0.3)) ;
#220=CARTESIAN_POINT('Line Origine',(1.275,4.68456389454,0.3)) ;
#232=CARTESIAN_POINT('Line Origine',(1.275,14.5154361055,0.3)) ;
#236=CARTESIAN_POINT('Vertex',(1.275,17.975,0.3)) ;
#239=CARTESIAN_POINT('Axis2P3D Location',(2.,17.975,0.3)) ;
#243=CARTESIAN_POINT('Vertex',(2.725,17.975,0.3)) ;
#246=CARTESIAN_POINT('Line Origine',(2.725,14.5154361055,0.3)) ;
#258=CARTESIAN_POINT('Axis2P3D Location',(2.,17.975,0.6)) ;
#263=CARTESIAN_POINT('Line Origine',(1.275,17.975,0.6)) ;
#268=CARTESIAN_POINT('Line Origine',(2.725,17.975,0.6)) ;
#280=CARTESIAN_POINT('Axis2P3D Location',(3.6,19.3,1.45)) ;
#285=CARTESIAN_POINT('Line Origine',(3.6,19.7,1.45)) ;
#289=CARTESIAN_POINT('Vertex',(3.6,19.7,2.)) ;
#292=CARTESIAN_POINT('Axis2P3D Location',(3.6,19.3,2.)) ;
#296=CARTESIAN_POINT('Vertex',(4.,19.3,2.)) ;
#299=CARTESIAN_POINT('Line Origine',(4.,19.3,1.45)) ;
#311=CARTESIAN_POINT('Axis2P3D Location',(3.6,19.7,2.)) ;
#316=CARTESIAN_POINT('Line Origine',(0.4,19.7,1.45)) ;
#320=CARTESIAN_POINT('Vertex',(0.4,19.7,2.)) ;
#323=CARTESIAN_POINT('Line Origine',(2.,19.7,2.)) ;
#335=CARTESIAN_POINT('Axis2P3D Location',(0.4,19.3,1.45)) ;
#340=CARTESIAN_POINT('Line Origine',(3.66373598126E-015,19.3,1.45)) ;
#344=CARTESIAN_POINT('Vertex',(3.99680288865E-015,19.3,2.)) ;
#347=CARTESIAN_POINT('Axis2P3D Location',(0.4,19.3,2.)) ;
#359=CARTESIAN_POINT('Axis2P3D Location',(1.7763568394E-015,0.4,2.)) ;
#364=CARTESIAN_POINT('Line Origine',(1.81003462638E-015,0.4,1.45)) ;
#368=CARTESIAN_POINT('Vertex',(1.7763568394E-015,0.4,2.)) ;
#371=CARTESIAN_POINT('Line Origine',(2.355002452E-015,9.85,2.)) ;
#383=CARTESIAN_POINT('Axis2P3D Location',(0.4,0.4,1.45)) ;
#388=CARTESIAN_POINT('Line Origine',(0.4,1.11022302463E-016,1.45)) ;
#392=CARTESIAN_POINT('Vertex',(0.4,9.79717439318E-017,2.)) ;
#395=CARTESIAN_POINT('Axis2P3D Location',(0.4,0.4,2.)) ;
#407=CARTESIAN_POINT('Axis2P3D Location',(0.4,9.79717439318E-017,2.)) ;
#412=CARTESIAN_POINT('Line Origine',(3.6,-9.79717439318E-017,1.45)) ;
#416=CARTESIAN_POINT('Vertex',(3.6,-9.79717439318E-017,2.)) ;
#419=CARTESIAN_POINT('Line Origine',(2.,1.23259516441E-032,2.)) ;
#431=CARTESIAN_POINT('Axis2P3D Location',(3.6,0.4,1.45)) ;
#436=CARTESIAN_POINT('Line Origine',(4.,0.4,1.45)) ;
#440=CARTESIAN_POINT('Vertex',(4.,0.4,2.)) ;
#443=CARTESIAN_POINT('Axis2P3D Location',(3.6,0.4,2.)) ;
#455=CARTESIAN_POINT('Axis2P3D Location',(4.,19.3,2.)) ;
#460=CARTESIAN_POINT('Line Origine',(4.,9.85,2.)) ;
#472=CARTESIAN_POINT('Axis2P3D Location',(2.,0.,2.)) ;
#488=CARTESIAN_POINT('Axis2P3D Location',(1.275,17.975,0.9)) ;
#502=CARTESIAN_POINT('Axis2P3D Location',(2.725,1.725,0.9)) ;
#34=DIRECTION('Axis2P3D Direction',(1.,-6.12323399574E-017,6.12323399574E-017)) ;
#35=DIRECTION('Axis2P3D XDirection',(3.66674901313E-017,-0.341174442185,-0.94)) ;
#39=DIRECTION('Vector Direction',(1.,0.,0.)) ;
#48=DIRECTION('Axis2P3D Direction',(1.,-6.12323399574E-017,6.12323399574E-017)) ;
#55=DIRECTION('Vector Direction',(1.,0.,0.)) ;
#62=DIRECTION('Axis2P3D Direction',(1.,-6.12323399574E-017,6.12323399574E-017)) ;
#74=DIRECTION('Axis2P3D Direction',(6.12323399574E-017,-3.74939945665E-033,-1.)) ;
#75=DIRECTION('Axis2P3D XDirection',(1.,2.22044604925E-016,6.12323399574E-017)) ;
#79=DIRECTION('Vector Direction',(0.,0.,-1.)) ;
#88=DIRECTION('Axis2P3D Direction',(6.12323399574E-017,-3.74939945665E-033,-1.)) ;
#95=DIRECTION('Vector Direction',(0.,0.,-1.)) ;
#102=DIRECTION('Axis2P3D Direction',(6.12323399574E-017,-3.74939945665E-033,-1.)) ;
#114=DIRECTION('Axis2P3D Direction',(-6.12323399574E-017,3.74939945665E-033,1.)) ;
#115=DIRECTION('Axis2P3D XDirection',(-6.12323399574E-017,-1.,0.)) ;
#119=DIRECTION('Vector Direction',(-4.69935671799E-017,-1.,0.)) ;
#128=DIRECTION('Axis2P3D Direction',(-6.12323399574E-017,3.74939945665E-033,1.)) ;
#135=DIRECTION('Vector Direction',(1.,-6.12323399574E-017,6.93889390391E-017)) ;
#142=DIRECTION('Axis2P3D Direction',(-6.12323399574E-017,3.74939945665E-033,1.)) ;
#149=DIRECTION('Vector Direction',(7.04903507699E-017,1.,0.)) ;
#156=DIRECTION('Axis2P3D Direction',(-6.12323399574E-017,3.74939945665E-033,1.)) ;
#163=DIRECTION('Vector Direction',(-1.,0.,-6.93889390391E-017)) ;
#170=DIRECTION('Axis2P3D Direction',(-6.12323399574E-017,3.74939945665E-033,1.)) ;
#185=DIRECTION('Axis2P3D Direction',(-6.12323399574E-017,3.74939945665E-033,1.)) ;
#194=DIRECTION('Vector Direction',(-5.465713352E-017,-1.,0.)) ;
#199=DIRECTION('Vector Direction',(5.465713352E-017,1.,0.)) ;
#211=DIRECTION('Axis2P3D Direction',(6.12323399574E-017,-3.74939945665E-033,-1.)) ;
#212=DIRECTION('Axis2P3D XDirection',(6.12323399574E-017,1.,0.)) ;
#216=DIRECTION('Vector Direction',(7.50261230497E-017,1.,0.)) ;
#221=DIRECTION('Vector Direction',(-7.50261230497E-017,-1.,0.)) ;
#233=DIRECTION('Vector Direction',(0.,-1.,0.)) ;
#240=DIRECTION('Axis2P3D Direction',(6.12323399574E-017,-3.74939945665E-033,-1.)) ;
#247=DIRECTION('Vector Direction',(0.,1.,0.)) ;
#259=DIRECTION('Axis2P3D Direction',(6.12323399574E-017,-3.74939945665E-033,-1.)) ;
#260=DIRECTION('Axis2P3D XDirection',(-1.,-1.22464679915E-016,-6.12323399574E-017)) ;
#264=DIRECTION('Vector Direction',(0.,0.,-1.)) ;
#269=DIRECTION('Vector Direction',(0.,0.,-1.)) ;
#281=DIRECTION('Axis2P3D Direction',(-6.12323399574E-017,3.74939945665E-033,1.)) ;
#282=DIRECTION('Axis2P3D XDirection',(1.,-1.22464679915E-016,6.12323399574E-017)) ;
#286=DIRECTION('Vector Direction',(0.,0.,1.)) ;
#293=DIRECTION('Axis2P3D Direction',(-6.12323399574E-017,3.74939945665E-033,1.)) ;
#300=DIRECTION('Vector Direction',(0.,0.,1.)) ;
#312=DIRECTION('Axis2P3D Direction',(-6.12323399574E-017,-1.,0.)) ;
#313=DIRECTION('Axis2P3D XDirection',(-1.,6.12323399574E-017,-6.12323399574E-017)) ;
#317=DIRECTION('Vector Direction',(5.04646829375E-017,0.,-1.)) ;
#324=DIRECTION('Vector Direction',(-1.,0.,-6.93889390391E-017)) ;
#336=DIRECTION('Axis2P3D Direction',(-6.12323399574E-017,3.74939945665E-033,1.)) ;
#337=DIRECTION('Axis2P3D XDirection',(1.83697019872E-016,1.,7.49879891331E-033)) ;
#341=DIRECTION('Vector Direction',(-1.00929365875E-016,0.,1.)) ;
#348=DIRECTION('Axis2P3D Direction',(-6.12323399574E-017,3.74939945665E-033,1.)) ;
#360=DIRECTION('Axis2P3D Direction',(-1.,6.12323399574E-017,-6.12323399574E-017)) ;
#361=DIRECTION('Axis2P3D XDirection',(6.12323399574E-017,1.,0.)) ;
#365=DIRECTION('Vector Direction',(6.12323399574E-017,0.,-1.)) ;
#372=DIRECTION('Vector Direction',(6.12323399574E-017,1.,0.)) ;
#384=DIRECTION('Axis2P3D Direction',(-6.12323399574E-017,3.74939945665E-033,1.)) ;
#385=DIRECTION('Axis2P3D XDirection',(-1.,2.44929359829E-016,-6.12323399574E-017)) ;
#389=DIRECTION('Vector Direction',(-1.00929365875E-016,0.,1.)) ;
#396=DIRECTION('Axis2P3D Direction',(-6.12323399574E-017,3.74939945665E-033,1.)) ;
#408=DIRECTION('Axis2P3D Direction',(6.12323399574E-017,1.,0.)) ;
#409=DIRECTION('Axis2P3D XDirection',(1.,-6.12323399574E-017,6.12323399574E-017)) ;
#413=DIRECTION('Vector Direction',(0.,0.,-1.)) ;
#420=DIRECTION('Vector Direction',(1.,-6.12323399574E-017,0.)) ;
#432=DIRECTION('Axis2P3D Direction',(-6.12323399574E-017,3.74939945665E-033,1.)) ;
#433=DIRECTION('Axis2P3D XDirection',(1.04899068467E-015,-1.,6.79815536723E-032)) ;
#437=DIRECTION('Vector Direction',(0.,0.,1.)) ;
#444=DIRECTION('Axis2P3D Direction',(-6.12323399574E-017,3.74939945665E-033,1.)) ;
#456=DIRECTION('Axis2P3D Direction',(1.,-6.12323399574E-017,6.12323399574E-017)) ;
#457=DIRECTION('Axis2P3D XDirection',(-6.12323399574E-017,-1.,0.)) ;
#461=DIRECTION('Vector Direction',(-7.04903507699E-017,-1.,0.)) ;
#473=DIRECTION('Axis2P3D Direction',(-6.12323399574E-017,3.74939945665E-033,1.)) ;
#474=DIRECTION('Axis2P3D XDirection',(-6.12323399574E-017,-1.,0.)) ;
#489=DIRECTION('Axis2P3D Direction',(1.,-6.12323399574E-017,6.12323399574E-017)) ;
#490=DIRECTION('Axis2P3D XDirection',(-6.12323399574E-017,-1.,0.)) ;
#503=DIRECTION('Axis2P3D Direction',(-1.,6.12323399574E-017,-6.12323399574E-017)) ;
#504=DIRECTION('Axis2P3D XDirection',(6.12323399574E-017,1.,0.)) ;
#31=PRESENTATION_LAYER_ASSIGNMENT('1',' ',(#22)) ;
#8=PRODUCT_RELATED_PRODUCT_CATEGORY('part',$,(#5)) ;
#7=PRODUCT_CATEGORY('part','specification') ;
#30=STYLED_ITEM(' ',(#29),#22) ;
#29=PRESENTATION_STYLE_ASSIGNMENT((#28)) ;
#28=SURFACE_STYLE_USAGE(.BOTH.,#27) ;
#27=SURFACE_SIDE_STYLE(' ',(#26)) ;
#26=SURFACE_STYLE_FILL_AREA(#25) ;
#25=FILL_AREA_STYLE(' ',(#24)) ;
#24=FILL_AREA_STYLE_COLOUR(' ',#23) ;
#40=VECTOR('Line Direction',#39,1.) ;
#56=VECTOR('Line Direction',#55,1.) ;
#80=VECTOR('Line Direction',#79,1.) ;
#96=VECTOR('Line Direction',#95,1.) ;
#120=VECTOR('Line Direction',#119,1.) ;
#136=VECTOR('Line Direction',#135,1.) ;
#150=VECTOR('Line Direction',#149,1.) ;
#164=VECTOR('Line Direction',#163,1.) ;
#195=VECTOR('Line Direction',#194,1.) ;
#200=VECTOR('Line Direction',#199,1.) ;
#217=VECTOR('Line Direction',#216,1.) ;
#222=VECTOR('Line Direction',#221,1.) ;
#234=VECTOR('Line Direction',#233,1.) ;
#248=VECTOR('Line Direction',#247,1.) ;
#265=VECTOR('Line Direction',#264,1.) ;
#270=VECTOR('Line Direction',#269,1.) ;
#287=VECTOR('Line Direction',#286,1.) ;
#301=VECTOR('Line Direction',#300,1.) ;
#318=VECTOR('Line Direction',#317,1.) ;
#325=VECTOR('Line Direction',#324,1.) ;
#342=VECTOR('Line Direction',#341,1.) ;
#366=VECTOR('Line Direction',#365,1.) ;
#373=VECTOR('Line Direction',#372,1.) ;
#390=VECTOR('Line Direction',#389,1.) ;
#414=VECTOR('Line Direction',#413,1.) ;
#421=VECTOR('Line Direction',#420,1.) ;
#438=VECTOR('Line Direction',#437,1.) ;
#462=VECTOR('Line Direction',#461,1.) ;
#16=UNCERTAINTY_MEASURE_WITH_UNIT(LENGTH_MEASURE(0.005),#12,'distance_accuracy_value','CONFUSED CURVE UNCERTAINTY') ;
#517=SHAPE_REPRESENTATION_RELATIONSHIP(' ',' ',#20,#516) ;
#67=ORIENTED_EDGE('',*,*,#46,.F.) ;
#68=ORIENTED_EDGE('',*,*,#53,.T.) ;
#69=ORIENTED_EDGE('',*,*,#60,.T.) ;
#70=ORIENTED_EDGE('',*,*,#65,.F.) ;
#107=ORIENTED_EDGE('',*,*,#86,.F.) ;
#108=ORIENTED_EDGE('',*,*,#93,.T.) ;
#109=ORIENTED_EDGE('',*,*,#100,.T.) ;
#110=ORIENTED_EDGE('',*,*,#105,.F.) ;
#175=ORIENTED_EDGE('',*,*,#126,.F.) ;
#176=ORIENTED_EDGE('',*,*,#133,.F.) ;
#177=ORIENTED_EDGE('',*,*,#140,.F.) ;
#178=ORIENTED_EDGE('',*,*,#147,.F.) ;
#179=ORIENTED_EDGE('',*,*,#154,.F.) ;
#180=ORIENTED_EDGE('',*,*,#161,.F.) ;
#181=ORIENTED_EDGE('',*,*,#168,.F.) ;
#182=ORIENTED_EDGE('',*,*,#173,.F.) ;
#204=ORIENTED_EDGE('',*,*,#192,.F.) ;
#205=ORIENTED_EDGE('',*,*,#197,.F.) ;
#206=ORIENTED_EDGE('',*,*,#93,.F.) ;
#207=ORIENTED_EDGE('',*,*,#202,.F.) ;
#226=ORIENTED_EDGE('',*,*,#219,.T.) ;
#227=ORIENTED_EDGE('',*,*,#105,.T.) ;
#228=ORIENTED_EDGE('',*,*,#224,.T.) ;
#229=ORIENTED_EDGE('',*,*,#46,.T.) ;
#252=ORIENTED_EDGE('',*,*,#238,.T.) ;
#253=ORIENTED_EDGE('',*,*,#245,.T.) ;
#254=ORIENTED_EDGE('',*,*,#250,.T.) ;
#255=ORIENTED_EDGE('',*,*,#60,.F.) ;
#274=ORIENTED_EDGE('',*,*,#267,.F.) ;
#275=ORIENTED_EDGE('',*,*,#192,.T.) ;
#276=ORIENTED_EDGE('',*,*,#272,.T.) ;
#277=ORIENTED_EDGE('',*,*,#245,.F.) ;
#305=ORIENTED_EDGE('',*,*,#173,.T.) ;
#306=ORIENTED_EDGE('',*,*,#291,.F.) ;
#307=ORIENTED_EDGE('',*,*,#298,.F.) ;
#308=ORIENTED_EDGE('',*,*,#303,.T.) ;
#329=ORIENTED_EDGE('',*,*,#168,.T.) ;
#330=ORIENTED_EDGE('',*,*,#322,.F.) ;
#331=ORIENTED_EDGE('',*,*,#327,.F.) ;
#332=ORIENTED_EDGE('',*,*,#291,.T.) ;
#353=ORIENTED_EDGE('',*,*,#161,.T.) ;
#354=ORIENTED_EDGE('',*,*,#346,.F.) ;
#355=ORIENTED_EDGE('',*,*,#351,.F.) ;
#356=ORIENTED_EDGE('',*,*,#322,.T.) ;
#377=ORIENTED_EDGE('',*,*,#154,.T.) ;
#378=ORIENTED_EDGE('',*,*,#370,.F.) ;
#379=ORIENTED_EDGE('',*,*,#375,.F.) ;
#380=ORIENTED_EDGE('',*,*,#346,.T.) ;
#401=ORIENTED_EDGE('',*,*,#147,.T.) ;
#402=ORIENTED_EDGE('',*,*,#394,.F.) ;
#403=ORIENTED_EDGE('',*,*,#399,.F.) ;
#404=ORIENTED_EDGE('',*,*,#370,.T.) ;
#425=ORIENTED_EDGE('',*,*,#140,.T.) ;
#426=ORIENTED_EDGE('',*,*,#418,.F.) ;
#427=ORIENTED_EDGE('',*,*,#423,.F.) ;
#428=ORIENTED_EDGE('',*,*,#394,.T.) ;
#449=ORIENTED_EDGE('',*,*,#133,.T.) ;
#450=ORIENTED_EDGE('',*,*,#442,.F.) ;
#451=ORIENTED_EDGE('',*,*,#447,.F.) ;
#452=ORIENTED_EDGE('',*,*,#418,.T.) ;
#466=ORIENTED_EDGE('',*,*,#126,.T.) ;
#467=ORIENTED_EDGE('',*,*,#303,.F.) ;
#468=ORIENTED_EDGE('',*,*,#464,.F.) ;
#469=ORIENTED_EDGE('',*,*,#442,.T.) ;
#478=ORIENTED_EDGE('',*,*,#298,.T.) ;
#479=ORIENTED_EDGE('',*,*,#327,.T.) ;
#480=ORIENTED_EDGE('',*,*,#351,.T.) ;
#481=ORIENTED_EDGE('',*,*,#375,.T.) ;
#482=ORIENTED_EDGE('',*,*,#399,.T.) ;
#483=ORIENTED_EDGE('',*,*,#423,.T.) ;
#484=ORIENTED_EDGE('',*,*,#447,.T.) ;
#485=ORIENTED_EDGE('',*,*,#464,.T.) ;
#494=ORIENTED_EDGE('',*,*,#224,.F.) ;
#495=ORIENTED_EDGE('',*,*,#100,.F.) ;
#496=ORIENTED_EDGE('',*,*,#197,.T.) ;
#497=ORIENTED_EDGE('',*,*,#267,.T.) ;
#498=ORIENTED_EDGE('',*,*,#238,.F.) ;
#499=ORIENTED_EDGE('',*,*,#53,.F.) ;
#508=ORIENTED_EDGE('',*,*,#65,.T.) ;
#509=ORIENTED_EDGE('',*,*,#250,.F.) ;
#510=ORIENTED_EDGE('',*,*,#272,.F.) ;
#511=ORIENTED_EDGE('',*,*,#202,.T.) ;
#512=ORIENTED_EDGE('',*,*,#86,.T.) ;
#513=ORIENTED_EDGE('',*,*,#219,.F.) ;
#208=FACE_BOUND('',#203,.T.) ;
#32=CLOSED_SHELL('Closed Shell',(#72,#112,#209,#231,#257,#279,#310,#334,#358,#382,#406,#430,#454,#471,#487,#501,#515)) ;
#516=ADVANCED_BREP_SHAPE_REPRESENTATION('NONE',(#22),#17) ;
#72=ADVANCED_FACE('S3D gedreht',(#71),#37,.T.) ;
#112=ADVANCED_FACE('S3D gedreht',(#111),#77,.T.) ;
#209=ADVANCED_FACE('S3D gedreht',(#183,#208),#117,.F.) ;
#231=ADVANCED_FACE('S3D gedreht',(#230),#214,.T.) ;
#257=ADVANCED_FACE('S3D gedreht',(#256),#214,.T.) ;
#279=ADVANCED_FACE('S3D gedreht',(#278),#262,.T.) ;
#310=ADVANCED_FACE('S3D gedreht',(#309),#284,.T.) ;
#334=ADVANCED_FACE('S3D gedreht',(#333),#315,.F.) ;
#358=ADVANCED_FACE('S3D gedreht',(#357),#339,.T.) ;
#382=ADVANCED_FACE('S3D gedreht',(#381),#363,.T.) ;
#406=ADVANCED_FACE('S3D gedreht',(#405),#387,.T.) ;
#430=ADVANCED_FACE('S3D gedreht',(#429),#411,.F.) ;
#454=ADVANCED_FACE('S3D gedreht',(#453),#435,.T.) ;
#471=ADVANCED_FACE('S3D gedreht',(#470),#459,.T.) ;
#487=ADVANCED_FACE('S3D gedreht',(#486),#476,.T.) ;
#501=ADVANCED_FACE('S3D gedreht',(#500),#492,.F.) ;
#515=ADVANCED_FACE('S3D gedreht',(#514),#506,.F.) ;
#4=APPLICATION_PROTOCOL_DEFINITION('international standard','automotive_design',2001,#1) ;
#22=MANIFOLD_SOLID_BREP('S3D gedreht',#32) ;
#50=CIRCLE('generated circle',#49,5.) ;
#64=CIRCLE('generated circle',#63,5.) ;
#90=CIRCLE('generated circle',#89,0.725) ;
#104=CIRCLE('generated circle',#103,0.725) ;
#130=CIRCLE('generated circle',#129,0.4) ;
#144=CIRCLE('generated circle',#143,0.4) ;
#158=CIRCLE('generated circle',#157,0.4) ;
#172=CIRCLE('generated circle',#171,0.4) ;
#187=CIRCLE('generated circle',#186,0.725) ;
#242=CIRCLE('generated circle',#241,0.725) ;
#295=CIRCLE('generated circle',#294,0.4) ;
#350=CIRCLE('generated circle',#349,0.4) ;
#398=CIRCLE('generated circle',#397,0.4) ;
#446=CIRCLE('generated circle',#445,0.4) ;
#37=CYLINDRICAL_SURFACE('generated cylinder',#36,5.) ;
#77=CYLINDRICAL_SURFACE('generated cylinder',#76,0.725) ;
#262=CYLINDRICAL_SURFACE('generated cylinder',#261,0.725) ;
#284=CYLINDRICAL_SURFACE('generated cylinder',#283,0.4) ;
#339=CYLINDRICAL_SURFACE('generated cylinder',#338,0.4) ;
#387=CYLINDRICAL_SURFACE('generated cylinder',#386,0.4) ;
#435=CYLINDRICAL_SURFACE('generated cylinder',#434,0.4) ;
#23=DRAUGHTING_PRE_DEFINED_COLOUR('green') ;
#46=EDGE_CURVE('',#43,#45,#41,.T.) ;
#53=EDGE_CURVE('',#43,#52,#50,.T.) ;
#60=EDGE_CURVE('',#52,#59,#57,.T.) ;
#65=EDGE_CURVE('',#45,#59,#64,.T.) ;
#86=EDGE_CURVE('',#83,#85,#81,.T.) ;
#93=EDGE_CURVE('',#83,#92,#90,.T.) ;
#100=EDGE_CURVE('',#92,#99,#97,.T.) ;
#105=EDGE_CURVE('',#85,#99,#104,.T.) ;
#126=EDGE_CURVE('',#123,#125,#121,.F.) ;
#133=EDGE_CURVE('',#132,#123,#130,.T.) ;
#140=EDGE_CURVE('',#139,#132,#137,.T.) ;
#147=EDGE_CURVE('',#146,#139,#144,.T.) ;
#154=EDGE_CURVE('',#153,#146,#151,.F.) ;
#161=EDGE_CURVE('',#160,#153,#158,.T.) ;
#168=EDGE_CURVE('',#167,#160,#165,.T.) ;
#173=EDGE_CURVE('',#125,#167,#172,.T.) ;
#192=EDGE_CURVE('',#189,#191,#187,.F.) ;
#197=EDGE_CURVE('',#92,#189,#196,.F.) ;
#202=EDGE_CURVE('',#191,#83,#201,.F.) ;
#219=EDGE_CURVE('',#45,#85,#218,.F.) ;
#224=EDGE_CURVE('',#99,#43,#223,.F.) ;
#238=EDGE_CURVE('',#52,#237,#235,.F.) ;
#245=EDGE_CURVE('',#237,#244,#242,.T.) ;
#250=EDGE_CURVE('',#244,#59,#249,.F.) ;
#267=EDGE_CURVE('',#189,#237,#266,.T.) ;
#272=EDGE_CURVE('',#191,#244,#271,.T.) ;
#291=EDGE_CURVE('',#290,#167,#288,.F.) ;
#298=EDGE_CURVE('',#297,#290,#295,.T.) ;
#303=EDGE_CURVE('',#297,#125,#302,.F.) ;
#322=EDGE_CURVE('',#321,#160,#319,.T.) ;
#327=EDGE_CURVE('',#290,#321,#326,.T.) ;
#346=EDGE_CURVE('',#345,#153,#343,.F.) ;
#351=EDGE_CURVE('',#321,#345,#350,.T.) ;
#370=EDGE_CURVE('',#369,#146,#367,.T.) ;
#375=EDGE_CURVE('',#345,#369,#374,.F.) ;
#394=EDGE_CURVE('',#393,#139,#391,.F.) ;
#399=EDGE_CURVE('',#369,#393,#398,.T.) ;
#418=EDGE_CURVE('',#417,#132,#415,.T.) ;
#423=EDGE_CURVE('',#393,#417,#422,.T.) ;
#442=EDGE_CURVE('',#441,#123,#439,.F.) ;
#447=EDGE_CURVE('',#417,#441,#446,.T.) ;
#464=EDGE_CURVE('',#441,#297,#463,.F.) ;
#66=EDGE_LOOP('',(#67,#68,#69,#70)) ;
#106=EDGE_LOOP('',(#107,#108,#109,#110)) ;
#174=EDGE_LOOP('',(#175,#176,#177,#178,#179,#180,#181,#182)) ;
#203=EDGE_LOOP('',(#204,#205,#206,#207)) ;
#225=EDGE_LOOP('',(#226,#227,#228,#229)) ;
#251=EDGE_LOOP('',(#252,#253,#254,#255)) ;
#273=EDGE_LOOP('',(#274,#275,#276,#277)) ;
#304=EDGE_LOOP('',(#305,#306,#307,#308)) ;
#328=EDGE_LOOP('',(#329,#330,#331,#332)) ;
#352=EDGE_LOOP('',(#353,#354,#355,#356)) ;
#376=EDGE_LOOP('',(#377,#378,#379,#380)) ;
#400=EDGE_LOOP('',(#401,#402,#403,#404)) ;
#424=EDGE_LOOP('',(#425,#426,#427,#428)) ;
#448=EDGE_LOOP('',(#449,#450,#451,#452)) ;
#465=EDGE_LOOP('',(#466,#467,#468,#469)) ;
#477=EDGE_LOOP('',(#478,#479,#480,#481,#482,#483,#484,#485)) ;
#493=EDGE_LOOP('',(#494,#495,#496,#497,#498,#499)) ;
#507=EDGE_LOOP('',(#508,#509,#510,#511,#512,#513)) ;
#71=FACE_OUTER_BOUND('',#66,.T.) ;
#111=FACE_OUTER_BOUND('',#106,.T.) ;
#183=FACE_OUTER_BOUND('',#174,.T.) ;
#230=FACE_OUTER_BOUND('',#225,.T.) ;
#256=FACE_OUTER_BOUND('',#251,.T.) ;
#278=FACE_OUTER_BOUND('',#273,.T.) ;
#309=FACE_OUTER_BOUND('',#304,.T.) ;
#333=FACE_OUTER_BOUND('',#328,.T.) ;
#357=FACE_OUTER_BOUND('',#352,.T.) ;
#381=FACE_OUTER_BOUND('',#376,.T.) ;
#405=FACE_OUTER_BOUND('',#400,.T.) ;
#429=FACE_OUTER_BOUND('',#424,.T.) ;
#453=FACE_OUTER_BOUND('',#448,.T.) ;
#470=FACE_OUTER_BOUND('',#465,.T.) ;
#486=FACE_OUTER_BOUND('',#477,.T.) ;
#500=FACE_OUTER_BOUND('',#493,.T.) ;
#514=FACE_OUTER_BOUND('',#507,.T.) ;
#41=LINE('Line',#38,#40) ;
#57=LINE('Line',#54,#56) ;
#81=LINE('Line',#78,#80) ;
#97=LINE('Line',#94,#96) ;
#121=LINE('Line',#118,#120) ;
#137=LINE('Line',#134,#136) ;
#151=LINE('Line',#148,#150) ;
#165=LINE('Line',#162,#164) ;
#196=LINE('Line',#193,#195) ;
#201=LINE('Line',#198,#200) ;
#218=LINE('Line',#215,#217) ;
#223=LINE('Line',#220,#222) ;
#235=LINE('Line',#232,#234) ;
#249=LINE('Line',#246,#248) ;
#266=LINE('Line',#263,#265) ;
#271=LINE('Line',#268,#270) ;
#288=LINE('Line',#285,#287) ;
#302=LINE('Line',#299,#301) ;
#319=LINE('Line',#316,#318) ;
#326=LINE('Line',#323,#325) ;
#343=LINE('Line',#340,#342) ;
#367=LINE('Line',#364,#366) ;
#374=LINE('Line',#371,#373) ;
#391=LINE('Line',#388,#390) ;
#415=LINE('Line',#412,#414) ;
#422=LINE('Line',#419,#421) ;
#439=LINE('Line',#436,#438) ;
#463=LINE('Line',#460,#462) ;
#117=PLANE('',#116) ;
#214=PLANE('',#213) ;
#315=PLANE('',#314) ;
#363=PLANE('',#362) ;
#411=PLANE('',#410) ;
#459=PLANE('',#458) ;
#476=PLANE('',#475) ;
#492=PLANE('',#491) ;
#506=PLANE('',#505) ;
#14=PLANE_ANGLE_MEASURE_WITH_UNIT(PLANE_ANGLE_MEASURE(0.0174532925199),#13) ;
#9=PRODUCT_CATEGORY_RELATIONSHIP(' ',' ',#7,#8) ;
#6=PRODUCT_DEFINITION_FORMATION_WITH_SPECIFIED_SOURCE('',' ',#5,.NOT_KNOWN.) ;
#21=SHAPE_DEFINITION_REPRESENTATION(#11,#20) ;
#43=VERTEX_POINT('',#42) ;
#45=VERTEX_POINT('',#44) ;
#52=VERTEX_POINT('',#51) ;
#59=VERTEX_POINT('',#58) ;
#83=VERTEX_POINT('',#82) ;
#85=VERTEX_POINT('',#84) ;
#92=VERTEX_POINT('',#91) ;
#99=VERTEX_POINT('',#98) ;
#123=VERTEX_POINT('',#122) ;
#125=VERTEX_POINT('',#124) ;
#132=VERTEX_POINT('',#131) ;
#139=VERTEX_POINT('',#138) ;
#146=VERTEX_POINT('',#145) ;
#153=VERTEX_POINT('',#152) ;
#160=VERTEX_POINT('',#159) ;
#167=VERTEX_POINT('',#166) ;
#189=VERTEX_POINT('',#188) ;
#191=VERTEX_POINT('',#190) ;
#237=VERTEX_POINT('',#236) ;
#244=VERTEX_POINT('',#243) ;
#290=VERTEX_POINT('',#289) ;
#297=VERTEX_POINT('',#296) ;
#321=VERTEX_POINT('',#320) ;
#345=VERTEX_POINT('',#344) ;
#369=VERTEX_POINT('',#368) ;
#393=VERTEX_POINT('',#392) ;
#417=VERTEX_POINT('',#416) ;
#441=VERTEX_POINT('',#440) ;
#12=(LENGTH_UNIT()NAMED_UNIT(*)SI_UNIT(.MILLI.,.METRE.)) ;
#13=(NAMED_UNIT(*)PLANE_ANGLE_UNIT()SI_UNIT($,.RADIAN.)) ;
#15=(NAMED_UNIT(*)SI_UNIT($,.STERADIAN.)SOLID_ANGLE_UNIT()) ;
#17=(GEOMETRIC_REPRESENTATION_CONTEXT(3)GLOBAL_UNCERTAINTY_ASSIGNED_CONTEXT((#16))GLOBAL_UNIT_ASSIGNED_CONTEXT((#12,#13,#15))REPRESENTATION_CONTEXT(' ',' ')) ;
ENDSEC;
END-ISO-10303-21;
