ISO-10303-21;
HEADER;
FILE_DESCRIPTION(('CATIA V5R19 STEP'),'2;1');

FILE_NAME ('D1451000_0', '2015-02-17T13:34:10+00:00', ('Weidmueller Interface'), ('Weidmueller'), 'CATIA Version 5 Release 20 SP 5 (IN-10)', 'CATIA V5 STEP AP214', 'none');

FILE_SCHEMA(('AUTOMOTIVE_DESIGN { 1 0 10303 214 1 1 1 1 }'));

ENDSEC;
/* file written by CATIA V5R20 */
DATA;
#5=PRODUCT('SM DIA 60-22','','GERAETEMARKIERER\X2\000D\X0\\X2\000A\X0\<Q-CHECKER_SEAL> Q-Checker Version 2.14.8  \X2\000A\X0\CATIA-Version         : Catia V5 R20 SP5 Build Date 01-14-2011.22.00\X2\000A\X0\Model size (in KByte) : 0\X2\000A\X0\Checking date         : 2012-01-18 15:57:30\X2\000A\X0\Checking profile      : ADMIN / Release_2D-3D [CATPart]\X2\000A\X0\Model assessment      : In Ordnung (IO)\X2\000A\X0\Total weight sum      : 0\X2\000A\X0\<CROSS_CHECK_SUM>\X2\000A\X0\  <CHKSUM_DATE> 1469892193 </CHKSUM_DATE>\X2\000A\X0\  <CHKSUM_ENTITIES> -1230260206 </CHKSUM_ENTITIES>\X2\000A\X0\  <CHKSUM_PROFILE> 1594213346 </CHKSUM_PROFILE>\X2\000A\X0\  <CHKSUM_DIMENSION> -186917087 </CHKSUM_DIMENSION>\X2\000A\X0\  <CHKSUM_PROJINTERSEC> -896974048 </CHKSUM_PROJINTERSEC>\X2\000A\X0\  <CHKSUM_IDENTCRV> -896974048 </CHKSUM_IDENTCRV>\X2\000A\X0\  <CHKSUM_INFINITY> 138018827 </CHKSUM_INFINITY>\X2\000A\X0\</CROSS_CHECK_SUM>\X2\000A\X0\</Q-CHECKER_SEAL> \X2\000A\X0\ \X2\000A\X0\ \X2\000D\X0\\X2\000A\X0\ \X2\000D\X0\\X2\000A\X0\ \X2\000D\X0\\X2\000A\X0\ \X2\000D\X0\\X2\000A\X0\ \X2\000D\X0\\X2\000A\X0\ \X2\000D\X0\\X2\000A\X0\ \X2\000D\X0\\X2\000A\X0\',(#2)) ;
#2=PRODUCT_CONTEXT(' ',#1,'mechanical') ;
#1=APPLICATION_CONTEXT('automotive design') ;
#10=PRODUCT_DEFINITION('52414',' ',#6,#3) ;
#3=PRODUCT_DEFINITION_CONTEXT('part definition',#1,' ') ;
#11=PRODUCT_DEFINITION_SHAPE(' ',' ',#10) ;
#426=MECHANICAL_DESIGN_GEOMETRIC_PRESENTATION_REPRESENTATION(' ',(#30),#17) ;
#20=SHAPE_REPRESENTATION(' ',(#19),#17) ;
#19=AXIS2_PLACEMENT_3D(' ',#18,$,$) ;
#36=AXIS2_PLACEMENT_3D('Cylinder Axis2P3D',#33,#34,#35) ;
#40=AXIS2_PLACEMENT_3D('Circle Axis2P3D',#38,#39,$) ;
#56=AXIS2_PLACEMENT_3D('Circle Axis2P3D',#54,#55,$) ;
#76=AXIS2_PLACEMENT_3D('Plane Axis2P3D',#73,#74,#75) ;
#80=AXIS2_PLACEMENT_3D('Circle Axis2P3D',#78,#79,$) ;
#112=AXIS2_PLACEMENT_3D('Circle Axis2P3D',#110,#111,$) ;
#119=AXIS2_PLACEMENT_3D('Circle Axis2P3D',#117,#118,$) ;
#126=AXIS2_PLACEMENT_3D('Circle Axis2P3D',#124,#125,$) ;
#141=AXIS2_PLACEMENT_3D('Cylinder Axis2P3D',#138,#139,#140) ;
#170=AXIS2_PLACEMENT_3D('Plane Axis2P3D',#167,#168,#169) ;
#178=AXIS2_PLACEMENT_3D('Circle Axis2P3D',#176,#177,$) ;
#187=AXIS2_PLACEMENT_3D('Circle Axis2P3D',#185,#186,$) ;
#198=AXIS2_PLACEMENT_3D('Plane Axis2P3D',#195,#196,#197) ;
#229=AXIS2_PLACEMENT_3D('Plane Axis2P3D',#226,#227,#228) ;
#253=AXIS2_PLACEMENT_3D('Plane Axis2P3D',#250,#251,#252) ;
#277=AXIS2_PLACEMENT_3D('Cylinder Axis2P3D',#274,#275,#276) ;
#281=AXIS2_PLACEMENT_3D('Circle Axis2P3D',#279,#280,$) ;
#301=AXIS2_PLACEMENT_3D('Cylinder Axis2P3D',#298,#299,#300) ;
#336=AXIS2_PLACEMENT_3D('Circle Axis2P3D',#334,#335,$) ;
#349=AXIS2_PLACEMENT_3D('Cylinder Axis2P3D',#346,#347,#348) ;
#392=AXIS2_PLACEMENT_3D('Cylinder Axis2P3D',#389,#390,#391) ;
#396=AXIS2_PLACEMENT_3D('Circle Axis2P3D',#394,#395,$) ;
#409=AXIS2_PLACEMENT_3D('Plane Axis2P3D',#406,#407,#408) ;
#18=CARTESIAN_POINT(' ',(0.,0.,0.)) ;
#33=CARTESIAN_POINT('Axis2P3D Location',(30.,30.,0.6)) ;
#38=CARTESIAN_POINT('Axis2P3D Location',(30.,30.,3.72529007642E-010)) ;
#42=CARTESIAN_POINT('Vertex',(60.,30.,3.72529007642E-010)) ;
#44=CARTESIAN_POINT('Vertex',(2.08148522294E-030,30.,3.72529007642E-010)) ;
#47=CARTESIAN_POINT('Line Origine',(2.08148522294E-030,30.,0.599999999627)) ;
#51=CARTESIAN_POINT('Vertex',(2.08148522294E-030,30.,1.19999999963)) ;
#54=CARTESIAN_POINT('Axis2P3D Location',(30.,30.,1.19999999963)) ;
#58=CARTESIAN_POINT('Vertex',(60.,30.,1.19999999963)) ;
#61=CARTESIAN_POINT('Line Origine',(60.,30.,0.599999999627)) ;
#73=CARTESIAN_POINT('Axis2P3D Location',(30.,30.,0.)) ;
#78=CARTESIAN_POINT('Axis2P3D Location',(30.,30.,-3.26311457627E-031)) ;
#87=CARTESIAN_POINT('Line Origine',(31.75,41.6815276928,7.15287274909E-016)) ;
#91=CARTESIAN_POINT('Vertex',(31.75,41.1130553856,6.80478385339E-016)) ;
#93=CARTESIAN_POINT('Vertex',(31.75,42.25,7.50096164478E-016)) ;
#96=CARTESIAN_POINT('Line Origine',(30.,42.25,7.50096164478E-016)) ;
#100=CARTESIAN_POINT('Vertex',(28.25,42.25,7.50096164478E-016)) ;
#103=CARTESIAN_POINT('Line Origine',(28.25,41.6815276928,7.15287274909E-016)) ;
#107=CARTESIAN_POINT('Vertex',(28.25,41.1130553856,6.80478385339E-016)) ;
#110=CARTESIAN_POINT('Axis2P3D Location',(30.0000000009,29.9999999994,-3.68784156952E-026)) ;
#114=CARTESIAN_POINT('Vertex',(18.75,30.,8.84069678575E-010)) ;
#117=CARTESIAN_POINT('Axis2P3D Location',(30.,30.,-1.08770485876E-031)) ;
#121=CARTESIAN_POINT('Vertex',(41.25,30.,-2.77493461425E-031)) ;
#124=CARTESIAN_POINT('Axis2P3D Location',(29.9999999991,29.9999999994,-3.68786060436E-026)) ;
#138=CARTESIAN_POINT('Axis2P3D Location',(30.,30.,0.6)) ;
#144=CARTESIAN_POINT('Control Point',(8.881784197E-016,30.,1.2)) ;
#145=CARTESIAN_POINT('Control Point',(-5.35324822665E-015,25.2876110196,1.19999999998)) ;
#146=CARTESIAN_POINT('Control Point',(0.925275412602,20.5752220392,1.19999999996)) ;
#147=CARTESIAN_POINT('Control Point',(2.77674067588,16.1053894904,1.19999999994)) ;
#148=CARTESIAN_POINT('Control Point',(8.13252804569,8.13252804569,1.19999999991)) ;
#149=CARTESIAN_POINT('Control Point',(16.1053894904,2.77674067588,1.19999999987)) ;
#150=CARTESIAN_POINT('Control Point',(20.5752220392,0.925275412602,1.19999999985)) ;
#151=CARTESIAN_POINT('Control Point',(30.,-0.925275412602,1.19999999981)) ;
#152=CARTESIAN_POINT('Control Point',(39.4247779608,0.925275412602,1.19999999978)) ;
#153=CARTESIAN_POINT('Control Point',(43.8946105096,2.77674067588,1.19999999976)) ;
#154=CARTESIAN_POINT('Control Point',(51.8674719543,8.13252804569,1.19999999972)) ;
#155=CARTESIAN_POINT('Control Point',(57.2232593241,16.1053894904,1.19999999968)) ;
#156=CARTESIAN_POINT('Control Point',(59.0747245874,20.5752220392,1.19999999966)) ;
#157=CARTESIAN_POINT('Control Point',(60.,25.2876110196,1.19999999965)) ;
#158=CARTESIAN_POINT('Control Point',(60.,30.,1.19999999963)) ;
#167=CARTESIAN_POINT('Axis2P3D Location',(30.,30.,1.2)) ;
#176=CARTESIAN_POINT('Axis2P3D Location',(30.,30.,1.2)) ;
#180=CARTESIAN_POINT('Vertex',(15.,30.,1.2)) ;
#182=CARTESIAN_POINT('Vertex',(45.,30.,1.2)) ;
#185=CARTESIAN_POINT('Axis2P3D Location',(30.,30.,1.2)) ;
#195=CARTESIAN_POINT('Axis2P3D Location',(31.75,30.,1.2)) ;
#200=CARTESIAN_POINT('Line Origine',(31.75,42.25,0.400000000186)) ;
#204=CARTESIAN_POINT('Vertex',(31.75,42.25,0.8)) ;
#207=CARTESIAN_POINT('Line Origine',(31.75,41.1130553856,0.400000000186)) ;
#211=CARTESIAN_POINT('Vertex',(31.75,41.1130553856,0.8)) ;
#214=CARTESIAN_POINT('Line Origine',(31.75,41.6815276928,0.799999999627)) ;
#226=CARTESIAN_POINT('Axis2P3D Location',(28.25,42.25,1.2)) ;
#231=CARTESIAN_POINT('Line Origine',(30.,42.25,0.799999999627)) ;
#235=CARTESIAN_POINT('Vertex',(28.25,42.25,0.8)) ;
#238=CARTESIAN_POINT('Line Origine',(28.25,42.25,0.400000000186)) ;
#250=CARTESIAN_POINT('Axis2P3D Location',(28.25,42.25,1.2)) ;
#255=CARTESIAN_POINT('Line Origine',(28.25,41.6815276928,0.799999999627)) ;
#259=CARTESIAN_POINT('Vertex',(28.25,41.1130553856,0.8)) ;
#262=CARTESIAN_POINT('Line Origine',(28.25,41.1130553856,0.400000000186)) ;
#274=CARTESIAN_POINT('Axis2P3D Location',(30.,30.,-0.21000000001)) ;
#279=CARTESIAN_POINT('Axis2P3D Location',(30.,30.,0.799999999766)) ;
#283=CARTESIAN_POINT('Vertex',(18.75,30.,0.8)) ;
#286=CARTESIAN_POINT('Line Origine',(18.75,30.,-0.210000000894)) ;
#298=CARTESIAN_POINT('Axis2P3D Location',(30.,30.,-0.21000000001)) ;
#304=CARTESIAN_POINT('Control Point',(18.75,30.,0.8)) ;
#305=CARTESIAN_POINT('Control Point',(18.75,28.2328541324,0.799999999988)) ;
#306=CARTESIAN_POINT('Control Point',(19.0969782797,26.4657082647,0.799999999977)) ;
#307=CARTESIAN_POINT('Control Point',(19.7912777535,24.7895210589,0.799999999965)) ;
#308=CARTESIAN_POINT('Control Point',(21.7996980171,21.7996980171,0.799999999942)) ;
#309=CARTESIAN_POINT('Control Point',(24.7895210589,19.7912777535,0.799999999918)) ;
#310=CARTESIAN_POINT('Control Point',(26.4657082647,19.0969782797,0.799999999907)) ;
#311=CARTESIAN_POINT('Control Point',(30.,18.4030217203,0.799999999883)) ;
#312=CARTESIAN_POINT('Control Point',(33.5342917353,19.0969782797,0.79999999986)) ;
#313=CARTESIAN_POINT('Control Point',(35.2104789411,19.7912777535,0.799999999848)) ;
#314=CARTESIAN_POINT('Control Point',(38.2003019829,21.7996980171,0.799999999825)) ;
#315=CARTESIAN_POINT('Control Point',(40.2087222465,24.7895210589,0.799999999802)) ;
#316=CARTESIAN_POINT('Control Point',(40.9030217203,26.4657082647,0.79999999979)) ;
#317=CARTESIAN_POINT('Control Point',(41.25,28.2328541324,0.799999999778)) ;
#318=CARTESIAN_POINT('Control Point',(41.25,30.,0.799999999766)) ;
#319=CARTESIAN_POINT('Vertex',(41.25,30.,0.799999999766)) ;
#322=CARTESIAN_POINT('Line Origine',(41.25,30.,-0.210000000894)) ;
#334=CARTESIAN_POINT('Axis2P3D Location',(30.,30.,0.799999999766)) ;
#346=CARTESIAN_POINT('Axis2P3D Location',(30.,30.,0.6)) ;
#352=CARTESIAN_POINT('Control Point',(15.,30.,0.8)) ;
#353=CARTESIAN_POINT('Control Point',(15.,27.6438055098,0.799999999963)) ;
#354=CARTESIAN_POINT('Control Point',(15.4626377063,25.2876110196,0.799999999925)) ;
#355=CARTESIAN_POINT('Control Point',(16.3883703379,23.0526947452,0.799999999888)) ;
#356=CARTESIAN_POINT('Control Point',(19.0662640228,19.0662640228,0.799999999814)) ;
#357=CARTESIAN_POINT('Control Point',(23.0526947452,16.3883703379,0.799999999739)) ;
#358=CARTESIAN_POINT('Control Point',(25.2876110196,15.4626377063,0.799999999702)) ;
#359=CARTESIAN_POINT('Control Point',(30.,14.5373622937,0.799999999627)) ;
#360=CARTESIAN_POINT('Control Point',(34.7123889804,15.4626377063,0.799999999553)) ;
#361=CARTESIAN_POINT('Control Point',(36.9473052548,16.3883703379,0.799999999516)) ;
#362=CARTESIAN_POINT('Control Point',(40.9337359772,19.0662640228,0.799999999441)) ;
#363=CARTESIAN_POINT('Control Point',(43.6116296621,23.0526947452,0.799999999367)) ;
#364=CARTESIAN_POINT('Control Point',(44.5373622937,25.2876110196,0.799999999329)) ;
#365=CARTESIAN_POINT('Control Point',(45.,27.6438055098,0.799999999292)) ;
#366=CARTESIAN_POINT('Control Point',(45.,30.,0.799999999255)) ;
#367=CARTESIAN_POINT('Vertex',(15.,30.,0.799999999255)) ;
#369=CARTESIAN_POINT('Vertex',(45.,30.,0.8)) ;
#372=CARTESIAN_POINT('Line Origine',(15.,30.,0.599999999627)) ;
#377=CARTESIAN_POINT('Line Origine',(45.,30.,0.599999999627)) ;
#389=CARTESIAN_POINT('Axis2P3D Location',(30.,30.,0.6)) ;
#394=CARTESIAN_POINT('Axis2P3D Location',(30.,30.,0.799999999255)) ;
#406=CARTESIAN_POINT('Axis2P3D Location',(30.,30.,0.8)) ;
#34=DIRECTION('Axis2P3D Direction',(-7.49879891333E-033,-6.12323399574E-017,1.)) ;
#35=DIRECTION('Axis2P3D XDirection',(1.,-1.22464679915E-016,0.)) ;
#39=DIRECTION('Axis2P3D Direction',(-7.49879891333E-033,-6.12323399574E-017,1.)) ;
#48=DIRECTION('Vector Direction',(0.,-6.12324413396E-017,1.)) ;
#55=DIRECTION('Axis2P3D Direction',(-7.49879891333E-033,-6.12323399574E-017,1.)) ;
#62=DIRECTION('Vector Direction',(0.,-6.12324413396E-017,1.)) ;
#74=DIRECTION('Axis2P3D Direction',(-7.49879891333E-033,-6.12323399574E-017,1.)) ;
#75=DIRECTION('Axis2P3D XDirection',(1.,-1.22464679915E-016,0.)) ;
#79=DIRECTION('Axis2P3D Direction',(-7.49879891333E-033,-6.12323399574E-017,1.)) ;
#88=DIRECTION('Vector Direction',(0.,1.,6.12323399574E-017)) ;
#97=DIRECTION('Vector Direction',(1.,0.,0.)) ;
#104=DIRECTION('Vector Direction',(0.,-1.,-6.12323399574E-017)) ;
#111=DIRECTION('Axis2P3D Direction',(-7.49879891333E-033,-6.12323399574E-017,1.)) ;
#118=DIRECTION('Axis2P3D Direction',(-7.49879891333E-033,-6.12323399574E-017,1.)) ;
#125=DIRECTION('Axis2P3D Direction',(-7.49879891333E-033,-6.12323399574E-017,1.)) ;
#139=DIRECTION('Axis2P3D Direction',(-7.49879891333E-033,-6.12323399574E-017,1.)) ;
#140=DIRECTION('Axis2P3D XDirection',(-1.,6.8901856968E-016,3.46914203823E-032)) ;
#168=DIRECTION('Axis2P3D Direction',(-7.49879891333E-033,-6.12323399574E-017,1.)) ;
#169=DIRECTION('Axis2P3D XDirection',(1.,-1.22464679915E-016,0.)) ;
#177=DIRECTION('Axis2P3D Direction',(-7.49879891333E-033,-6.12323399574E-017,1.)) ;
#186=DIRECTION('Axis2P3D Direction',(-7.49879891333E-033,-6.12323399574E-017,1.)) ;
#196=DIRECTION('Axis2P3D Direction',(-1.,1.22464679915E-016,0.)) ;
#197=DIRECTION('Axis2P3D XDirection',(1.22464679915E-016,1.,6.12323399574E-017)) ;
#201=DIRECTION('Vector Direction',(0.,0.,-1.)) ;
#208=DIRECTION('Vector Direction',(0.,0.,1.)) ;
#215=DIRECTION('Vector Direction',(0.,1.,0.)) ;
#227=DIRECTION('Axis2P3D Direction',(1.22464679915E-016,1.,6.12323399574E-017)) ;
#228=DIRECTION('Axis2P3D XDirection',(1.,-1.22464679915E-016,0.)) ;
#232=DIRECTION('Vector Direction',(1.,0.,0.)) ;
#239=DIRECTION('Vector Direction',(0.,0.,-1.)) ;
#251=DIRECTION('Axis2P3D Direction',(1.,-1.22464679915E-016,0.)) ;
#252=DIRECTION('Axis2P3D XDirection',(-1.22464679915E-016,-1.,-6.12323399574E-017)) ;
#256=DIRECTION('Vector Direction',(0.,-1.,0.)) ;
#263=DIRECTION('Vector Direction',(0.,0.,1.)) ;
#275=DIRECTION('Axis2P3D Direction',(-7.49879891333E-033,-6.12323399574E-017,1.)) ;
#276=DIRECTION('Axis2P3D XDirection',(1.,-1.22464679915E-016,0.)) ;
#280=DIRECTION('Axis2P3D Direction',(-7.49879891333E-033,-6.12323399574E-017,1.)) ;
#287=DIRECTION('Vector Direction',(0.,-6.12324413396E-017,1.)) ;
#299=DIRECTION('Axis2P3D Direction',(-7.49879891333E-033,-6.12323399574E-017,1.)) ;
#300=DIRECTION('Axis2P3D XDirection',(-1.,2.4492935983E-016,7.49879891331E-033)) ;
#323=DIRECTION('Vector Direction',(0.,-6.12324413396E-017,1.)) ;
#335=DIRECTION('Axis2P3D Direction',(-7.49879891333E-033,-6.12323399574E-017,1.)) ;
#347=DIRECTION('Axis2P3D Direction',(-7.49879891333E-033,-6.12323399574E-017,1.)) ;
#348=DIRECTION('Axis2P3D XDirection',(-1.,6.8901856968E-016,3.46914203823E-032)) ;
#373=DIRECTION('Vector Direction',(0.,-6.12324413396E-017,1.)) ;
#378=DIRECTION('Vector Direction',(0.,-6.12324413396E-017,1.)) ;
#390=DIRECTION('Axis2P3D Direction',(-7.49879891333E-033,-6.12323399574E-017,1.)) ;
#391=DIRECTION('Axis2P3D XDirection',(1.,-1.22464679915E-016,0.)) ;
#395=DIRECTION('Axis2P3D Direction',(-7.49879891333E-033,-6.12323399574E-017,1.)) ;
#407=DIRECTION('Axis2P3D Direction',(-7.49879891333E-033,-6.12323399574E-017,1.)) ;
#408=DIRECTION('Axis2P3D XDirection',(1.,-1.22464679915E-016,0.)) ;
#31=PRESENTATION_LAYER_ASSIGNMENT('1',' ',(#22)) ;
#8=PRODUCT_RELATED_PRODUCT_CATEGORY('part',$,(#5)) ;
#7=PRODUCT_CATEGORY('part','specification') ;
#30=STYLED_ITEM(' ',(#29),#22) ;
#29=PRESENTATION_STYLE_ASSIGNMENT((#28)) ;
#28=SURFACE_STYLE_USAGE(.BOTH.,#27) ;
#27=SURFACE_SIDE_STYLE(' ',(#26)) ;
#26=SURFACE_STYLE_FILL_AREA(#25) ;
#25=FILL_AREA_STYLE(' ',(#24)) ;
#24=FILL_AREA_STYLE_COLOUR(' ',#23) ;
#49=VECTOR('Line Direction',#48,1.) ;
#63=VECTOR('Line Direction',#62,1.) ;
#89=VECTOR('Line Direction',#88,1.) ;
#98=VECTOR('Line Direction',#97,1.) ;
#105=VECTOR('Line Direction',#104,1.) ;
#202=VECTOR('Line Direction',#201,1.) ;
#209=VECTOR('Line Direction',#208,1.) ;
#216=VECTOR('Line Direction',#215,1.) ;
#233=VECTOR('Line Direction',#232,1.) ;
#240=VECTOR('Line Direction',#239,1.) ;
#257=VECTOR('Line Direction',#256,1.) ;
#264=VECTOR('Line Direction',#263,1.) ;
#288=VECTOR('Line Direction',#287,1.) ;
#324=VECTOR('Line Direction',#323,1.) ;
#374=VECTOR('Line Direction',#373,1.) ;
#379=VECTOR('Line Direction',#378,1.) ;
#16=UNCERTAINTY_MEASURE_WITH_UNIT(LENGTH_MEASURE(0.005),#12,'distance_accuracy_value','CONFUSED CURVE UNCERTAINTY') ;
#425=SHAPE_REPRESENTATION_RELATIONSHIP(' ',' ',#20,#424) ;
#67=ORIENTED_EDGE('',*,*,#46,.T.) ;
#68=ORIENTED_EDGE('',*,*,#53,.F.) ;
#69=ORIENTED_EDGE('',*,*,#60,.F.) ;
#70=ORIENTED_EDGE('',*,*,#65,.T.) ;
#84=ORIENTED_EDGE('',*,*,#82,.F.) ;
#85=ORIENTED_EDGE('',*,*,#46,.F.) ;
#130=ORIENTED_EDGE('',*,*,#95,.T.) ;
#131=ORIENTED_EDGE('',*,*,#102,.T.) ;
#132=ORIENTED_EDGE('',*,*,#109,.T.) ;
#133=ORIENTED_EDGE('',*,*,#116,.T.) ;
#134=ORIENTED_EDGE('',*,*,#123,.T.) ;
#135=ORIENTED_EDGE('',*,*,#128,.T.) ;
#161=ORIENTED_EDGE('',*,*,#82,.T.) ;
#162=ORIENTED_EDGE('',*,*,#65,.F.) ;
#163=ORIENTED_EDGE('',*,*,#159,.F.) ;
#164=ORIENTED_EDGE('',*,*,#53,.T.) ;
#173=ORIENTED_EDGE('',*,*,#60,.T.) ;
#174=ORIENTED_EDGE('',*,*,#159,.T.) ;
#191=ORIENTED_EDGE('',*,*,#184,.F.) ;
#192=ORIENTED_EDGE('',*,*,#189,.F.) ;
#220=ORIENTED_EDGE('',*,*,#206,.T.) ;
#221=ORIENTED_EDGE('',*,*,#95,.F.) ;
#222=ORIENTED_EDGE('',*,*,#213,.T.) ;
#223=ORIENTED_EDGE('',*,*,#218,.T.) ;
#244=ORIENTED_EDGE('',*,*,#237,.F.) ;
#245=ORIENTED_EDGE('',*,*,#242,.T.) ;
#246=ORIENTED_EDGE('',*,*,#102,.F.) ;
#247=ORIENTED_EDGE('',*,*,#206,.F.) ;
#268=ORIENTED_EDGE('',*,*,#109,.F.) ;
#269=ORIENTED_EDGE('',*,*,#242,.F.) ;
#270=ORIENTED_EDGE('',*,*,#261,.T.) ;
#271=ORIENTED_EDGE('',*,*,#266,.F.) ;
#292=ORIENTED_EDGE('',*,*,#266,.T.) ;
#293=ORIENTED_EDGE('',*,*,#285,.T.) ;
#294=ORIENTED_EDGE('',*,*,#290,.F.) ;
#295=ORIENTED_EDGE('',*,*,#116,.F.) ;
#328=ORIENTED_EDGE('',*,*,#123,.F.) ;
#329=ORIENTED_EDGE('',*,*,#290,.T.) ;
#330=ORIENTED_EDGE('',*,*,#321,.T.) ;
#331=ORIENTED_EDGE('',*,*,#326,.F.) ;
#340=ORIENTED_EDGE('',*,*,#213,.F.) ;
#341=ORIENTED_EDGE('',*,*,#128,.F.) ;
#342=ORIENTED_EDGE('',*,*,#326,.T.) ;
#343=ORIENTED_EDGE('',*,*,#338,.T.) ;
#383=ORIENTED_EDGE('',*,*,#371,.F.) ;
#384=ORIENTED_EDGE('',*,*,#376,.F.) ;
#385=ORIENTED_EDGE('',*,*,#184,.T.) ;
#386=ORIENTED_EDGE('',*,*,#381,.T.) ;
#400=ORIENTED_EDGE('',*,*,#398,.F.) ;
#401=ORIENTED_EDGE('',*,*,#381,.F.) ;
#402=ORIENTED_EDGE('',*,*,#189,.T.) ;
#403=ORIENTED_EDGE('',*,*,#376,.T.) ;
#412=ORIENTED_EDGE('',*,*,#398,.T.) ;
#413=ORIENTED_EDGE('',*,*,#371,.T.) ;
#416=ORIENTED_EDGE('',*,*,#338,.F.) ;
#417=ORIENTED_EDGE('',*,*,#321,.F.) ;
#418=ORIENTED_EDGE('',*,*,#285,.F.) ;
#419=ORIENTED_EDGE('',*,*,#261,.F.) ;
#420=ORIENTED_EDGE('',*,*,#237,.T.) ;
#421=ORIENTED_EDGE('',*,*,#218,.F.) ;
#136=FACE_BOUND('',#129,.T.) ;
#193=FACE_BOUND('',#190,.T.) ;
#422=FACE_BOUND('',#415,.T.) ;
#32=CLOSED_SHELL('Closed Shell',(#72,#137,#166,#194,#225,#249,#273,#297,#333,#345,#388,#405,#423)) ;
#424=ADVANCED_BREP_SHAPE_REPRESENTATION('NONE',(#22),#17) ;
#72=ADVANCED_FACE('S3D - gedreht',(#71),#37,.T.) ;
#137=ADVANCED_FACE('S3D - gedreht',(#86,#136),#77,.F.) ;
#166=ADVANCED_FACE('S3D - gedreht',(#165),#142,.T.) ;
#194=ADVANCED_FACE('S3D - gedreht',(#175,#193),#171,.T.) ;
#225=ADVANCED_FACE('S3D - gedreht',(#224),#199,.T.) ;
#249=ADVANCED_FACE('S3D - gedreht',(#248),#230,.F.) ;
#273=ADVANCED_FACE('S3D - gedreht',(#272),#254,.T.) ;
#297=ADVANCED_FACE('S3D - gedreht',(#296),#278,.F.) ;
#333=ADVANCED_FACE('S3D - gedreht',(#332),#302,.F.) ;
#345=ADVANCED_FACE('S3D - gedreht',(#344),#278,.F.) ;
#388=ADVANCED_FACE('S3D - gedreht',(#387),#350,.F.) ;
#405=ADVANCED_FACE('S3D - gedreht',(#404),#393,.F.) ;
#423=ADVANCED_FACE('S3D - gedreht',(#414,#422),#410,.T.) ;
#4=APPLICATION_PROTOCOL_DEFINITION('international standard','automotive_design',2001,#1) ;
#143=B_SPLINE_CURVE_WITH_KNOTS('',5,(#144,#145,#146,#147,#148,#149,#150,#151,#152,#153,#154,#155,#156,#157,#158),.UNSPECIFIED.,.F.,.U.,(6,3,3,3,6),(-47.1238898038,-23.5619449019,0.,23.5619449019,47.1238898038),.UNSPECIFIED.) ;
#303=B_SPLINE_CURVE_WITH_KNOTS('',5,(#304,#305,#306,#307,#308,#309,#310,#311,#312,#313,#314,#315,#316,#317,#318),.UNSPECIFIED.,.F.,.U.,(6,3,3,3,6),(-17.6714586764,-8.83572933822,1.7763568394E-015,8.83572933822,17.6714586764),.UNSPECIFIED.) ;
#351=B_SPLINE_CURVE_WITH_KNOTS('',5,(#352,#353,#354,#355,#356,#357,#358,#359,#360,#361,#362,#363,#364,#365,#366),.UNSPECIFIED.,.F.,.U.,(6,3,3,3,6),(-23.5619449019,-11.780972451,0.,11.780972451,23.5619449019),.UNSPECIFIED.) ;
#22=MANIFOLD_SOLID_BREP('S3D - gedreht',#32) ;
#41=CIRCLE('generated circle',#40,30.) ;
#57=CIRCLE('generated circle',#56,30.) ;
#81=CIRCLE('generated circle',#80,30.) ;
#113=CIRCLE('generated circle',#112,11.2500000009) ;
#120=CIRCLE('generated circle',#119,11.25) ;
#127=CIRCLE('generated circle',#126,11.2500000009) ;
#179=CIRCLE('generated circle',#178,15.) ;
#188=CIRCLE('generated circle',#187,15.) ;
#282=CIRCLE('generated circle',#281,11.25) ;
#337=CIRCLE('generated circle',#336,11.25) ;
#397=CIRCLE('generated circle',#396,15.) ;
#37=CYLINDRICAL_SURFACE('generated cylinder',#36,30.) ;
#142=CYLINDRICAL_SURFACE('generated cylinder',#141,30.) ;
#278=CYLINDRICAL_SURFACE('generated cylinder',#277,11.25) ;
#302=CYLINDRICAL_SURFACE('generated cylinder',#301,11.25) ;
#350=CYLINDRICAL_SURFACE('generated cylinder',#349,15.) ;
#393=CYLINDRICAL_SURFACE('generated cylinder',#392,15.) ;
#23=DRAUGHTING_PRE_DEFINED_COLOUR('yellow') ;
#46=EDGE_CURVE('',#43,#45,#41,.T.) ;
#53=EDGE_CURVE('',#52,#45,#50,.F.) ;
#60=EDGE_CURVE('',#59,#52,#57,.T.) ;
#65=EDGE_CURVE('',#59,#43,#64,.F.) ;
#82=EDGE_CURVE('',#45,#43,#81,.T.) ;
#95=EDGE_CURVE('',#92,#94,#90,.T.) ;
#102=EDGE_CURVE('',#94,#101,#99,.F.) ;
#109=EDGE_CURVE('',#101,#108,#106,.T.) ;
#116=EDGE_CURVE('',#108,#115,#113,.T.) ;
#123=EDGE_CURVE('',#115,#122,#120,.T.) ;
#128=EDGE_CURVE('',#122,#92,#127,.T.) ;
#159=EDGE_CURVE('',#52,#59,#143,.T.) ;
#184=EDGE_CURVE('',#181,#183,#179,.T.) ;
#189=EDGE_CURVE('',#183,#181,#188,.T.) ;
#206=EDGE_CURVE('',#205,#94,#203,.T.) ;
#213=EDGE_CURVE('',#92,#212,#210,.T.) ;
#218=EDGE_CURVE('',#212,#205,#217,.T.) ;
#237=EDGE_CURVE('',#236,#205,#234,.T.) ;
#242=EDGE_CURVE('',#236,#101,#241,.T.) ;
#261=EDGE_CURVE('',#236,#260,#258,.T.) ;
#266=EDGE_CURVE('',#108,#260,#265,.T.) ;
#285=EDGE_CURVE('',#260,#284,#282,.T.) ;
#290=EDGE_CURVE('',#115,#284,#289,.T.) ;
#321=EDGE_CURVE('',#284,#320,#303,.T.) ;
#326=EDGE_CURVE('',#122,#320,#325,.T.) ;
#338=EDGE_CURVE('',#320,#212,#337,.T.) ;
#371=EDGE_CURVE('',#368,#370,#351,.T.) ;
#376=EDGE_CURVE('',#181,#368,#375,.F.) ;
#381=EDGE_CURVE('',#183,#370,#380,.F.) ;
#398=EDGE_CURVE('',#370,#368,#397,.T.) ;
#66=EDGE_LOOP('',(#67,#68,#69,#70)) ;
#83=EDGE_LOOP('',(#84,#85)) ;
#129=EDGE_LOOP('',(#130,#131,#132,#133,#134,#135)) ;
#160=EDGE_LOOP('',(#161,#162,#163,#164)) ;
#172=EDGE_LOOP('',(#173,#174)) ;
#190=EDGE_LOOP('',(#191,#192)) ;
#219=EDGE_LOOP('',(#220,#221,#222,#223)) ;
#243=EDGE_LOOP('',(#244,#245,#246,#247)) ;
#267=EDGE_LOOP('',(#268,#269,#270,#271)) ;
#291=EDGE_LOOP('',(#292,#293,#294,#295)) ;
#327=EDGE_LOOP('',(#328,#329,#330,#331)) ;
#339=EDGE_LOOP('',(#340,#341,#342,#343)) ;
#382=EDGE_LOOP('',(#383,#384,#385,#386)) ;
#399=EDGE_LOOP('',(#400,#401,#402,#403)) ;
#411=EDGE_LOOP('',(#412,#413)) ;
#415=EDGE_LOOP('',(#416,#417,#418,#419,#420,#421)) ;
#71=FACE_OUTER_BOUND('',#66,.T.) ;
#86=FACE_OUTER_BOUND('',#83,.T.) ;
#165=FACE_OUTER_BOUND('',#160,.T.) ;
#175=FACE_OUTER_BOUND('',#172,.T.) ;
#224=FACE_OUTER_BOUND('',#219,.T.) ;
#248=FACE_OUTER_BOUND('',#243,.T.) ;
#272=FACE_OUTER_BOUND('',#267,.T.) ;
#296=FACE_OUTER_BOUND('',#291,.T.) ;
#332=FACE_OUTER_BOUND('',#327,.T.) ;
#344=FACE_OUTER_BOUND('',#339,.T.) ;
#387=FACE_OUTER_BOUND('',#382,.T.) ;
#404=FACE_OUTER_BOUND('',#399,.T.) ;
#414=FACE_OUTER_BOUND('',#411,.T.) ;
#50=LINE('Line',#47,#49) ;
#64=LINE('Line',#61,#63) ;
#90=LINE('Line',#87,#89) ;
#99=LINE('Line',#96,#98) ;
#106=LINE('Line',#103,#105) ;
#203=LINE('Line',#200,#202) ;
#210=LINE('Line',#207,#209) ;
#217=LINE('Line',#214,#216) ;
#234=LINE('Line',#231,#233) ;
#241=LINE('Line',#238,#240) ;
#258=LINE('Line',#255,#257) ;
#265=LINE('Line',#262,#264) ;
#289=LINE('Line',#286,#288) ;
#325=LINE('Line',#322,#324) ;
#375=LINE('Line',#372,#374) ;
#380=LINE('Line',#377,#379) ;
#77=PLANE('',#76) ;
#171=PLANE('',#170) ;
#199=PLANE('',#198) ;
#230=PLANE('',#229) ;
#254=PLANE('',#253) ;
#410=PLANE('',#409) ;
#14=PLANE_ANGLE_MEASURE_WITH_UNIT(PLANE_ANGLE_MEASURE(0.0174532925199),#13) ;
#9=PRODUCT_CATEGORY_RELATIONSHIP(' ',' ',#7,#8) ;
#6=PRODUCT_DEFINITION_FORMATION_WITH_SPECIFIED_SOURCE('',' ',#5,.NOT_KNOWN.) ;
#21=SHAPE_DEFINITION_REPRESENTATION(#11,#20) ;
#43=VERTEX_POINT('',#42) ;
#45=VERTEX_POINT('',#44) ;
#52=VERTEX_POINT('',#51) ;
#59=VERTEX_POINT('',#58) ;
#92=VERTEX_POINT('',#91) ;
#94=VERTEX_POINT('',#93) ;
#101=VERTEX_POINT('',#100) ;
#108=VERTEX_POINT('',#107) ;
#115=VERTEX_POINT('',#114) ;
#122=VERTEX_POINT('',#121) ;
#181=VERTEX_POINT('',#180) ;
#183=VERTEX_POINT('',#182) ;
#205=VERTEX_POINT('',#204) ;
#212=VERTEX_POINT('',#211) ;
#236=VERTEX_POINT('',#235) ;
#260=VERTEX_POINT('',#259) ;
#284=VERTEX_POINT('',#283) ;
#320=VERTEX_POINT('',#319) ;
#368=VERTEX_POINT('',#367) ;
#370=VERTEX_POINT('',#369) ;
#12=(LENGTH_UNIT()NAMED_UNIT(*)SI_UNIT(.MILLI.,.METRE.)) ;
#13=(NAMED_UNIT(*)PLANE_ANGLE_UNIT()SI_UNIT($,.RADIAN.)) ;
#15=(NAMED_UNIT(*)SI_UNIT($,.STERADIAN.)SOLID_ANGLE_UNIT()) ;
#17=(GEOMETRIC_REPRESENTATION_CONTEXT(3)GLOBAL_UNCERTAINTY_ASSIGNED_CONTEXT((#16))GLOBAL_UNIT_ASSIGNED_CONTEXT((#12,#13,#15))REPRESENTATION_CONTEXT(' ',' ')) ;
ENDSEC;
END-ISO-10303-21;
