ISO-10303-21;
HEADER;
FILE_DESCRIPTION(('CATIA V5 STEP Exchange','CAx-IF Rec.Pracs.--- Model Styling and Organization---1.4--- 2014-01-23'),'2;1');

FILE_NAME ('D1448093_0_1065200000_1065200000.stp','2020-01-27T12:26:30+00:00',('none'),('Weidmueller'),'CATIA Version 5-6 Release 2016 SP3 HF44','CATIA V5 STEP AP214','none');

FILE_SCHEMA(('AUTOMOTIVE_DESIGN { 1 0 10303 214 1 1 1 1 }'));

ENDSEC;
DATA;
#5=PRODUCT('1065200000_WQL_2_WFF185','','',(#2)) ;
#2=PRODUCT_CONTEXT(' ',#1,'mechanical') ;
#1=APPLICATION_CONTEXT('automotive design') ;
#10=PRODUCT_DEFINITION('',' ',#6,#3) ;
#3=PRODUCT_DEFINITION_CONTEXT('part definition',#1,' ') ;
#11=PRODUCT_DEFINITION_SHAPE(' ',' ',#10) ;
#444=MECHANICAL_DESIGN_GEOMETRIC_PRESENTATION_REPRESENTATION(' ',(#29),#16) ;
#19=SHAPE_REPRESENTATION(' ',(#18),#16) ;
#18=AXIS2_PLACEMENT_3D(' ',#17,$,$) ;
#35=AXIS2_PLACEMENT_3D('Cylinder Axis2P3D',#32,#33,#34) ;
#39=AXIS2_PLACEMENT_3D('Circle Axis2P3D',#37,#38,$) ;
#55=AXIS2_PLACEMENT_3D('Circle Axis2P3D',#53,#54,$) ;
#74=AXIS2_PLACEMENT_3D('Circle Axis2P3D',#72,#73,$) ;
#79=AXIS2_PLACEMENT_3D('Circle Axis2P3D',#77,#78,$) ;
#92=AXIS2_PLACEMENT_3D('Plane Axis2P3D',#89,#90,#91) ;
#162=AXIS2_PLACEMENT_3D('Circle Axis2P3D',#160,#161,$) ;
#171=AXIS2_PLACEMENT_3D('Circle Axis2P3D',#169,#170,$) ;
#186=AXIS2_PLACEMENT_3D('Plane Axis2P3D',#183,#184,#185) ;
#217=AXIS2_PLACEMENT_3D('Plane Axis2P3D',#214,#215,#216) ;
#241=AXIS2_PLACEMENT_3D('Plane Axis2P3D',#238,#239,#240) ;
#265=AXIS2_PLACEMENT_3D('Plane Axis2P3D',#262,#263,#264) ;
#289=AXIS2_PLACEMENT_3D('Plane Axis2P3D',#286,#287,#288) ;
#313=AXIS2_PLACEMENT_3D('Plane Axis2P3D',#310,#311,#312) ;
#337=AXIS2_PLACEMENT_3D('Plane Axis2P3D',#334,#335,#336) ;
#361=AXIS2_PLACEMENT_3D('Plane Axis2P3D',#358,#359,#360) ;
#378=AXIS2_PLACEMENT_3D('Cylinder Axis2P3D',#375,#376,#377) ;
#382=AXIS2_PLACEMENT_3D('Circle Axis2P3D',#380,#381,$) ;
#408=AXIS2_PLACEMENT_3D('Circle Axis2P3D',#406,#407,$) ;
#421=AXIS2_PLACEMENT_3D('Plane Axis2P3D',#418,#419,#420) ;
#17=CARTESIAN_POINT(' ',(0.,0.,0.)) ;
#32=CARTESIAN_POINT('Axis2P3D Location',(75.,20.,0.1)) ;
#37=CARTESIAN_POINT('Axis2P3D Location',(75.,20.,0.)) ;
#41=CARTESIAN_POINT('Vertex',(69.2957133477,16.8837339991,-8.32667268469E-017)) ;
#43=CARTESIAN_POINT('Vertex',(80.7042866523,23.1162660009,-8.32667268469E-017)) ;
#46=CARTESIAN_POINT('Line Origine',(69.2957133477,16.8837339991,1.84499999998)) ;
#50=CARTESIAN_POINT('Vertex',(69.2957133477,16.8837339991,4.)) ;
#53=CARTESIAN_POINT('Axis2P3D Location',(75.,20.,4.)) ;
#57=CARTESIAN_POINT('Vertex',(80.7042866523,23.1162660009,4.)) ;
#60=CARTESIAN_POINT('Line Origine',(80.7042866523,23.1162660009,1.84499999998)) ;
#72=CARTESIAN_POINT('Axis2P3D Location',(75.,20.,0.)) ;
#77=CARTESIAN_POINT('Axis2P3D Location',(75.,20.,4.)) ;
#89=CARTESIAN_POINT('Axis2P3D Location',(0.,0.,4.)) ;
#94=CARTESIAN_POINT('Line Origine',(47.5,0.,4.)) ;
#98=CARTESIAN_POINT('Vertex',(2.,0.,4.)) ;
#100=CARTESIAN_POINT('Vertex',(93.,0.,4.)) ;
#103=CARTESIAN_POINT('Line Origine',(94.,0.999999999984,4.)) ;
#107=CARTESIAN_POINT('Vertex',(95.,1.99999999997,4.)) ;
#110=CARTESIAN_POINT('Line Origine',(95.,20.,4.)) ;
#114=CARTESIAN_POINT('Vertex',(95.,38.,4.)) ;
#117=CARTESIAN_POINT('Line Origine',(94.,39.,4.)) ;
#121=CARTESIAN_POINT('Vertex',(93.,40.,4.)) ;
#124=CARTESIAN_POINT('Line Origine',(47.5,40.,4.)) ;
#128=CARTESIAN_POINT('Vertex',(2.,40.,4.)) ;
#131=CARTESIAN_POINT('Line Origine',(1.,39.,4.)) ;
#135=CARTESIAN_POINT('Vertex',(-7.1054273576E-015,38.,4.)) ;
#138=CARTESIAN_POINT('Line Origine',(0.,20.,4.)) ;
#142=CARTESIAN_POINT('Vertex',(0.,1.99999999997,4.)) ;
#145=CARTESIAN_POINT('Line Origine',(1.,0.999999999984,4.)) ;
#160=CARTESIAN_POINT('Axis2P3D Location',(20.,20.,4.)) ;
#164=CARTESIAN_POINT('Vertex',(25.7042866523,23.1162660009,4.)) ;
#166=CARTESIAN_POINT('Vertex',(14.2957133477,16.8837339991,4.)) ;
#169=CARTESIAN_POINT('Axis2P3D Location',(20.,20.,4.)) ;
#183=CARTESIAN_POINT('Axis2P3D Location',(2.,0.,0.)) ;
#188=CARTESIAN_POINT('Line Origine',(2.,0.,2.)) ;
#192=CARTESIAN_POINT('Vertex',(2.,0.,0.)) ;
#195=CARTESIAN_POINT('Line Origine',(47.5,0.,0.)) ;
#199=CARTESIAN_POINT('Vertex',(93.,0.,0.)) ;
#202=CARTESIAN_POINT('Line Origine',(93.,0.,2.)) ;
#214=CARTESIAN_POINT('Axis2P3D Location',(93.,1.11022302463E-016,0.)) ;
#219=CARTESIAN_POINT('Line Origine',(94.,0.999999999984,0.)) ;
#223=CARTESIAN_POINT('Vertex',(95.,1.99999999997,0.)) ;
#226=CARTESIAN_POINT('Line Origine',(95.,1.99999999997,2.)) ;
#238=CARTESIAN_POINT('Axis2P3D Location',(95.,1.99999999997,0.)) ;
#243=CARTESIAN_POINT('Line Origine',(95.,20.,0.)) ;
#247=CARTESIAN_POINT('Vertex',(95.,38.,0.)) ;
#250=CARTESIAN_POINT('Line Origine',(95.,38.,2.)) ;
#262=CARTESIAN_POINT('Axis2P3D Location',(93.,40.,0.)) ;
#267=CARTESIAN_POINT('Line Origine',(94.,39.,0.)) ;
#271=CARTESIAN_POINT('Vertex',(93.,40.,0.)) ;
#274=CARTESIAN_POINT('Line Origine',(93.,40.,2.)) ;
#286=CARTESIAN_POINT('Axis2P3D Location',(93.,40.,0.)) ;
#291=CARTESIAN_POINT('Line Origine',(47.5,40.,0.)) ;
#295=CARTESIAN_POINT('Vertex',(2.,40.,0.)) ;
#298=CARTESIAN_POINT('Line Origine',(2.,40.,2.)) ;
#310=CARTESIAN_POINT('Axis2P3D Location',(2.,40.,0.)) ;
#315=CARTESIAN_POINT('Line Origine',(1.,39.,0.)) ;
#319=CARTESIAN_POINT('Vertex',(-7.1054273576E-015,38.,0.)) ;
#322=CARTESIAN_POINT('Line Origine',(-7.54951656745E-015,38.,2.)) ;
#334=CARTESIAN_POINT('Axis2P3D Location',(0.,38.,0.)) ;
#339=CARTESIAN_POINT('Line Origine',(0.,20.,0.)) ;
#343=CARTESIAN_POINT('Vertex',(0.,1.99999999997,0.)) ;
#346=CARTESIAN_POINT('Line Origine',(0.,1.99999999997,2.)) ;
#358=CARTESIAN_POINT('Axis2P3D Location',(2.,-3.44169137634E-015,0.)) ;
#363=CARTESIAN_POINT('Line Origine',(1.,0.999999999984,0.)) ;
#375=CARTESIAN_POINT('Axis2P3D Location',(20.,20.,0.1)) ;
#380=CARTESIAN_POINT('Axis2P3D Location',(20.,20.,0.)) ;
#384=CARTESIAN_POINT('Vertex',(14.2957133477,16.8837339991,-8.32667268469E-017)) ;
#386=CARTESIAN_POINT('Vertex',(25.7042866523,23.1162660009,-8.32667268469E-017)) ;
#389=CARTESIAN_POINT('Line Origine',(14.2957133477,16.8837339991,1.84499999998)) ;
#394=CARTESIAN_POINT('Line Origine',(25.7042866523,23.1162660009,1.84499999998)) ;
#406=CARTESIAN_POINT('Axis2P3D Location',(20.,20.,0.)) ;
#418=CARTESIAN_POINT('Axis2P3D Location',(0.,0.,0.)) ;
#33=DIRECTION('Axis2P3D Direction',(0.,0.,1.)) ;
#34=DIRECTION('Axis2P3D XDirection',(0.87758256189,0.479425538604,0.)) ;
#38=DIRECTION('Axis2P3D Direction',(0.,0.,1.)) ;
#47=DIRECTION('Vector Direction',(0.,0.,1.)) ;
#54=DIRECTION('Axis2P3D Direction',(0.,0.,1.)) ;
#61=DIRECTION('Vector Direction',(0.,0.,1.)) ;
#73=DIRECTION('Axis2P3D Direction',(0.,0.,1.)) ;
#78=DIRECTION('Axis2P3D Direction',(0.,0.,1.)) ;
#90=DIRECTION('Axis2P3D Direction',(0.,0.,1.)) ;
#91=DIRECTION('Axis2P3D XDirection',(1.,0.,0.)) ;
#95=DIRECTION('Vector Direction',(1.,0.,0.)) ;
#104=DIRECTION('Vector Direction',(0.707106781192,0.707106781181,0.)) ;
#111=DIRECTION('Vector Direction',(0.,1.,0.)) ;
#118=DIRECTION('Vector Direction',(0.707106781192,-0.707106781181,0.)) ;
#125=DIRECTION('Vector Direction',(-1.,0.,0.)) ;
#132=DIRECTION('Vector Direction',(-0.707106781192,-0.707106781181,0.)) ;
#139=DIRECTION('Vector Direction',(0.,-1.,0.)) ;
#146=DIRECTION('Vector Direction',(-0.707106781192,0.707106781181,0.)) ;
#161=DIRECTION('Axis2P3D Direction',(0.,0.,1.)) ;
#170=DIRECTION('Axis2P3D Direction',(0.,0.,1.)) ;
#184=DIRECTION('Axis2P3D Direction',(0.,-1.,0.)) ;
#185=DIRECTION('Axis2P3D XDirection',(1.,0.,0.)) ;
#189=DIRECTION('Vector Direction',(0.,0.,1.)) ;
#196=DIRECTION('Vector Direction',(1.,0.,0.)) ;
#203=DIRECTION('Vector Direction',(0.,0.,1.)) ;
#215=DIRECTION('Axis2P3D Direction',(0.707106781181,-0.707106781192,0.)) ;
#216=DIRECTION('Axis2P3D XDirection',(0.707106781192,0.707106781181,0.)) ;
#220=DIRECTION('Vector Direction',(0.707106781192,0.707106781181,0.)) ;
#227=DIRECTION('Vector Direction',(0.,0.,1.)) ;
#239=DIRECTION('Axis2P3D Direction',(1.,0.,0.)) ;
#240=DIRECTION('Axis2P3D XDirection',(0.,1.,0.)) ;
#244=DIRECTION('Vector Direction',(0.,1.,0.)) ;
#251=DIRECTION('Vector Direction',(0.,0.,1.)) ;
#263=DIRECTION('Axis2P3D Direction',(-0.707106781181,-0.707106781192,0.)) ;
#264=DIRECTION('Axis2P3D XDirection',(0.707106781192,-0.707106781181,0.)) ;
#268=DIRECTION('Vector Direction',(0.707106781192,-0.707106781181,0.)) ;
#275=DIRECTION('Vector Direction',(0.,0.,1.)) ;
#287=DIRECTION('Axis2P3D Direction',(0.,1.,-0.)) ;
#288=DIRECTION('Axis2P3D XDirection',(-1.,0.,0.)) ;
#292=DIRECTION('Vector Direction',(-1.,0.,0.)) ;
#299=DIRECTION('Vector Direction',(0.,0.,1.)) ;
#311=DIRECTION('Axis2P3D Direction',(-0.707106781181,0.707106781192,0.)) ;
#312=DIRECTION('Axis2P3D XDirection',(-0.707106781192,-0.707106781181,-0.)) ;
#316=DIRECTION('Vector Direction',(-0.707106781192,-0.707106781181,0.)) ;
#323=DIRECTION('Vector Direction',(0.,0.,1.)) ;
#335=DIRECTION('Axis2P3D Direction',(-1.,0.,0.)) ;
#336=DIRECTION('Axis2P3D XDirection',(0.,-1.,0.)) ;
#340=DIRECTION('Vector Direction',(0.,-1.,0.)) ;
#347=DIRECTION('Vector Direction',(0.,0.,1.)) ;
#359=DIRECTION('Axis2P3D Direction',(0.707106781181,0.707106781192,-0.)) ;
#360=DIRECTION('Axis2P3D XDirection',(-0.707106781192,0.707106781181,0.)) ;
#364=DIRECTION('Vector Direction',(-0.707106781192,0.707106781181,0.)) ;
#376=DIRECTION('Axis2P3D Direction',(0.,0.,1.)) ;
#377=DIRECTION('Axis2P3D XDirection',(0.87758256189,0.479425538604,0.)) ;
#381=DIRECTION('Axis2P3D Direction',(0.,0.,1.)) ;
#390=DIRECTION('Vector Direction',(0.,0.,1.)) ;
#395=DIRECTION('Vector Direction',(0.,0.,1.)) ;
#407=DIRECTION('Axis2P3D Direction',(0.,0.,1.)) ;
#419=DIRECTION('Axis2P3D Direction',(0.,0.,1.)) ;
#420=DIRECTION('Axis2P3D XDirection',(1.,0.,0.)) ;
#30=PRESENTATION_LAYER_ASSIGNMENT('1',' ',(#21)) ;
#8=PRODUCT_RELATED_PRODUCT_CATEGORY('part',$,(#5)) ;
#7=PRODUCT_CATEGORY('part','specification') ;
#29=STYLED_ITEM(' ',(#28),#21) ;
#28=PRESENTATION_STYLE_ASSIGNMENT((#27)) ;
#27=SURFACE_STYLE_USAGE(.BOTH.,#26) ;
#26=SURFACE_SIDE_STYLE(' ',(#25)) ;
#25=SURFACE_STYLE_FILL_AREA(#24) ;
#24=FILL_AREA_STYLE(' ',(#23)) ;
#23=FILL_AREA_STYLE_COLOUR(' ',#22) ;
#48=VECTOR('Line Direction',#47,1.) ;
#62=VECTOR('Line Direction',#61,1.) ;
#96=VECTOR('Line Direction',#95,1.) ;
#105=VECTOR('Line Direction',#104,1.) ;
#112=VECTOR('Line Direction',#111,1.) ;
#119=VECTOR('Line Direction',#118,1.) ;
#126=VECTOR('Line Direction',#125,1.) ;
#133=VECTOR('Line Direction',#132,1.) ;
#140=VECTOR('Line Direction',#139,1.) ;
#147=VECTOR('Line Direction',#146,1.) ;
#190=VECTOR('Line Direction',#189,1.) ;
#197=VECTOR('Line Direction',#196,1.) ;
#204=VECTOR('Line Direction',#203,1.) ;
#221=VECTOR('Line Direction',#220,1.) ;
#228=VECTOR('Line Direction',#227,1.) ;
#245=VECTOR('Line Direction',#244,1.) ;
#252=VECTOR('Line Direction',#251,1.) ;
#269=VECTOR('Line Direction',#268,1.) ;
#276=VECTOR('Line Direction',#275,1.) ;
#293=VECTOR('Line Direction',#292,1.) ;
#300=VECTOR('Line Direction',#299,1.) ;
#317=VECTOR('Line Direction',#316,1.) ;
#324=VECTOR('Line Direction',#323,1.) ;
#341=VECTOR('Line Direction',#340,1.) ;
#348=VECTOR('Line Direction',#347,1.) ;
#365=VECTOR('Line Direction',#364,1.) ;
#391=VECTOR('Line Direction',#390,1.) ;
#396=VECTOR('Line Direction',#395,1.) ;
#15=UNCERTAINTY_MEASURE_WITH_UNIT(LENGTH_MEASURE(0.005),#12,'distance_accuracy_value','CONFUSED CURVE UNCERTAINTY') ;
#443=SHAPE_REPRESENTATION_RELATIONSHIP(' ',' ',#19,#442) ;
#66=ORIENTED_EDGE('',*,*,#45,.F.) ;
#67=ORIENTED_EDGE('',*,*,#52,.F.) ;
#68=ORIENTED_EDGE('',*,*,#59,.T.) ;
#69=ORIENTED_EDGE('',*,*,#64,.T.) ;
#83=ORIENTED_EDGE('',*,*,#76,.F.) ;
#84=ORIENTED_EDGE('',*,*,#64,.F.) ;
#85=ORIENTED_EDGE('',*,*,#81,.T.) ;
#86=ORIENTED_EDGE('',*,*,#52,.T.) ;
#151=ORIENTED_EDGE('',*,*,#102,.T.) ;
#152=ORIENTED_EDGE('',*,*,#109,.T.) ;
#153=ORIENTED_EDGE('',*,*,#116,.T.) ;
#154=ORIENTED_EDGE('',*,*,#123,.T.) ;
#155=ORIENTED_EDGE('',*,*,#130,.T.) ;
#156=ORIENTED_EDGE('',*,*,#137,.T.) ;
#157=ORIENTED_EDGE('',*,*,#144,.T.) ;
#158=ORIENTED_EDGE('',*,*,#149,.T.) ;
#175=ORIENTED_EDGE('',*,*,#168,.F.) ;
#176=ORIENTED_EDGE('',*,*,#173,.F.) ;
#179=ORIENTED_EDGE('',*,*,#81,.F.) ;
#180=ORIENTED_EDGE('',*,*,#59,.F.) ;
#208=ORIENTED_EDGE('',*,*,#194,.F.) ;
#209=ORIENTED_EDGE('',*,*,#201,.T.) ;
#210=ORIENTED_EDGE('',*,*,#206,.T.) ;
#211=ORIENTED_EDGE('',*,*,#102,.F.) ;
#232=ORIENTED_EDGE('',*,*,#206,.F.) ;
#233=ORIENTED_EDGE('',*,*,#225,.T.) ;
#234=ORIENTED_EDGE('',*,*,#230,.T.) ;
#235=ORIENTED_EDGE('',*,*,#109,.F.) ;
#256=ORIENTED_EDGE('',*,*,#230,.F.) ;
#257=ORIENTED_EDGE('',*,*,#249,.T.) ;
#258=ORIENTED_EDGE('',*,*,#254,.T.) ;
#259=ORIENTED_EDGE('',*,*,#116,.F.) ;
#280=ORIENTED_EDGE('',*,*,#254,.F.) ;
#281=ORIENTED_EDGE('',*,*,#273,.T.) ;
#282=ORIENTED_EDGE('',*,*,#278,.T.) ;
#283=ORIENTED_EDGE('',*,*,#123,.F.) ;
#304=ORIENTED_EDGE('',*,*,#278,.F.) ;
#305=ORIENTED_EDGE('',*,*,#297,.T.) ;
#306=ORIENTED_EDGE('',*,*,#302,.T.) ;
#307=ORIENTED_EDGE('',*,*,#130,.F.) ;
#328=ORIENTED_EDGE('',*,*,#302,.F.) ;
#329=ORIENTED_EDGE('',*,*,#321,.T.) ;
#330=ORIENTED_EDGE('',*,*,#326,.T.) ;
#331=ORIENTED_EDGE('',*,*,#137,.F.) ;
#352=ORIENTED_EDGE('',*,*,#326,.F.) ;
#353=ORIENTED_EDGE('',*,*,#345,.T.) ;
#354=ORIENTED_EDGE('',*,*,#350,.T.) ;
#355=ORIENTED_EDGE('',*,*,#144,.F.) ;
#369=ORIENTED_EDGE('',*,*,#350,.F.) ;
#370=ORIENTED_EDGE('',*,*,#367,.T.) ;
#371=ORIENTED_EDGE('',*,*,#194,.T.) ;
#372=ORIENTED_EDGE('',*,*,#149,.F.) ;
#400=ORIENTED_EDGE('',*,*,#388,.F.) ;
#401=ORIENTED_EDGE('',*,*,#393,.F.) ;
#402=ORIENTED_EDGE('',*,*,#173,.T.) ;
#403=ORIENTED_EDGE('',*,*,#398,.T.) ;
#412=ORIENTED_EDGE('',*,*,#410,.F.) ;
#413=ORIENTED_EDGE('',*,*,#398,.F.) ;
#414=ORIENTED_EDGE('',*,*,#168,.T.) ;
#415=ORIENTED_EDGE('',*,*,#393,.T.) ;
#424=ORIENTED_EDGE('',*,*,#367,.F.) ;
#425=ORIENTED_EDGE('',*,*,#345,.F.) ;
#426=ORIENTED_EDGE('',*,*,#321,.F.) ;
#427=ORIENTED_EDGE('',*,*,#297,.F.) ;
#428=ORIENTED_EDGE('',*,*,#273,.F.) ;
#429=ORIENTED_EDGE('',*,*,#249,.F.) ;
#430=ORIENTED_EDGE('',*,*,#225,.F.) ;
#431=ORIENTED_EDGE('',*,*,#201,.F.) ;
#434=ORIENTED_EDGE('',*,*,#388,.T.) ;
#435=ORIENTED_EDGE('',*,*,#410,.T.) ;
#438=ORIENTED_EDGE('',*,*,#45,.T.) ;
#439=ORIENTED_EDGE('',*,*,#76,.T.) ;
#177=FACE_BOUND('',#174,.T.) ;
#181=FACE_BOUND('',#178,.T.) ;
#436=FACE_BOUND('',#433,.T.) ;
#440=FACE_BOUND('',#437,.T.) ;
#31=CLOSED_SHELL('Closed Shell',(#71,#88,#182,#213,#237,#261,#285,#309,#333,#357,#374,#405,#417,#441)) ;
#442=ADVANCED_BREP_SHAPE_REPRESENTATION('NONE',(#21),#16) ;
#71=ADVANCED_FACE('Hauptk\X2\00F6\X0\rper',(#70),#36,.F.) ;
#88=ADVANCED_FACE('Hauptk\X2\00F6\X0\rper',(#87),#36,.F.) ;
#182=ADVANCED_FACE('Hauptk\X2\00F6\X0\rper',(#159,#177,#181),#93,.T.) ;
#213=ADVANCED_FACE('Hauptk\X2\00F6\X0\rper',(#212),#187,.T.) ;
#237=ADVANCED_FACE('Hauptk\X2\00F6\X0\rper',(#236),#218,.T.) ;
#261=ADVANCED_FACE('Hauptk\X2\00F6\X0\rper',(#260),#242,.T.) ;
#285=ADVANCED_FACE('Hauptk\X2\00F6\X0\rper',(#284),#266,.F.) ;
#309=ADVANCED_FACE('Hauptk\X2\00F6\X0\rper',(#308),#290,.T.) ;
#333=ADVANCED_FACE('Hauptk\X2\00F6\X0\rper',(#332),#314,.T.) ;
#357=ADVANCED_FACE('Hauptk\X2\00F6\X0\rper',(#356),#338,.T.) ;
#374=ADVANCED_FACE('Hauptk\X2\00F6\X0\rper',(#373),#362,.F.) ;
#405=ADVANCED_FACE('Hauptk\X2\00F6\X0\rper',(#404),#379,.F.) ;
#417=ADVANCED_FACE('Hauptk\X2\00F6\X0\rper',(#416),#379,.F.) ;
#441=ADVANCED_FACE('Hauptk\X2\00F6\X0\rper',(#432,#436,#440),#422,.F.) ;
#4=APPLICATION_PROTOCOL_DEFINITION('international standard','automotive_design',2001,#1) ;
#21=MANIFOLD_SOLID_BREP('Hauptk\X2\00F6\X0\rper',#31) ;
#40=CIRCLE('generated circle',#39,6.5) ;
#56=CIRCLE('generated circle',#55,6.5) ;
#75=CIRCLE('generated circle',#74,6.5) ;
#80=CIRCLE('generated circle',#79,6.5) ;
#163=CIRCLE('generated circle',#162,6.5) ;
#172=CIRCLE('generated circle',#171,6.5) ;
#383=CIRCLE('generated circle',#382,6.5) ;
#409=CIRCLE('generated circle',#408,6.5) ;
#22=COLOUR_RGB('Colour',0.690196078431,0.690196078431,0.690196078431) ;
#36=CYLINDRICAL_SURFACE('generated cylinder',#35,6.5) ;
#379=CYLINDRICAL_SURFACE('generated cylinder',#378,6.5) ;
#45=EDGE_CURVE('',#42,#44,#40,.T.) ;
#52=EDGE_CURVE('',#51,#42,#49,.F.) ;
#59=EDGE_CURVE('',#51,#58,#56,.T.) ;
#64=EDGE_CURVE('',#58,#44,#63,.F.) ;
#76=EDGE_CURVE('',#44,#42,#75,.T.) ;
#81=EDGE_CURVE('',#58,#51,#80,.T.) ;
#102=EDGE_CURVE('',#99,#101,#97,.T.) ;
#109=EDGE_CURVE('',#101,#108,#106,.T.) ;
#116=EDGE_CURVE('',#108,#115,#113,.T.) ;
#123=EDGE_CURVE('',#115,#122,#120,.F.) ;
#130=EDGE_CURVE('',#122,#129,#127,.T.) ;
#137=EDGE_CURVE('',#129,#136,#134,.T.) ;
#144=EDGE_CURVE('',#136,#143,#141,.T.) ;
#149=EDGE_CURVE('',#143,#99,#148,.F.) ;
#168=EDGE_CURVE('',#165,#167,#163,.T.) ;
#173=EDGE_CURVE('',#167,#165,#172,.T.) ;
#194=EDGE_CURVE('',#193,#99,#191,.T.) ;
#201=EDGE_CURVE('',#193,#200,#198,.T.) ;
#206=EDGE_CURVE('',#200,#101,#205,.T.) ;
#225=EDGE_CURVE('',#200,#224,#222,.T.) ;
#230=EDGE_CURVE('',#224,#108,#229,.T.) ;
#249=EDGE_CURVE('',#224,#248,#246,.T.) ;
#254=EDGE_CURVE('',#248,#115,#253,.T.) ;
#273=EDGE_CURVE('',#248,#272,#270,.F.) ;
#278=EDGE_CURVE('',#272,#122,#277,.T.) ;
#297=EDGE_CURVE('',#272,#296,#294,.T.) ;
#302=EDGE_CURVE('',#296,#129,#301,.T.) ;
#321=EDGE_CURVE('',#296,#320,#318,.T.) ;
#326=EDGE_CURVE('',#320,#136,#325,.T.) ;
#345=EDGE_CURVE('',#320,#344,#342,.T.) ;
#350=EDGE_CURVE('',#344,#143,#349,.T.) ;
#367=EDGE_CURVE('',#344,#193,#366,.F.) ;
#388=EDGE_CURVE('',#385,#387,#383,.T.) ;
#393=EDGE_CURVE('',#167,#385,#392,.F.) ;
#398=EDGE_CURVE('',#165,#387,#397,.F.) ;
#410=EDGE_CURVE('',#387,#385,#409,.T.) ;
#65=EDGE_LOOP('',(#66,#67,#68,#69)) ;
#82=EDGE_LOOP('',(#83,#84,#85,#86)) ;
#150=EDGE_LOOP('',(#151,#152,#153,#154,#155,#156,#157,#158)) ;
#174=EDGE_LOOP('',(#175,#176)) ;
#178=EDGE_LOOP('',(#179,#180)) ;
#207=EDGE_LOOP('',(#208,#209,#210,#211)) ;
#231=EDGE_LOOP('',(#232,#233,#234,#235)) ;
#255=EDGE_LOOP('',(#256,#257,#258,#259)) ;
#279=EDGE_LOOP('',(#280,#281,#282,#283)) ;
#303=EDGE_LOOP('',(#304,#305,#306,#307)) ;
#327=EDGE_LOOP('',(#328,#329,#330,#331)) ;
#351=EDGE_LOOP('',(#352,#353,#354,#355)) ;
#368=EDGE_LOOP('',(#369,#370,#371,#372)) ;
#399=EDGE_LOOP('',(#400,#401,#402,#403)) ;
#411=EDGE_LOOP('',(#412,#413,#414,#415)) ;
#423=EDGE_LOOP('',(#424,#425,#426,#427,#428,#429,#430,#431)) ;
#433=EDGE_LOOP('',(#434,#435)) ;
#437=EDGE_LOOP('',(#438,#439)) ;
#70=FACE_OUTER_BOUND('',#65,.T.) ;
#87=FACE_OUTER_BOUND('',#82,.T.) ;
#159=FACE_OUTER_BOUND('',#150,.T.) ;
#212=FACE_OUTER_BOUND('',#207,.T.) ;
#236=FACE_OUTER_BOUND('',#231,.T.) ;
#260=FACE_OUTER_BOUND('',#255,.T.) ;
#284=FACE_OUTER_BOUND('',#279,.T.) ;
#308=FACE_OUTER_BOUND('',#303,.T.) ;
#332=FACE_OUTER_BOUND('',#327,.T.) ;
#356=FACE_OUTER_BOUND('',#351,.T.) ;
#373=FACE_OUTER_BOUND('',#368,.T.) ;
#404=FACE_OUTER_BOUND('',#399,.T.) ;
#416=FACE_OUTER_BOUND('',#411,.T.) ;
#432=FACE_OUTER_BOUND('',#423,.T.) ;
#49=LINE('Line',#46,#48) ;
#63=LINE('Line',#60,#62) ;
#97=LINE('Line',#94,#96) ;
#106=LINE('Line',#103,#105) ;
#113=LINE('Line',#110,#112) ;
#120=LINE('Line',#117,#119) ;
#127=LINE('Line',#124,#126) ;
#134=LINE('Line',#131,#133) ;
#141=LINE('Line',#138,#140) ;
#148=LINE('Line',#145,#147) ;
#191=LINE('Line',#188,#190) ;
#198=LINE('Line',#195,#197) ;
#205=LINE('Line',#202,#204) ;
#222=LINE('Line',#219,#221) ;
#229=LINE('Line',#226,#228) ;
#246=LINE('Line',#243,#245) ;
#253=LINE('Line',#250,#252) ;
#270=LINE('Line',#267,#269) ;
#277=LINE('Line',#274,#276) ;
#294=LINE('Line',#291,#293) ;
#301=LINE('Line',#298,#300) ;
#318=LINE('Line',#315,#317) ;
#325=LINE('Line',#322,#324) ;
#342=LINE('Line',#339,#341) ;
#349=LINE('Line',#346,#348) ;
#366=LINE('Line',#363,#365) ;
#392=LINE('Line',#389,#391) ;
#397=LINE('Line',#394,#396) ;
#93=PLANE('',#92) ;
#187=PLANE('',#186) ;
#218=PLANE('',#217) ;
#242=PLANE('',#241) ;
#266=PLANE('',#265) ;
#290=PLANE('',#289) ;
#314=PLANE('',#313) ;
#338=PLANE('',#337) ;
#362=PLANE('',#361) ;
#422=PLANE('',#421) ;
#9=PRODUCT_CATEGORY_RELATIONSHIP(' ',' ',#7,#8) ;
#6=PRODUCT_DEFINITION_FORMATION_WITH_SPECIFIED_SOURCE('',' ',#5,.NOT_KNOWN.) ;
#20=SHAPE_DEFINITION_REPRESENTATION(#11,#19) ;
#42=VERTEX_POINT('',#41) ;
#44=VERTEX_POINT('',#43) ;
#51=VERTEX_POINT('',#50) ;
#58=VERTEX_POINT('',#57) ;
#99=VERTEX_POINT('',#98) ;
#101=VERTEX_POINT('',#100) ;
#108=VERTEX_POINT('',#107) ;
#115=VERTEX_POINT('',#114) ;
#122=VERTEX_POINT('',#121) ;
#129=VERTEX_POINT('',#128) ;
#136=VERTEX_POINT('',#135) ;
#143=VERTEX_POINT('',#142) ;
#165=VERTEX_POINT('',#164) ;
#167=VERTEX_POINT('',#166) ;
#193=VERTEX_POINT('',#192) ;
#200=VERTEX_POINT('',#199) ;
#224=VERTEX_POINT('',#223) ;
#248=VERTEX_POINT('',#247) ;
#272=VERTEX_POINT('',#271) ;
#296=VERTEX_POINT('',#295) ;
#320=VERTEX_POINT('',#319) ;
#344=VERTEX_POINT('',#343) ;
#385=VERTEX_POINT('',#384) ;
#387=VERTEX_POINT('',#386) ;
#12=(LENGTH_UNIT()NAMED_UNIT(*)SI_UNIT(.MILLI.,.METRE.)) ;
#13=(NAMED_UNIT(*)PLANE_ANGLE_UNIT()SI_UNIT($,.RADIAN.)) ;
#14=(NAMED_UNIT(*)SI_UNIT($,.STERADIAN.)SOLID_ANGLE_UNIT()) ;
#16=(GEOMETRIC_REPRESENTATION_CONTEXT(3)GLOBAL_UNCERTAINTY_ASSIGNED_CONTEXT((#15))GLOBAL_UNIT_ASSIGNED_CONTEXT((#12,#13,#14))REPRESENTATION_CONTEXT(' ',' ')) ;
ENDSEC;
END-ISO-10303-21;
