ISO-10303-21;
HEADER;
FILE_DESCRIPTION(('CATIA V5R24 STEP','CAx-IF Rec.Pracs.--- Model Styling and Organization---1.2---2011-12-15'),'2;1');

FILE_NAME ('D1463252_0', '2018-02-12T14:34:09+00:00', ('Weidmueller Interface'), ('Weidmueller'), 'CATIA Version 5-6 Release 2014 SP4 HF52', 'CATIA V5 STEP AP214', 'none');

FILE_SCHEMA(('AUTOMOTIVE_DESIGN { 1 0 10303 214 1 1 1 1 }'));

ENDSEC;
DATA;
#5=PRODUCT('ESG 6/15 SDI 2 CO','','GERAETEMARKIERER\X2\000D\X0\\X2\000A\X0\',(#2)) ;
#2=PRODUCT_CONTEXT(' ',#1,'mechanical') ;
#1=APPLICATION_CONTEXT('automotive design') ;
#10=PRODUCT_DEFINITION('',' ',#6,#3) ;
#3=PRODUCT_DEFINITION_CONTEXT('part definition',#1,' ') ;
#11=PRODUCT_DEFINITION_SHAPE(' ',' ',#10) ;
#436=MECHANICAL_DESIGN_GEOMETRIC_PRESENTATION_REPRESENTATION(' ',(#29),#16) ;
#19=SHAPE_REPRESENTATION(' ',(#18),#16) ;
#18=AXIS2_PLACEMENT_3D(' ',#17,$,$) ;
#35=AXIS2_PLACEMENT_3D('Plane Axis2P3D',#32,#33,#34) ;
#75=AXIS2_PLACEMENT_3D('Plane Axis2P3D',#72,#73,#74) ;
#106=AXIS2_PLACEMENT_3D('Plane Axis2P3D',#103,#104,#105) ;
#130=AXIS2_PLACEMENT_3D('Plane Axis2P3D',#127,#128,#129) ;
#154=AXIS2_PLACEMENT_3D('Plane Axis2P3D',#151,#152,#153) ;
#194=AXIS2_PLACEMENT_3D('Plane Axis2P3D',#191,#192,#193) ;
#225=AXIS2_PLACEMENT_3D('Plane Axis2P3D',#222,#223,#224) ;
#249=AXIS2_PLACEMENT_3D('Plane Axis2P3D',#246,#247,#248) ;
#273=AXIS2_PLACEMENT_3D('Plane Axis2P3D',#270,#271,#272) ;
#366=AXIS2_PLACEMENT_3D('Plane Axis2P3D',#363,#364,#365) ;
#400=AXIS2_PLACEMENT_3D('Plane Axis2P3D',#397,#398,#399) ;
#417=AXIS2_PLACEMENT_3D('Plane Axis2P3D',#414,#415,#416) ;
#17=CARTESIAN_POINT(' ',(0.,0.,0.)) ;
#32=CARTESIAN_POINT('Axis2P3D Location',(7.5,3.,0.)) ;
#37=CARTESIAN_POINT('Line Origine',(13.5,5.4,-3.67394039744E-016)) ;
#41=CARTESIAN_POINT('Vertex',(13.75,6.,-3.82702124734E-016)) ;
#43=CARTESIAN_POINT('Vertex',(13.25,4.8,-3.52085954755E-016)) ;
#46=CARTESIAN_POINT('Line Origine',(11.25,4.8,-2.2962127484E-016)) ;
#50=CARTESIAN_POINT('Vertex',(9.25,4.8,-1.07156594925E-016)) ;
#53=CARTESIAN_POINT('Line Origine',(9.,5.4,-9.18485099361E-017)) ;
#57=CARTESIAN_POINT('Vertex',(8.75,6.,-7.65404249467E-017)) ;
#60=CARTESIAN_POINT('Line Origine',(11.25,6.,-2.2962127484E-016)) ;
#72=CARTESIAN_POINT('Axis2P3D Location',(8.75,6.,5.8)) ;
#77=CARTESIAN_POINT('Line Origine',(9.,5.4,5.8)) ;
#81=CARTESIAN_POINT('Vertex',(8.75,6.,5.8)) ;
#83=CARTESIAN_POINT('Vertex',(9.25,4.8,5.8)) ;
#86=CARTESIAN_POINT('Line Origine',(8.75,6.,2.9)) ;
#91=CARTESIAN_POINT('Line Origine',(9.25,4.8,2.9)) ;
#103=CARTESIAN_POINT('Axis2P3D Location',(5.75,4.8,5.8)) ;
#108=CARTESIAN_POINT('Line Origine',(13.25,4.8,2.9)) ;
#112=CARTESIAN_POINT('Vertex',(13.25,4.8,5.8)) ;
#115=CARTESIAN_POINT('Line Origine',(11.25,4.8,5.8)) ;
#127=CARTESIAN_POINT('Axis2P3D Location',(13.25,4.8,5.8)) ;
#132=CARTESIAN_POINT('Line Origine',(13.5,5.4,5.8)) ;
#136=CARTESIAN_POINT('Vertex',(13.75,6.,5.8)) ;
#139=CARTESIAN_POINT('Line Origine',(13.75,6.,2.9)) ;
#151=CARTESIAN_POINT('Axis2P3D Location',(0.,-4.4408920985E-016,7.)) ;
#156=CARTESIAN_POINT('Line Origine',(7.5,1.51533398302E-017,5.8)) ;
#160=CARTESIAN_POINT('Vertex',(0.,-4.5924254968E-016,5.8)) ;
#162=CARTESIAN_POINT('Vertex',(15.,4.5924254968E-016,5.8)) ;
#165=CARTESIAN_POINT('Line Origine',(15.,4.7439588951E-016,6.4)) ;
#169=CARTESIAN_POINT('Vertex',(15.,4.5924254968E-016,7.)) ;
#172=CARTESIAN_POINT('Line Origine',(7.5,1.51533398302E-017,7.)) ;
#176=CARTESIAN_POINT('Vertex',(0.,-4.5924254968E-016,7.)) ;
#179=CARTESIAN_POINT('Line Origine',(-3.67394039744E-017,-4.4408920985E-016,6.4)) ;
#191=CARTESIAN_POINT('Axis2P3D Location',(0.,-4.4408920985E-016,7.)) ;
#196=CARTESIAN_POINT('Line Origine',(-2.57175827821E-016,3.,5.8)) ;
#200=CARTESIAN_POINT('Vertex',(0.,6.,5.8)) ;
#203=CARTESIAN_POINT('Line Origine',(-1.83697019872E-016,3.,7.)) ;
#207=CARTESIAN_POINT('Vertex',(0.,6.,7.)) ;
#210=CARTESIAN_POINT('Line Origine',(-4.04133443719E-016,6.,6.4)) ;
#222=CARTESIAN_POINT('Axis2P3D Location',(7.5,3.,7.)) ;
#227=CARTESIAN_POINT('Line Origine',(15.,3.,7.)) ;
#231=CARTESIAN_POINT('Vertex',(15.,6.,7.)) ;
#234=CARTESIAN_POINT('Line Origine',(7.5,6.,7.)) ;
#246=CARTESIAN_POINT('Axis2P3D Location',(15.,6.,7.)) ;
#251=CARTESIAN_POINT('Line Origine',(15.,3.,5.8)) ;
#255=CARTESIAN_POINT('Vertex',(15.,6.,5.8)) ;
#258=CARTESIAN_POINT('Line Origine',(15.,6.,6.4)) ;
#270=CARTESIAN_POINT('Axis2P3D Location',(7.5,3.,5.8)) ;
#275=CARTESIAN_POINT('Line Origine',(14.375,6.,5.8)) ;
#280=CARTESIAN_POINT('Line Origine',(0.625,6.,5.8)) ;
#284=CARTESIAN_POINT('Vertex',(1.25,6.,5.8)) ;
#287=CARTESIAN_POINT('Line Origine',(1.5,5.4,5.8)) ;
#291=CARTESIAN_POINT('Vertex',(1.75,4.8,5.8)) ;
#294=CARTESIAN_POINT('Line Origine',(3.75,4.8,5.8)) ;
#298=CARTESIAN_POINT('Vertex',(5.75,4.8,5.8)) ;
#301=CARTESIAN_POINT('Line Origine',(6.,5.4,5.8)) ;
#305=CARTESIAN_POINT('Vertex',(6.25,6.,5.8)) ;
#308=CARTESIAN_POINT('Line Origine',(7.5,6.,5.8)) ;
#328=CARTESIAN_POINT('Line Origine',(3.75,6.,2.2962127484E-016)) ;
#332=CARTESIAN_POINT('Vertex',(1.25,6.,3.82702124734E-016)) ;
#334=CARTESIAN_POINT('Vertex',(6.25,6.,7.65404249467E-017)) ;
#337=CARTESIAN_POINT('Line Origine',(6.,5.4,9.18485099361E-017)) ;
#341=CARTESIAN_POINT('Vertex',(5.75,4.8,1.07156594925E-016)) ;
#344=CARTESIAN_POINT('Line Origine',(3.75,4.8,2.2962127484E-016)) ;
#348=CARTESIAN_POINT('Vertex',(1.75,4.8,3.52085954755E-016)) ;
#351=CARTESIAN_POINT('Line Origine',(1.5,5.4,3.67394039744E-016)) ;
#363=CARTESIAN_POINT('Axis2P3D Location',(1.75,4.8,5.8)) ;
#368=CARTESIAN_POINT('Line Origine',(1.25,6.,2.9)) ;
#373=CARTESIAN_POINT('Line Origine',(1.75,4.8,2.9)) ;
#385=CARTESIAN_POINT('Line Origine',(5.75,4.8,2.9)) ;
#397=CARTESIAN_POINT('Axis2P3D Location',(6.25,6.,5.8)) ;
#402=CARTESIAN_POINT('Line Origine',(6.25,6.,2.9)) ;
#414=CARTESIAN_POINT('Axis2P3D Location',(15.,6.,7.)) ;
#33=DIRECTION('Axis2P3D Direction',(6.12323399574E-017,3.74939945665E-033,1.)) ;
#34=DIRECTION('Axis2P3D XDirection',(-6.12323399574E-017,1.,0.)) ;
#38=DIRECTION('Vector Direction',(0.384615384615,0.923076923077,-2.35508999836E-017)) ;
#47=DIRECTION('Vector Direction',(1.,0.,-6.12323399574E-017)) ;
#54=DIRECTION('Vector Direction',(0.384615384615,-0.923076923077,-2.35508999836E-017)) ;
#61=DIRECTION('Vector Direction',(-1.,0.,6.12323399574E-017)) ;
#73=DIRECTION('Axis2P3D Direction',(0.923076923077,0.384615384615,-5.65221599606E-017)) ;
#74=DIRECTION('Axis2P3D XDirection',(0.384615384615,-0.923076923077,-2.35508999836E-017)) ;
#78=DIRECTION('Vector Direction',(0.384615384615,-0.923076923077,0.)) ;
#87=DIRECTION('Vector Direction',(0.,0.,-1.)) ;
#92=DIRECTION('Vector Direction',(0.,0.,-1.)) ;
#104=DIRECTION('Axis2P3D Direction',(6.12323399574E-017,-1.,0.)) ;
#105=DIRECTION('Axis2P3D XDirection',(-1.,-6.12323399574E-017,6.12323399574E-017)) ;
#109=DIRECTION('Vector Direction',(0.,0.,-1.)) ;
#116=DIRECTION('Vector Direction',(-1.,-2.22044604925E-016,2.22044604925E-016)) ;
#128=DIRECTION('Axis2P3D Direction',(-0.923076923077,0.384615384615,5.65221599606E-017)) ;
#129=DIRECTION('Axis2P3D XDirection',(0.384615384615,0.923076923077,-2.35508999836E-017)) ;
#133=DIRECTION('Vector Direction',(-0.384615384615,-0.923076923077,6.83214169E-016)) ;
#140=DIRECTION('Vector Direction',(0.,0.,-1.)) ;
#152=DIRECTION('Axis2P3D Direction',(-6.12323399574E-017,1.,0.)) ;
#153=DIRECTION('Axis2P3D XDirection',(1.,6.12323399574E-017,-6.12323399574E-017)) ;
#157=DIRECTION('Vector Direction',(1.,6.12323399574E-017,-5.92118946467E-017)) ;
#166=DIRECTION('Vector Direction',(0.,0.,-1.)) ;
#173=DIRECTION('Vector Direction',(1.,6.12323399574E-017,-5.92118946467E-017)) ;
#180=DIRECTION('Vector Direction',(-6.12323399574E-017,0.,-1.)) ;
#192=DIRECTION('Axis2P3D Direction',(-1.,-6.12323399574E-017,6.12323399574E-017)) ;
#193=DIRECTION('Axis2P3D XDirection',(-6.12323399574E-017,1.,0.)) ;
#197=DIRECTION('Vector Direction',(-6.12323399574E-017,1.,0.)) ;
#204=DIRECTION('Vector Direction',(-6.12323399574E-017,1.,0.)) ;
#211=DIRECTION('Vector Direction',(-6.12323399574E-017,0.,-1.)) ;
#223=DIRECTION('Axis2P3D Direction',(6.12323399574E-017,3.74939945665E-033,1.)) ;
#224=DIRECTION('Axis2P3D XDirection',(-6.12323399574E-017,1.,0.)) ;
#228=DIRECTION('Vector Direction',(0.,-1.,0.)) ;
#235=DIRECTION('Vector Direction',(-1.,-1.18423789293E-016,1.18423789293E-016)) ;
#247=DIRECTION('Axis2P3D Direction',(1.,6.12323399574E-017,-6.12323399574E-017)) ;
#248=DIRECTION('Axis2P3D XDirection',(6.12323399574E-017,-1.,0.)) ;
#252=DIRECTION('Vector Direction',(0.,-1.,0.)) ;
#259=DIRECTION('Vector Direction',(0.,0.,-1.)) ;
#271=DIRECTION('Axis2P3D Direction',(6.12323399574E-017,3.74939945665E-033,1.)) ;
#272=DIRECTION('Axis2P3D XDirection',(-6.12323399574E-017,1.,0.)) ;
#276=DIRECTION('Vector Direction',(-1.,-7.1054273576E-016,7.1054273576E-016)) ;
#281=DIRECTION('Vector Direction',(-1.,-7.1054273576E-016,7.1054273576E-016)) ;
#288=DIRECTION('Vector Direction',(0.384615384615,-0.923076923077,0.)) ;
#295=DIRECTION('Vector Direction',(-1.,0.,0.)) ;
#302=DIRECTION('Vector Direction',(-0.384615384615,-0.923076923077,0.)) ;
#309=DIRECTION('Vector Direction',(-1.,0.,0.)) ;
#329=DIRECTION('Vector Direction',(1.,0.,-6.12323399574E-017)) ;
#338=DIRECTION('Vector Direction',(-0.384615384615,-0.923076923077,2.35508999836E-017)) ;
#345=DIRECTION('Vector Direction',(-1.,0.,6.12323399574E-017)) ;
#352=DIRECTION('Vector Direction',(-0.384615384615,0.923076923077,2.35508999836E-017)) ;
#364=DIRECTION('Axis2P3D Direction',(-0.923076923077,-0.384615384615,5.65221599606E-017)) ;
#365=DIRECTION('Axis2P3D XDirection',(-0.384615384615,0.923076923077,2.35508999836E-017)) ;
#369=DIRECTION('Vector Direction',(-7.65671051466E-017,0.,-1.)) ;
#374=DIRECTION('Vector Direction',(-7.65671051466E-017,0.,-1.)) ;
#386=DIRECTION('Vector Direction',(0.,0.,-1.)) ;
#398=DIRECTION('Axis2P3D Direction',(0.923076923077,-0.384615384615,-5.65221599606E-017)) ;
#399=DIRECTION('Axis2P3D XDirection',(-0.384615384615,-0.923076923077,2.35508999836E-017)) ;
#403=DIRECTION('Vector Direction',(0.,0.,-1.)) ;
#415=DIRECTION('Axis2P3D Direction',(6.12323399574E-017,-1.,0.)) ;
#416=DIRECTION('Axis2P3D XDirection',(-1.,-6.12323399574E-017,6.12323399574E-017)) ;
#30=PRESENTATION_LAYER_ASSIGNMENT('1',' ',(#21)) ;
#8=PRODUCT_RELATED_PRODUCT_CATEGORY('part',$,(#5)) ;
#7=PRODUCT_CATEGORY('part','specification') ;
#29=STYLED_ITEM(' ',(#28),#21) ;
#28=PRESENTATION_STYLE_ASSIGNMENT((#27)) ;
#27=SURFACE_STYLE_USAGE(.BOTH.,#26) ;
#26=SURFACE_SIDE_STYLE(' ',(#25)) ;
#25=SURFACE_STYLE_FILL_AREA(#24) ;
#24=FILL_AREA_STYLE(' ',(#23)) ;
#23=FILL_AREA_STYLE_COLOUR(' ',#22) ;
#39=VECTOR('Line Direction',#38,1.) ;
#48=VECTOR('Line Direction',#47,1.) ;
#55=VECTOR('Line Direction',#54,1.) ;
#62=VECTOR('Line Direction',#61,1.) ;
#79=VECTOR('Line Direction',#78,1.) ;
#88=VECTOR('Line Direction',#87,1.) ;
#93=VECTOR('Line Direction',#92,1.) ;
#110=VECTOR('Line Direction',#109,1.) ;
#117=VECTOR('Line Direction',#116,1.) ;
#134=VECTOR('Line Direction',#133,1.) ;
#141=VECTOR('Line Direction',#140,1.) ;
#158=VECTOR('Line Direction',#157,1.) ;
#167=VECTOR('Line Direction',#166,1.) ;
#174=VECTOR('Line Direction',#173,1.) ;
#181=VECTOR('Line Direction',#180,1.) ;
#198=VECTOR('Line Direction',#197,1.) ;
#205=VECTOR('Line Direction',#204,1.) ;
#212=VECTOR('Line Direction',#211,1.) ;
#229=VECTOR('Line Direction',#228,1.) ;
#236=VECTOR('Line Direction',#235,1.) ;
#253=VECTOR('Line Direction',#252,1.) ;
#260=VECTOR('Line Direction',#259,1.) ;
#277=VECTOR('Line Direction',#276,1.) ;
#282=VECTOR('Line Direction',#281,1.) ;
#289=VECTOR('Line Direction',#288,1.) ;
#296=VECTOR('Line Direction',#295,1.) ;
#303=VECTOR('Line Direction',#302,1.) ;
#310=VECTOR('Line Direction',#309,1.) ;
#330=VECTOR('Line Direction',#329,1.) ;
#339=VECTOR('Line Direction',#338,1.) ;
#346=VECTOR('Line Direction',#345,1.) ;
#353=VECTOR('Line Direction',#352,1.) ;
#370=VECTOR('Line Direction',#369,1.) ;
#375=VECTOR('Line Direction',#374,1.) ;
#387=VECTOR('Line Direction',#386,1.) ;
#404=VECTOR('Line Direction',#403,1.) ;
#15=UNCERTAINTY_MEASURE_WITH_UNIT(LENGTH_MEASURE(0.005),#12,'distance_accuracy_value','CONFUSED CURVE UNCERTAINTY') ;
#435=SHAPE_REPRESENTATION_RELATIONSHIP(' ',' ',#19,#434) ;
#66=ORIENTED_EDGE('',*,*,#45,.T.) ;
#67=ORIENTED_EDGE('',*,*,#52,.T.) ;
#68=ORIENTED_EDGE('',*,*,#59,.T.) ;
#69=ORIENTED_EDGE('',*,*,#64,.T.) ;
#97=ORIENTED_EDGE('',*,*,#85,.F.) ;
#98=ORIENTED_EDGE('',*,*,#90,.T.) ;
#99=ORIENTED_EDGE('',*,*,#59,.F.) ;
#100=ORIENTED_EDGE('',*,*,#95,.F.) ;
#121=ORIENTED_EDGE('',*,*,#95,.T.) ;
#122=ORIENTED_EDGE('',*,*,#52,.F.) ;
#123=ORIENTED_EDGE('',*,*,#114,.F.) ;
#124=ORIENTED_EDGE('',*,*,#119,.T.) ;
#145=ORIENTED_EDGE('',*,*,#138,.T.) ;
#146=ORIENTED_EDGE('',*,*,#114,.T.) ;
#147=ORIENTED_EDGE('',*,*,#45,.F.) ;
#148=ORIENTED_EDGE('',*,*,#143,.F.) ;
#185=ORIENTED_EDGE('',*,*,#164,.T.) ;
#186=ORIENTED_EDGE('',*,*,#171,.F.) ;
#187=ORIENTED_EDGE('',*,*,#178,.F.) ;
#188=ORIENTED_EDGE('',*,*,#183,.T.) ;
#216=ORIENTED_EDGE('',*,*,#202,.T.) ;
#217=ORIENTED_EDGE('',*,*,#183,.F.) ;
#218=ORIENTED_EDGE('',*,*,#209,.F.) ;
#219=ORIENTED_EDGE('',*,*,#214,.T.) ;
#240=ORIENTED_EDGE('',*,*,#178,.T.) ;
#241=ORIENTED_EDGE('',*,*,#233,.T.) ;
#242=ORIENTED_EDGE('',*,*,#238,.T.) ;
#243=ORIENTED_EDGE('',*,*,#209,.T.) ;
#264=ORIENTED_EDGE('',*,*,#257,.T.) ;
#265=ORIENTED_EDGE('',*,*,#262,.F.) ;
#266=ORIENTED_EDGE('',*,*,#233,.F.) ;
#267=ORIENTED_EDGE('',*,*,#171,.T.) ;
#314=ORIENTED_EDGE('',*,*,#85,.T.) ;
#315=ORIENTED_EDGE('',*,*,#119,.F.) ;
#316=ORIENTED_EDGE('',*,*,#138,.F.) ;
#317=ORIENTED_EDGE('',*,*,#279,.F.) ;
#318=ORIENTED_EDGE('',*,*,#257,.F.) ;
#319=ORIENTED_EDGE('',*,*,#164,.F.) ;
#320=ORIENTED_EDGE('',*,*,#202,.F.) ;
#321=ORIENTED_EDGE('',*,*,#286,.F.) ;
#322=ORIENTED_EDGE('',*,*,#293,.T.) ;
#323=ORIENTED_EDGE('',*,*,#300,.F.) ;
#324=ORIENTED_EDGE('',*,*,#307,.F.) ;
#325=ORIENTED_EDGE('',*,*,#312,.F.) ;
#357=ORIENTED_EDGE('',*,*,#336,.T.) ;
#358=ORIENTED_EDGE('',*,*,#343,.T.) ;
#359=ORIENTED_EDGE('',*,*,#350,.T.) ;
#360=ORIENTED_EDGE('',*,*,#355,.T.) ;
#379=ORIENTED_EDGE('',*,*,#372,.T.) ;
#380=ORIENTED_EDGE('',*,*,#355,.F.) ;
#381=ORIENTED_EDGE('',*,*,#377,.F.) ;
#382=ORIENTED_EDGE('',*,*,#293,.F.) ;
#391=ORIENTED_EDGE('',*,*,#377,.T.) ;
#392=ORIENTED_EDGE('',*,*,#350,.F.) ;
#393=ORIENTED_EDGE('',*,*,#389,.F.) ;
#394=ORIENTED_EDGE('',*,*,#300,.T.) ;
#408=ORIENTED_EDGE('',*,*,#389,.T.) ;
#409=ORIENTED_EDGE('',*,*,#343,.F.) ;
#410=ORIENTED_EDGE('',*,*,#406,.F.) ;
#411=ORIENTED_EDGE('',*,*,#307,.T.) ;
#420=ORIENTED_EDGE('',*,*,#312,.T.) ;
#421=ORIENTED_EDGE('',*,*,#406,.T.) ;
#422=ORIENTED_EDGE('',*,*,#336,.F.) ;
#423=ORIENTED_EDGE('',*,*,#372,.F.) ;
#424=ORIENTED_EDGE('',*,*,#286,.T.) ;
#425=ORIENTED_EDGE('',*,*,#214,.F.) ;
#426=ORIENTED_EDGE('',*,*,#238,.F.) ;
#427=ORIENTED_EDGE('',*,*,#262,.T.) ;
#428=ORIENTED_EDGE('',*,*,#279,.T.) ;
#429=ORIENTED_EDGE('',*,*,#143,.T.) ;
#430=ORIENTED_EDGE('',*,*,#64,.F.) ;
#431=ORIENTED_EDGE('',*,*,#90,.F.) ;
#31=CLOSED_SHELL('Closed Shell',(#71,#102,#126,#150,#190,#221,#245,#269,#327,#362,#384,#396,#413,#433)) ;
#434=ADVANCED_BREP_SHAPE_REPRESENTATION('NONE',(#21),#16) ;
#71=ADVANCED_FACE('S3D - gedreht',(#70),#36,.F.) ;
#102=ADVANCED_FACE('S3D - gedreht',(#101),#76,.F.) ;
#126=ADVANCED_FACE('S3D - gedreht',(#125),#107,.T.) ;
#150=ADVANCED_FACE('S3D - gedreht',(#149),#131,.F.) ;
#190=ADVANCED_FACE('S3D - gedreht',(#189),#155,.F.) ;
#221=ADVANCED_FACE('S3D - gedreht',(#220),#195,.T.) ;
#245=ADVANCED_FACE('S3D - gedreht',(#244),#226,.T.) ;
#269=ADVANCED_FACE('S3D - gedreht',(#268),#250,.T.) ;
#327=ADVANCED_FACE('S3D - gedreht',(#326),#274,.F.) ;
#362=ADVANCED_FACE('S3D - gedreht',(#361),#36,.F.) ;
#384=ADVANCED_FACE('S3D - gedreht',(#383),#367,.T.) ;
#396=ADVANCED_FACE('S3D - gedreht',(#395),#107,.T.) ;
#413=ADVANCED_FACE('S3D - gedreht',(#412),#401,.T.) ;
#433=ADVANCED_FACE('S3D - gedreht',(#432),#418,.F.) ;
#4=APPLICATION_PROTOCOL_DEFINITION('international standard','automotive_design',2001,#1) ;
#21=MANIFOLD_SOLID_BREP('S3D - gedreht',#31) ;
#22=DRAUGHTING_PRE_DEFINED_COLOUR('white') ;
#45=EDGE_CURVE('',#42,#44,#40,.F.) ;
#52=EDGE_CURVE('',#44,#51,#49,.F.) ;
#59=EDGE_CURVE('',#51,#58,#56,.F.) ;
#64=EDGE_CURVE('',#58,#42,#63,.F.) ;
#85=EDGE_CURVE('',#82,#84,#80,.T.) ;
#90=EDGE_CURVE('',#82,#58,#89,.T.) ;
#95=EDGE_CURVE('',#84,#51,#94,.T.) ;
#114=EDGE_CURVE('',#113,#44,#111,.T.) ;
#119=EDGE_CURVE('',#113,#84,#118,.T.) ;
#138=EDGE_CURVE('',#137,#113,#135,.T.) ;
#143=EDGE_CURVE('',#137,#42,#142,.T.) ;
#164=EDGE_CURVE('',#161,#163,#159,.T.) ;
#171=EDGE_CURVE('',#170,#163,#168,.T.) ;
#178=EDGE_CURVE('',#177,#170,#175,.T.) ;
#183=EDGE_CURVE('',#177,#161,#182,.T.) ;
#202=EDGE_CURVE('',#201,#161,#199,.F.) ;
#209=EDGE_CURVE('',#208,#177,#206,.F.) ;
#214=EDGE_CURVE('',#208,#201,#213,.T.) ;
#233=EDGE_CURVE('',#170,#232,#230,.F.) ;
#238=EDGE_CURVE('',#232,#208,#237,.T.) ;
#257=EDGE_CURVE('',#163,#256,#254,.F.) ;
#262=EDGE_CURVE('',#232,#256,#261,.T.) ;
#279=EDGE_CURVE('',#256,#137,#278,.T.) ;
#286=EDGE_CURVE('',#285,#201,#283,.T.) ;
#293=EDGE_CURVE('',#285,#292,#290,.T.) ;
#300=EDGE_CURVE('',#299,#292,#297,.T.) ;
#307=EDGE_CURVE('',#306,#299,#304,.T.) ;
#312=EDGE_CURVE('',#82,#306,#311,.T.) ;
#336=EDGE_CURVE('',#333,#335,#331,.T.) ;
#343=EDGE_CURVE('',#335,#342,#340,.T.) ;
#350=EDGE_CURVE('',#342,#349,#347,.T.) ;
#355=EDGE_CURVE('',#349,#333,#354,.T.) ;
#372=EDGE_CURVE('',#285,#333,#371,.T.) ;
#377=EDGE_CURVE('',#292,#349,#376,.T.) ;
#389=EDGE_CURVE('',#299,#342,#388,.T.) ;
#406=EDGE_CURVE('',#306,#335,#405,.T.) ;
#65=EDGE_LOOP('',(#66,#67,#68,#69)) ;
#96=EDGE_LOOP('',(#97,#98,#99,#100)) ;
#120=EDGE_LOOP('',(#121,#122,#123,#124)) ;
#144=EDGE_LOOP('',(#145,#146,#147,#148)) ;
#184=EDGE_LOOP('',(#185,#186,#187,#188)) ;
#215=EDGE_LOOP('',(#216,#217,#218,#219)) ;
#239=EDGE_LOOP('',(#240,#241,#242,#243)) ;
#263=EDGE_LOOP('',(#264,#265,#266,#267)) ;
#313=EDGE_LOOP('',(#314,#315,#316,#317,#318,#319,#320,#321,#322,#323,#324,#325)) ;
#356=EDGE_LOOP('',(#357,#358,#359,#360)) ;
#378=EDGE_LOOP('',(#379,#380,#381,#382)) ;
#390=EDGE_LOOP('',(#391,#392,#393,#394)) ;
#407=EDGE_LOOP('',(#408,#409,#410,#411)) ;
#419=EDGE_LOOP('',(#420,#421,#422,#423,#424,#425,#426,#427,#428,#429,#430,#431)) ;
#70=FACE_OUTER_BOUND('',#65,.T.) ;
#101=FACE_OUTER_BOUND('',#96,.T.) ;
#125=FACE_OUTER_BOUND('',#120,.T.) ;
#149=FACE_OUTER_BOUND('',#144,.T.) ;
#189=FACE_OUTER_BOUND('',#184,.T.) ;
#220=FACE_OUTER_BOUND('',#215,.T.) ;
#244=FACE_OUTER_BOUND('',#239,.T.) ;
#268=FACE_OUTER_BOUND('',#263,.T.) ;
#326=FACE_OUTER_BOUND('',#313,.T.) ;
#361=FACE_OUTER_BOUND('',#356,.T.) ;
#383=FACE_OUTER_BOUND('',#378,.T.) ;
#395=FACE_OUTER_BOUND('',#390,.T.) ;
#412=FACE_OUTER_BOUND('',#407,.T.) ;
#432=FACE_OUTER_BOUND('',#419,.T.) ;
#40=LINE('Line',#37,#39) ;
#49=LINE('Line',#46,#48) ;
#56=LINE('Line',#53,#55) ;
#63=LINE('Line',#60,#62) ;
#80=LINE('Line',#77,#79) ;
#89=LINE('Line',#86,#88) ;
#94=LINE('Line',#91,#93) ;
#111=LINE('Line',#108,#110) ;
#118=LINE('Line',#115,#117) ;
#135=LINE('Line',#132,#134) ;
#142=LINE('Line',#139,#141) ;
#159=LINE('Line',#156,#158) ;
#168=LINE('Line',#165,#167) ;
#175=LINE('Line',#172,#174) ;
#182=LINE('Line',#179,#181) ;
#199=LINE('Line',#196,#198) ;
#206=LINE('Line',#203,#205) ;
#213=LINE('Line',#210,#212) ;
#230=LINE('Line',#227,#229) ;
#237=LINE('Line',#234,#236) ;
#254=LINE('Line',#251,#253) ;
#261=LINE('Line',#258,#260) ;
#278=LINE('Line',#275,#277) ;
#283=LINE('Line',#280,#282) ;
#290=LINE('Line',#287,#289) ;
#297=LINE('Line',#294,#296) ;
#304=LINE('Line',#301,#303) ;
#311=LINE('Line',#308,#310) ;
#331=LINE('Line',#328,#330) ;
#340=LINE('Line',#337,#339) ;
#347=LINE('Line',#344,#346) ;
#354=LINE('Line',#351,#353) ;
#371=LINE('Line',#368,#370) ;
#376=LINE('Line',#373,#375) ;
#388=LINE('Line',#385,#387) ;
#405=LINE('Line',#402,#404) ;
#36=PLANE('',#35) ;
#76=PLANE('',#75) ;
#107=PLANE('',#106) ;
#131=PLANE('',#130) ;
#155=PLANE('',#154) ;
#195=PLANE('',#194) ;
#226=PLANE('',#225) ;
#250=PLANE('',#249) ;
#274=PLANE('',#273) ;
#367=PLANE('',#366) ;
#401=PLANE('',#400) ;
#418=PLANE('',#417) ;
#9=PRODUCT_CATEGORY_RELATIONSHIP(' ',' ',#7,#8) ;
#6=PRODUCT_DEFINITION_FORMATION_WITH_SPECIFIED_SOURCE('',' ',#5,.MADE.) ;
#20=SHAPE_DEFINITION_REPRESENTATION(#11,#19) ;
#42=VERTEX_POINT('',#41) ;
#44=VERTEX_POINT('',#43) ;
#51=VERTEX_POINT('',#50) ;
#58=VERTEX_POINT('',#57) ;
#82=VERTEX_POINT('',#81) ;
#84=VERTEX_POINT('',#83) ;
#113=VERTEX_POINT('',#112) ;
#137=VERTEX_POINT('',#136) ;
#161=VERTEX_POINT('',#160) ;
#163=VERTEX_POINT('',#162) ;
#170=VERTEX_POINT('',#169) ;
#177=VERTEX_POINT('',#176) ;
#201=VERTEX_POINT('',#200) ;
#208=VERTEX_POINT('',#207) ;
#232=VERTEX_POINT('',#231) ;
#256=VERTEX_POINT('',#255) ;
#285=VERTEX_POINT('',#284) ;
#292=VERTEX_POINT('',#291) ;
#299=VERTEX_POINT('',#298) ;
#306=VERTEX_POINT('',#305) ;
#333=VERTEX_POINT('',#332) ;
#335=VERTEX_POINT('',#334) ;
#342=VERTEX_POINT('',#341) ;
#349=VERTEX_POINT('',#348) ;
#12=(LENGTH_UNIT()NAMED_UNIT(*)SI_UNIT(.MILLI.,.METRE.)) ;
#13=(NAMED_UNIT(*)PLANE_ANGLE_UNIT()SI_UNIT($,.RADIAN.)) ;
#14=(NAMED_UNIT(*)SI_UNIT($,.STERADIAN.)SOLID_ANGLE_UNIT()) ;
#16=(GEOMETRIC_REPRESENTATION_CONTEXT(3)GLOBAL_UNCERTAINTY_ASSIGNED_CONTEXT((#15))GLOBAL_UNIT_ASSIGNED_CONTEXT((#12,#13,#14))REPRESENTATION_CONTEXT(' ',' ')) ;
ENDSEC;
END-ISO-10303-21;
