ISO-10303-21;
HEADER;
FILE_DESCRIPTION(('CATIA V5 STEP Exchange','CAx-IF Rec.Pracs.--- Model Styling and Organization---1.2---2011-12-15'),'2;1');

FILE_NAME ('D1455210_0_1736260000_1736260000.stp','2017-10-10T07:57:38+00:00',('none'),('Weidmueller'),'CATIA Version 5-6 Release 2014','CATIA V5 STEP AP214','none');

FILE_SCHEMA(('AUTOMOTIVE_DESIGN { 1 0 10303 214 1 1 1 1 }'));

ENDSEC;
DATA;
#5=PRODUCT('1736260000_GWDR_M32-NP','','',(#2)) ;
#2=PRODUCT_CONTEXT(' ',#1,'mechanical') ;
#1=APPLICATION_CONTEXT('automotive design') ;
#10=PRODUCT_DEFINITION('',' ',#6,#3) ;
#3=PRODUCT_DEFINITION_CONTEXT('part definition',#1,' ') ;
#11=PRODUCT_DEFINITION_SHAPE(' ',' ',#10) ;
#185=MECHANICAL_DESIGN_GEOMETRIC_PRESENTATION_REPRESENTATION(' ',(#29),#16) ;
#19=SHAPE_REPRESENTATION(' ',(#18),#16) ;
#18=AXIS2_PLACEMENT_3D(' ',#17,$,$) ;
#34=AXIS2_PLACEMENT_3D('Cylinder Axis2P3D',#31,#32,#33) ;
#38=AXIS2_PLACEMENT_3D('Circle Axis2P3D',#36,#37,$) ;
#54=AXIS2_PLACEMENT_3D('Circle Axis2P3D',#52,#53,$) ;
#74=AXIS2_PLACEMENT_3D('Plane Axis2P3D',#71,#72,#73) ;
#78=AXIS2_PLACEMENT_3D('Circle Axis2P3D',#76,#77,$) ;
#87=AXIS2_PLACEMENT_3D('Circle Axis2P3D',#85,#86,$) ;
#96=AXIS2_PLACEMENT_3D('Circle Axis2P3D',#94,#95,$) ;
#107=AXIS2_PLACEMENT_3D('Cylinder Axis2P3D',#104,#105,#106) ;
#111=AXIS2_PLACEMENT_3D('Circle Axis2P3D',#109,#110,$) ;
#124=AXIS2_PLACEMENT_3D('Plane Axis2P3D',#121,#122,#123) ;
#128=AXIS2_PLACEMENT_3D('Circle Axis2P3D',#126,#127,$) ;
#137=AXIS2_PLACEMENT_3D('Circle Axis2P3D',#135,#136,$) ;
#152=AXIS2_PLACEMENT_3D('Cylinder Axis2P3D',#149,#150,#151) ;
#174=AXIS2_PLACEMENT_3D('Cylinder Axis2P3D',#171,#172,#173) ;
#17=CARTESIAN_POINT(' ',(0.,0.,0.)) ;
#31=CARTESIAN_POINT('Axis2P3D Location',(21.,21.,1.5)) ;
#36=CARTESIAN_POINT('Axis2P3D Location',(21.,21.,1.5)) ;
#40=CARTESIAN_POINT('Vertex',(5.,21.,1.5)) ;
#42=CARTESIAN_POINT('Vertex',(37.,21.,1.5)) ;
#45=CARTESIAN_POINT('Line Origine',(37.,21.,1.5)) ;
#49=CARTESIAN_POINT('Vertex',(37.,21.,0.)) ;
#52=CARTESIAN_POINT('Axis2P3D Location',(21.,21.,0.)) ;
#56=CARTESIAN_POINT('Vertex',(5.,21.,0.)) ;
#59=CARTESIAN_POINT('Line Origine',(5.,21.,1.5)) ;
#71=CARTESIAN_POINT('Axis2P3D Location',(21.,21.,1.5)) ;
#76=CARTESIAN_POINT('Axis2P3D Location',(21.,21.,1.5)) ;
#80=CARTESIAN_POINT('Vertex',(0.,21.,1.5)) ;
#82=CARTESIAN_POINT('Vertex',(42.,21.,1.5)) ;
#85=CARTESIAN_POINT('Axis2P3D Location',(21.,21.,1.5)) ;
#94=CARTESIAN_POINT('Axis2P3D Location',(21.,21.,1.5)) ;
#104=CARTESIAN_POINT('Axis2P3D Location',(21.,21.,1.5)) ;
#109=CARTESIAN_POINT('Axis2P3D Location',(21.,21.,0.)) ;
#121=CARTESIAN_POINT('Axis2P3D Location',(21.,21.,0.)) ;
#126=CARTESIAN_POINT('Axis2P3D Location',(21.,21.,0.)) ;
#130=CARTESIAN_POINT('Vertex',(0.,21.,0.)) ;
#132=CARTESIAN_POINT('Vertex',(42.,21.,0.)) ;
#135=CARTESIAN_POINT('Axis2P3D Location',(21.,21.,0.)) ;
#149=CARTESIAN_POINT('Axis2P3D Location',(21.,21.,1.5)) ;
#154=CARTESIAN_POINT('Line Origine',(42.,21.,1.5)) ;
#159=CARTESIAN_POINT('Line Origine',(0.,21.,1.5)) ;
#171=CARTESIAN_POINT('Axis2P3D Location',(21.,21.,1.5)) ;
#32=DIRECTION('Axis2P3D Direction',(-0.,0.,-1.)) ;
#33=DIRECTION('Axis2P3D XDirection',(1.,1.22464679915E-016,-0.)) ;
#37=DIRECTION('Axis2P3D Direction',(-0.,0.,-1.)) ;
#46=DIRECTION('Vector Direction',(0.,0.,-1.)) ;
#53=DIRECTION('Axis2P3D Direction',(-0.,0.,-1.)) ;
#60=DIRECTION('Vector Direction',(0.,0.,-1.)) ;
#72=DIRECTION('Axis2P3D Direction',(0.,0.,1.)) ;
#73=DIRECTION('Axis2P3D XDirection',(1.,0.,-0.)) ;
#77=DIRECTION('Axis2P3D Direction',(0.,0.,1.)) ;
#86=DIRECTION('Axis2P3D Direction',(0.,0.,1.)) ;
#95=DIRECTION('Axis2P3D Direction',(0.,0.,1.)) ;
#105=DIRECTION('Axis2P3D Direction',(-0.,0.,-1.)) ;
#106=DIRECTION('Axis2P3D XDirection',(-1.,0.,0.)) ;
#110=DIRECTION('Axis2P3D Direction',(-0.,0.,-1.)) ;
#122=DIRECTION('Axis2P3D Direction',(0.,0.,1.)) ;
#123=DIRECTION('Axis2P3D XDirection',(1.,0.,-0.)) ;
#127=DIRECTION('Axis2P3D Direction',(0.,0.,1.)) ;
#136=DIRECTION('Axis2P3D Direction',(0.,0.,1.)) ;
#150=DIRECTION('Axis2P3D Direction',(-0.,0.,-1.)) ;
#151=DIRECTION('Axis2P3D XDirection',(1.,1.22464679915E-016,-0.)) ;
#155=DIRECTION('Vector Direction',(0.,0.,-1.)) ;
#160=DIRECTION('Vector Direction',(0.,0.,-1.)) ;
#172=DIRECTION('Axis2P3D Direction',(-0.,0.,-1.)) ;
#173=DIRECTION('Axis2P3D XDirection',(-1.,0.,0.)) ;
#8=PRODUCT_RELATED_PRODUCT_CATEGORY('part',$,(#5)) ;
#7=PRODUCT_CATEGORY('part','specification') ;
#29=STYLED_ITEM(' ',(#28),#21) ;
#28=PRESENTATION_STYLE_ASSIGNMENT((#27)) ;
#27=SURFACE_STYLE_USAGE(.BOTH.,#26) ;
#26=SURFACE_SIDE_STYLE(' ',(#25)) ;
#25=SURFACE_STYLE_FILL_AREA(#24) ;
#24=FILL_AREA_STYLE(' ',(#23)) ;
#23=FILL_AREA_STYLE_COLOUR(' ',#22) ;
#47=VECTOR('Line Direction',#46,1.) ;
#61=VECTOR('Line Direction',#60,1.) ;
#156=VECTOR('Line Direction',#155,1.) ;
#161=VECTOR('Line Direction',#160,1.) ;
#15=UNCERTAINTY_MEASURE_WITH_UNIT(LENGTH_MEASURE(0.005),#12,'distance_accuracy_value','CONFUSED CURVE UNCERTAINTY') ;
#184=SHAPE_REPRESENTATION_RELATIONSHIP(' ',' ',#19,#183) ;
#65=ORIENTED_EDGE('',*,*,#44,.T.) ;
#66=ORIENTED_EDGE('',*,*,#51,.T.) ;
#67=ORIENTED_EDGE('',*,*,#58,.F.) ;
#68=ORIENTED_EDGE('',*,*,#63,.F.) ;
#91=ORIENTED_EDGE('',*,*,#84,.T.) ;
#92=ORIENTED_EDGE('',*,*,#89,.T.) ;
#100=ORIENTED_EDGE('',*,*,#44,.F.) ;
#101=ORIENTED_EDGE('',*,*,#98,.F.) ;
#115=ORIENTED_EDGE('',*,*,#51,.F.) ;
#116=ORIENTED_EDGE('',*,*,#98,.T.) ;
#117=ORIENTED_EDGE('',*,*,#63,.T.) ;
#118=ORIENTED_EDGE('',*,*,#113,.F.) ;
#141=ORIENTED_EDGE('',*,*,#134,.F.) ;
#142=ORIENTED_EDGE('',*,*,#139,.F.) ;
#145=ORIENTED_EDGE('',*,*,#58,.T.) ;
#146=ORIENTED_EDGE('',*,*,#113,.T.) ;
#165=ORIENTED_EDGE('',*,*,#158,.F.) ;
#166=ORIENTED_EDGE('',*,*,#84,.F.) ;
#167=ORIENTED_EDGE('',*,*,#163,.T.) ;
#168=ORIENTED_EDGE('',*,*,#134,.T.) ;
#177=ORIENTED_EDGE('',*,*,#89,.F.) ;
#178=ORIENTED_EDGE('',*,*,#158,.T.) ;
#179=ORIENTED_EDGE('',*,*,#139,.T.) ;
#180=ORIENTED_EDGE('',*,*,#163,.F.) ;
#102=FACE_BOUND('',#99,.T.) ;
#147=FACE_BOUND('',#144,.T.) ;
#30=CLOSED_SHELL('Closed Shell',(#70,#103,#120,#148,#170,#182)) ;
#183=ADVANCED_BREP_SHAPE_REPRESENTATION('NONE',(#21),#16) ;
#70=ADVANCED_FACE('Aufsatz-Linear austragen1',(#69),#35,.F.) ;
#103=ADVANCED_FACE('Aufsatz-Linear austragen1',(#93,#102),#75,.T.) ;
#120=ADVANCED_FACE('Aufsatz-Linear austragen1',(#119),#108,.F.) ;
#148=ADVANCED_FACE('Aufsatz-Linear austragen1',(#143,#147),#125,.F.) ;
#170=ADVANCED_FACE('Aufsatz-Linear austragen1',(#169),#153,.T.) ;
#182=ADVANCED_FACE('Aufsatz-Linear austragen1',(#181),#175,.T.) ;
#4=APPLICATION_PROTOCOL_DEFINITION('international standard','automotive_design',2001,#1) ;
#21=MANIFOLD_SOLID_BREP('Aufsatz-Linear austragen1',#30) ;
#39=CIRCLE('generated circle',#38,16.) ;
#55=CIRCLE('generated circle',#54,16.) ;
#79=CIRCLE('generated circle',#78,21.) ;
#88=CIRCLE('generated circle',#87,21.) ;
#97=CIRCLE('generated circle',#96,16.) ;
#112=CIRCLE('generated circle',#111,16.) ;
#129=CIRCLE('generated circle',#128,21.) ;
#138=CIRCLE('generated circle',#137,21.) ;
#22=COLOUR_RGB('Colour',0.262745098039,0.235294117647,0.258823529412) ;
#35=CYLINDRICAL_SURFACE('generated cylinder',#34,16.) ;
#108=CYLINDRICAL_SURFACE('generated cylinder',#107,16.) ;
#153=CYLINDRICAL_SURFACE('generated cylinder',#152,21.) ;
#175=CYLINDRICAL_SURFACE('generated cylinder',#174,21.) ;
#44=EDGE_CURVE('',#41,#43,#39,.F.) ;
#51=EDGE_CURVE('',#43,#50,#48,.T.) ;
#58=EDGE_CURVE('',#57,#50,#55,.F.) ;
#63=EDGE_CURVE('',#41,#57,#62,.T.) ;
#84=EDGE_CURVE('',#81,#83,#79,.T.) ;
#89=EDGE_CURVE('',#83,#81,#88,.T.) ;
#98=EDGE_CURVE('',#43,#41,#97,.T.) ;
#113=EDGE_CURVE('',#50,#57,#112,.F.) ;
#134=EDGE_CURVE('',#131,#133,#129,.T.) ;
#139=EDGE_CURVE('',#133,#131,#138,.T.) ;
#158=EDGE_CURVE('',#83,#133,#157,.T.) ;
#163=EDGE_CURVE('',#81,#131,#162,.T.) ;
#64=EDGE_LOOP('',(#65,#66,#67,#68)) ;
#90=EDGE_LOOP('',(#91,#92)) ;
#99=EDGE_LOOP('',(#100,#101)) ;
#114=EDGE_LOOP('',(#115,#116,#117,#118)) ;
#140=EDGE_LOOP('',(#141,#142)) ;
#144=EDGE_LOOP('',(#145,#146)) ;
#164=EDGE_LOOP('',(#165,#166,#167,#168)) ;
#176=EDGE_LOOP('',(#177,#178,#179,#180)) ;
#69=FACE_OUTER_BOUND('',#64,.T.) ;
#93=FACE_OUTER_BOUND('',#90,.T.) ;
#119=FACE_OUTER_BOUND('',#114,.T.) ;
#143=FACE_OUTER_BOUND('',#140,.T.) ;
#169=FACE_OUTER_BOUND('',#164,.T.) ;
#181=FACE_OUTER_BOUND('',#176,.T.) ;
#48=LINE('Line',#45,#47) ;
#62=LINE('Line',#59,#61) ;
#157=LINE('Line',#154,#156) ;
#162=LINE('Line',#159,#161) ;
#75=PLANE('',#74) ;
#125=PLANE('',#124) ;
#9=PRODUCT_CATEGORY_RELATIONSHIP(' ',' ',#7,#8) ;
#6=PRODUCT_DEFINITION_FORMATION_WITH_SPECIFIED_SOURCE('',' ',#5,.NOT_KNOWN.) ;
#20=SHAPE_DEFINITION_REPRESENTATION(#11,#19) ;
#41=VERTEX_POINT('',#40) ;
#43=VERTEX_POINT('',#42) ;
#50=VERTEX_POINT('',#49) ;
#57=VERTEX_POINT('',#56) ;
#81=VERTEX_POINT('',#80) ;
#83=VERTEX_POINT('',#82) ;
#131=VERTEX_POINT('',#130) ;
#133=VERTEX_POINT('',#132) ;
#12=(LENGTH_UNIT()NAMED_UNIT(*)SI_UNIT(.MILLI.,.METRE.)) ;
#13=(NAMED_UNIT(*)PLANE_ANGLE_UNIT()SI_UNIT($,.RADIAN.)) ;
#14=(NAMED_UNIT(*)SI_UNIT($,.STERADIAN.)SOLID_ANGLE_UNIT()) ;
#16=(GEOMETRIC_REPRESENTATION_CONTEXT(3)GLOBAL_UNCERTAINTY_ASSIGNED_CONTEXT((#15))GLOBAL_UNIT_ASSIGNED_CONTEXT((#12,#13,#14))REPRESENTATION_CONTEXT(' ',' ')) ;
ENDSEC;
END-ISO-10303-21;
