ISO-10303-21;
HEADER;
FILE_DESCRIPTION(('CATIA V5 STEP Exchange','CAx-IF Rec.Pracs.--- Model Styling and Organization---1.4--- 2014-01-23'),'2;1');

FILE_NAME ('D1458835_0_1904960000_1904960000.stp','2020-01-27T12:09:22+00:00',('none'),('Weidmueller'),'CATIA Version 5-6 Release 2016 SP3 HF44','CATIA V5 STEP AP214','none');

FILE_SCHEMA(('AUTOMOTIVE_DESIGN { 1 0 10303 214 1 1 1 1 }'));

ENDSEC;
DATA;
#5=PRODUCT('1904960000_WQL_4_WF8-6-3','','',(#2)) ;
#2=PRODUCT_CONTEXT(' ',#1,'mechanical') ;
#1=APPLICATION_CONTEXT('automotive design') ;
#10=PRODUCT_DEFINITION('',' ',#6,#3) ;
#3=PRODUCT_DEFINITION_CONTEXT('part definition',#1,' ') ;
#11=PRODUCT_DEFINITION_SHAPE(' ',' ',#10) ;
#574=MECHANICAL_DESIGN_GEOMETRIC_PRESENTATION_REPRESENTATION(' ',(#29),#16) ;
#19=SHAPE_REPRESENTATION(' ',(#18),#16) ;
#18=AXIS2_PLACEMENT_3D(' ',#17,$,$) ;
#35=AXIS2_PLACEMENT_3D('Plane Axis2P3D',#32,#33,#34) ;
#75=AXIS2_PLACEMENT_3D('Plane Axis2P3D',#72,#73,#74) ;
#106=AXIS2_PLACEMENT_3D('Cylinder Axis2P3D',#103,#104,#105) ;
#110=AXIS2_PLACEMENT_3D('Circle Axis2P3D',#108,#109,$) ;
#124=AXIS2_PLACEMENT_3D('Circle Axis2P3D',#122,#123,$) ;
#137=AXIS2_PLACEMENT_3D('Plane Axis2P3D',#134,#135,#136) ;
#168=AXIS2_PLACEMENT_3D('Plane Axis2P3D',#165,#166,#167) ;
#199=AXIS2_PLACEMENT_3D('Plane Axis2P3D',#196,#197,#198) ;
#230=AXIS2_PLACEMENT_3D('Cylinder Axis2P3D',#227,#228,#229) ;
#234=AXIS2_PLACEMENT_3D('Circle Axis2P3D',#232,#233,$) ;
#248=AXIS2_PLACEMENT_3D('Circle Axis2P3D',#246,#247,$) ;
#261=AXIS2_PLACEMENT_3D('Plane Axis2P3D',#258,#259,#260) ;
#283=AXIS2_PLACEMENT_3D('Cylinder Axis2P3D',#280,#281,#282) ;
#287=AXIS2_PLACEMENT_3D('Circle Axis2P3D',#285,#286,$) ;
#303=AXIS2_PLACEMENT_3D('Circle Axis2P3D',#301,#302,$) ;
#322=AXIS2_PLACEMENT_3D('Circle Axis2P3D',#320,#321,$) ;
#327=AXIS2_PLACEMENT_3D('Circle Axis2P3D',#325,#326,$) ;
#340=AXIS2_PLACEMENT_3D('Cylinder Axis2P3D',#337,#338,#339) ;
#344=AXIS2_PLACEMENT_3D('Circle Axis2P3D',#342,#343,$) ;
#360=AXIS2_PLACEMENT_3D('Circle Axis2P3D',#358,#359,$) ;
#379=AXIS2_PLACEMENT_3D('Circle Axis2P3D',#377,#378,$) ;
#384=AXIS2_PLACEMENT_3D('Circle Axis2P3D',#382,#383,$) ;
#397=AXIS2_PLACEMENT_3D('Cylinder Axis2P3D',#394,#395,#396) ;
#401=AXIS2_PLACEMENT_3D('Circle Axis2P3D',#399,#400,$) ;
#417=AXIS2_PLACEMENT_3D('Circle Axis2P3D',#415,#416,$) ;
#436=AXIS2_PLACEMENT_3D('Circle Axis2P3D',#434,#435,$) ;
#441=AXIS2_PLACEMENT_3D('Circle Axis2P3D',#439,#440,$) ;
#454=AXIS2_PLACEMENT_3D('Cylinder Axis2P3D',#451,#452,#453) ;
#458=AXIS2_PLACEMENT_3D('Circle Axis2P3D',#456,#457,$) ;
#474=AXIS2_PLACEMENT_3D('Circle Axis2P3D',#472,#473,$) ;
#493=AXIS2_PLACEMENT_3D('Circle Axis2P3D',#491,#492,$) ;
#498=AXIS2_PLACEMENT_3D('Circle Axis2P3D',#496,#497,$) ;
#511=AXIS2_PLACEMENT_3D('Plane Axis2P3D',#508,#509,#510) ;
#543=AXIS2_PLACEMENT_3D('Plane Axis2P3D',#540,#541,#542) ;
#17=CARTESIAN_POINT(' ',(0.,0.,0.)) ;
#32=CARTESIAN_POINT('Axis2P3D Location',(0.,20.,0.)) ;
#37=CARTESIAN_POINT('Line Origine',(0.,20.,2.)) ;
#41=CARTESIAN_POINT('Vertex',(0.,20.,0.)) ;
#43=CARTESIAN_POINT('Vertex',(0.,20.,4.)) ;
#46=CARTESIAN_POINT('Line Origine',(0.,10.,0.)) ;
#50=CARTESIAN_POINT('Vertex',(0.,-1.06581410364E-014,0.)) ;
#53=CARTESIAN_POINT('Line Origine',(0.,-1.06581410364E-014,2.)) ;
#57=CARTESIAN_POINT('Vertex',(0.,-1.06581410364E-014,4.)) ;
#60=CARTESIAN_POINT('Line Origine',(0.,10.,4.)) ;
#72=CARTESIAN_POINT('Axis2P3D Location',(19.5,0.,0.)) ;
#77=CARTESIAN_POINT('Line Origine',(9.75,0.,0.)) ;
#81=CARTESIAN_POINT('Vertex',(19.5,0.,0.)) ;
#84=CARTESIAN_POINT('Line Origine',(19.5,0.,2.)) ;
#88=CARTESIAN_POINT('Vertex',(19.5,0.,4.)) ;
#91=CARTESIAN_POINT('Line Origine',(9.75,0.,4.)) ;
#103=CARTESIAN_POINT('Axis2P3D Location',(22.,7.1054273576E-015,2.)) ;
#108=CARTESIAN_POINT('Axis2P3D Location',(22.,7.1054273576E-015,0.)) ;
#112=CARTESIAN_POINT('Vertex',(22.,2.5,0.)) ;
#115=CARTESIAN_POINT('Line Origine',(22.,2.5,2.)) ;
#119=CARTESIAN_POINT('Vertex',(22.,2.5,4.)) ;
#122=CARTESIAN_POINT('Axis2P3D Location',(22.,7.1054273576E-015,4.)) ;
#134=CARTESIAN_POINT('Axis2P3D Location',(22.,2.5,0.)) ;
#139=CARTESIAN_POINT('Line Origine',(47.4,2.5,0.)) ;
#143=CARTESIAN_POINT('Vertex',(72.8,2.5,0.)) ;
#146=CARTESIAN_POINT('Line Origine',(72.8,2.5,2.)) ;
#150=CARTESIAN_POINT('Vertex',(72.8,2.5,4.)) ;
#153=CARTESIAN_POINT('Line Origine',(47.4,2.5,4.)) ;
#165=CARTESIAN_POINT('Axis2P3D Location',(72.8,2.5,0.)) ;
#170=CARTESIAN_POINT('Line Origine',(72.8,10.,0.)) ;
#174=CARTESIAN_POINT('Vertex',(72.8,17.5,0.)) ;
#177=CARTESIAN_POINT('Line Origine',(72.8,17.5,2.)) ;
#181=CARTESIAN_POINT('Vertex',(72.8,17.5,4.)) ;
#184=CARTESIAN_POINT('Line Origine',(72.8,10.,4.)) ;
#196=CARTESIAN_POINT('Axis2P3D Location',(22.,17.5,0.)) ;
#201=CARTESIAN_POINT('Line Origine',(47.4,17.5,0.)) ;
#205=CARTESIAN_POINT('Vertex',(22.,17.5,0.)) ;
#208=CARTESIAN_POINT('Line Origine',(22.,17.5,2.)) ;
#212=CARTESIAN_POINT('Vertex',(22.,17.5,4.)) ;
#215=CARTESIAN_POINT('Line Origine',(47.4,17.5,4.)) ;
#227=CARTESIAN_POINT('Axis2P3D Location',(22.,20.,2.)) ;
#232=CARTESIAN_POINT('Axis2P3D Location',(22.,20.,0.)) ;
#236=CARTESIAN_POINT('Vertex',(19.5,20.,0.)) ;
#239=CARTESIAN_POINT('Line Origine',(19.5,20.,2.)) ;
#243=CARTESIAN_POINT('Vertex',(19.5,20.,4.)) ;
#246=CARTESIAN_POINT('Axis2P3D Location',(22.,20.,4.)) ;
#258=CARTESIAN_POINT('Axis2P3D Location',(1.7763568394E-015,20.,0.)) ;
#263=CARTESIAN_POINT('Line Origine',(9.75,20.,0.)) ;
#268=CARTESIAN_POINT('Line Origine',(9.75,20.,4.)) ;
#280=CARTESIAN_POINT('Axis2P3D Location',(9.7,10.,2.)) ;
#285=CARTESIAN_POINT('Axis2P3D Location',(9.7,10.,4.)) ;
#289=CARTESIAN_POINT('Vertex',(5.4,10.,4.)) ;
#291=CARTESIAN_POINT('Vertex',(14.,10.,4.)) ;
#294=CARTESIAN_POINT('Line Origine',(14.,10.,2.)) ;
#298=CARTESIAN_POINT('Vertex',(14.,10.,0.)) ;
#301=CARTESIAN_POINT('Axis2P3D Location',(9.7,10.,0.)) ;
#305=CARTESIAN_POINT('Vertex',(5.4,10.,0.)) ;
#308=CARTESIAN_POINT('Line Origine',(5.4,10.,2.)) ;
#320=CARTESIAN_POINT('Axis2P3D Location',(9.7,10.,4.)) ;
#325=CARTESIAN_POINT('Axis2P3D Location',(9.7,10.,0.)) ;
#337=CARTESIAN_POINT('Axis2P3D Location',(30.,10.,2.)) ;
#342=CARTESIAN_POINT('Axis2P3D Location',(30.,10.,4.)) ;
#346=CARTESIAN_POINT('Vertex',(26.7,10.,4.)) ;
#348=CARTESIAN_POINT('Vertex',(33.3,10.,4.)) ;
#351=CARTESIAN_POINT('Line Origine',(33.3,10.,2.)) ;
#355=CARTESIAN_POINT('Vertex',(33.3,10.,0.)) ;
#358=CARTESIAN_POINT('Axis2P3D Location',(30.,10.,0.)) ;
#362=CARTESIAN_POINT('Vertex',(26.7,10.,0.)) ;
#365=CARTESIAN_POINT('Line Origine',(26.7,10.,2.)) ;
#377=CARTESIAN_POINT('Axis2P3D Location',(30.,10.,4.)) ;
#382=CARTESIAN_POINT('Axis2P3D Location',(30.,10.,0.)) ;
#394=CARTESIAN_POINT('Axis2P3D Location',(47.8,10.,2.)) ;
#399=CARTESIAN_POINT('Axis2P3D Location',(47.8,10.,4.)) ;
#403=CARTESIAN_POINT('Vertex',(44.5,10.,4.)) ;
#405=CARTESIAN_POINT('Vertex',(51.1,10.,4.)) ;
#408=CARTESIAN_POINT('Line Origine',(51.1,10.,2.)) ;
#412=CARTESIAN_POINT('Vertex',(51.1,10.,0.)) ;
#415=CARTESIAN_POINT('Axis2P3D Location',(47.8,10.,0.)) ;
#419=CARTESIAN_POINT('Vertex',(44.5,10.,0.)) ;
#422=CARTESIAN_POINT('Line Origine',(44.5,10.,2.)) ;
#434=CARTESIAN_POINT('Axis2P3D Location',(47.8,10.,4.)) ;
#439=CARTESIAN_POINT('Axis2P3D Location',(47.8,10.,0.)) ;
#451=CARTESIAN_POINT('Axis2P3D Location',(65.6,10.,2.)) ;
#456=CARTESIAN_POINT('Axis2P3D Location',(65.6,10.,4.)) ;
#460=CARTESIAN_POINT('Vertex',(62.3,10.,4.)) ;
#462=CARTESIAN_POINT('Vertex',(68.9,10.,4.)) ;
#465=CARTESIAN_POINT('Line Origine',(68.9,10.,2.)) ;
#469=CARTESIAN_POINT('Vertex',(68.9,10.,0.)) ;
#472=CARTESIAN_POINT('Axis2P3D Location',(65.6,10.,0.)) ;
#476=CARTESIAN_POINT('Vertex',(62.3,10.,0.)) ;
#479=CARTESIAN_POINT('Line Origine',(62.3,10.,2.)) ;
#491=CARTESIAN_POINT('Axis2P3D Location',(65.6,10.,4.)) ;
#496=CARTESIAN_POINT('Axis2P3D Location',(65.6,10.,0.)) ;
#508=CARTESIAN_POINT('Axis2P3D Location',(9.7,10.,0.)) ;
#540=CARTESIAN_POINT('Axis2P3D Location',(9.7,10.,4.)) ;
#33=DIRECTION('Axis2P3D Direction',(-1.,0.,0.)) ;
#34=DIRECTION('Axis2P3D XDirection',(0.,-1.,0.)) ;
#38=DIRECTION('Vector Direction',(0.,0.,1.)) ;
#47=DIRECTION('Vector Direction',(0.,-1.,0.)) ;
#54=DIRECTION('Vector Direction',(0.,0.,1.)) ;
#61=DIRECTION('Vector Direction',(0.,-1.,0.)) ;
#73=DIRECTION('Axis2P3D Direction',(0.,1.,-0.)) ;
#74=DIRECTION('Axis2P3D XDirection',(-1.,0.,0.)) ;
#78=DIRECTION('Vector Direction',(-1.,0.,0.)) ;
#85=DIRECTION('Vector Direction',(0.,0.,1.)) ;
#92=DIRECTION('Vector Direction',(-1.,0.,0.)) ;
#104=DIRECTION('Axis2P3D Direction',(0.,0.,1.)) ;
#105=DIRECTION('Axis2P3D XDirection',(6.12323399574E-017,1.,0.)) ;
#109=DIRECTION('Axis2P3D Direction',(0.,0.,1.)) ;
#116=DIRECTION('Vector Direction',(0.,0.,1.)) ;
#123=DIRECTION('Axis2P3D Direction',(0.,0.,1.)) ;
#135=DIRECTION('Axis2P3D Direction',(0.,-1.,0.)) ;
#136=DIRECTION('Axis2P3D XDirection',(1.,0.,0.)) ;
#140=DIRECTION('Vector Direction',(1.,0.,0.)) ;
#147=DIRECTION('Vector Direction',(0.,0.,1.)) ;
#154=DIRECTION('Vector Direction',(1.,0.,0.)) ;
#166=DIRECTION('Axis2P3D Direction',(1.,0.,0.)) ;
#167=DIRECTION('Axis2P3D XDirection',(0.,1.,0.)) ;
#171=DIRECTION('Vector Direction',(0.,1.,0.)) ;
#178=DIRECTION('Vector Direction',(0.,0.,1.)) ;
#185=DIRECTION('Vector Direction',(0.,1.,0.)) ;
#197=DIRECTION('Axis2P3D Direction',(0.,-1.,0.)) ;
#198=DIRECTION('Axis2P3D XDirection',(1.,0.,0.)) ;
#202=DIRECTION('Vector Direction',(1.,0.,0.)) ;
#209=DIRECTION('Vector Direction',(0.,0.,1.)) ;
#216=DIRECTION('Vector Direction',(1.,0.,0.)) ;
#228=DIRECTION('Axis2P3D Direction',(0.,0.,1.)) ;
#229=DIRECTION('Axis2P3D XDirection',(-1.,1.22464679915E-016,0.)) ;
#233=DIRECTION('Axis2P3D Direction',(0.,0.,1.)) ;
#240=DIRECTION('Vector Direction',(0.,0.,1.)) ;
#247=DIRECTION('Axis2P3D Direction',(0.,0.,1.)) ;
#259=DIRECTION('Axis2P3D Direction',(0.,-1.,0.)) ;
#260=DIRECTION('Axis2P3D XDirection',(1.,0.,0.)) ;
#264=DIRECTION('Vector Direction',(1.,0.,0.)) ;
#269=DIRECTION('Vector Direction',(1.,0.,0.)) ;
#281=DIRECTION('Axis2P3D Direction',(0.,0.,1.)) ;
#282=DIRECTION('Axis2P3D XDirection',(1.,0.,0.)) ;
#286=DIRECTION('Axis2P3D Direction',(0.,0.,1.)) ;
#295=DIRECTION('Vector Direction',(0.,0.,1.)) ;
#302=DIRECTION('Axis2P3D Direction',(0.,0.,1.)) ;
#309=DIRECTION('Vector Direction',(0.,0.,1.)) ;
#321=DIRECTION('Axis2P3D Direction',(0.,0.,1.)) ;
#326=DIRECTION('Axis2P3D Direction',(0.,0.,1.)) ;
#338=DIRECTION('Axis2P3D Direction',(0.,0.,1.)) ;
#339=DIRECTION('Axis2P3D XDirection',(1.,0.,0.)) ;
#343=DIRECTION('Axis2P3D Direction',(0.,0.,1.)) ;
#352=DIRECTION('Vector Direction',(0.,0.,1.)) ;
#359=DIRECTION('Axis2P3D Direction',(0.,0.,1.)) ;
#366=DIRECTION('Vector Direction',(0.,0.,1.)) ;
#378=DIRECTION('Axis2P3D Direction',(0.,0.,1.)) ;
#383=DIRECTION('Axis2P3D Direction',(0.,0.,1.)) ;
#395=DIRECTION('Axis2P3D Direction',(0.,0.,1.)) ;
#396=DIRECTION('Axis2P3D XDirection',(1.,0.,0.)) ;
#400=DIRECTION('Axis2P3D Direction',(0.,0.,1.)) ;
#409=DIRECTION('Vector Direction',(0.,0.,1.)) ;
#416=DIRECTION('Axis2P3D Direction',(0.,0.,1.)) ;
#423=DIRECTION('Vector Direction',(0.,0.,1.)) ;
#435=DIRECTION('Axis2P3D Direction',(0.,0.,1.)) ;
#440=DIRECTION('Axis2P3D Direction',(0.,0.,1.)) ;
#452=DIRECTION('Axis2P3D Direction',(0.,0.,1.)) ;
#453=DIRECTION('Axis2P3D XDirection',(1.,0.,0.)) ;
#457=DIRECTION('Axis2P3D Direction',(0.,0.,1.)) ;
#466=DIRECTION('Vector Direction',(0.,0.,1.)) ;
#473=DIRECTION('Axis2P3D Direction',(0.,0.,1.)) ;
#480=DIRECTION('Vector Direction',(0.,0.,1.)) ;
#492=DIRECTION('Axis2P3D Direction',(0.,0.,1.)) ;
#497=DIRECTION('Axis2P3D Direction',(0.,0.,1.)) ;
#509=DIRECTION('Axis2P3D Direction',(0.,0.,1.)) ;
#510=DIRECTION('Axis2P3D XDirection',(1.,0.,0.)) ;
#541=DIRECTION('Axis2P3D Direction',(0.,0.,1.)) ;
#542=DIRECTION('Axis2P3D XDirection',(1.,0.,0.)) ;
#30=PRESENTATION_LAYER_ASSIGNMENT('1',' ',(#21)) ;
#8=PRODUCT_RELATED_PRODUCT_CATEGORY('part',$,(#5)) ;
#7=PRODUCT_CATEGORY('part','specification') ;
#29=STYLED_ITEM(' ',(#28),#21) ;
#28=PRESENTATION_STYLE_ASSIGNMENT((#27)) ;
#27=SURFACE_STYLE_USAGE(.BOTH.,#26) ;
#26=SURFACE_SIDE_STYLE(' ',(#25)) ;
#25=SURFACE_STYLE_FILL_AREA(#24) ;
#24=FILL_AREA_STYLE(' ',(#23)) ;
#23=FILL_AREA_STYLE_COLOUR(' ',#22) ;
#39=VECTOR('Line Direction',#38,1.) ;
#48=VECTOR('Line Direction',#47,1.) ;
#55=VECTOR('Line Direction',#54,1.) ;
#62=VECTOR('Line Direction',#61,1.) ;
#79=VECTOR('Line Direction',#78,1.) ;
#86=VECTOR('Line Direction',#85,1.) ;
#93=VECTOR('Line Direction',#92,1.) ;
#117=VECTOR('Line Direction',#116,1.) ;
#141=VECTOR('Line Direction',#140,1.) ;
#148=VECTOR('Line Direction',#147,1.) ;
#155=VECTOR('Line Direction',#154,1.) ;
#172=VECTOR('Line Direction',#171,1.) ;
#179=VECTOR('Line Direction',#178,1.) ;
#186=VECTOR('Line Direction',#185,1.) ;
#203=VECTOR('Line Direction',#202,1.) ;
#210=VECTOR('Line Direction',#209,1.) ;
#217=VECTOR('Line Direction',#216,1.) ;
#241=VECTOR('Line Direction',#240,1.) ;
#265=VECTOR('Line Direction',#264,1.) ;
#270=VECTOR('Line Direction',#269,1.) ;
#296=VECTOR('Line Direction',#295,1.) ;
#310=VECTOR('Line Direction',#309,1.) ;
#353=VECTOR('Line Direction',#352,1.) ;
#367=VECTOR('Line Direction',#366,1.) ;
#410=VECTOR('Line Direction',#409,1.) ;
#424=VECTOR('Line Direction',#423,1.) ;
#467=VECTOR('Line Direction',#466,1.) ;
#481=VECTOR('Line Direction',#480,1.) ;
#15=UNCERTAINTY_MEASURE_WITH_UNIT(LENGTH_MEASURE(0.005),#12,'distance_accuracy_value','CONFUSED CURVE UNCERTAINTY') ;
#573=SHAPE_REPRESENTATION_RELATIONSHIP(' ',' ',#19,#572) ;
#66=ORIENTED_EDGE('',*,*,#45,.F.) ;
#67=ORIENTED_EDGE('',*,*,#52,.T.) ;
#68=ORIENTED_EDGE('',*,*,#59,.T.) ;
#69=ORIENTED_EDGE('',*,*,#64,.F.) ;
#97=ORIENTED_EDGE('',*,*,#59,.F.) ;
#98=ORIENTED_EDGE('',*,*,#83,.T.) ;
#99=ORIENTED_EDGE('',*,*,#90,.T.) ;
#100=ORIENTED_EDGE('',*,*,#95,.F.) ;
#128=ORIENTED_EDGE('',*,*,#90,.F.) ;
#129=ORIENTED_EDGE('',*,*,#114,.T.) ;
#130=ORIENTED_EDGE('',*,*,#121,.T.) ;
#131=ORIENTED_EDGE('',*,*,#126,.F.) ;
#159=ORIENTED_EDGE('',*,*,#121,.F.) ;
#160=ORIENTED_EDGE('',*,*,#145,.T.) ;
#161=ORIENTED_EDGE('',*,*,#152,.T.) ;
#162=ORIENTED_EDGE('',*,*,#157,.F.) ;
#190=ORIENTED_EDGE('',*,*,#152,.F.) ;
#191=ORIENTED_EDGE('',*,*,#176,.T.) ;
#192=ORIENTED_EDGE('',*,*,#183,.T.) ;
#193=ORIENTED_EDGE('',*,*,#188,.F.) ;
#221=ORIENTED_EDGE('',*,*,#183,.F.) ;
#222=ORIENTED_EDGE('',*,*,#207,.T.) ;
#223=ORIENTED_EDGE('',*,*,#214,.T.) ;
#224=ORIENTED_EDGE('',*,*,#219,.F.) ;
#252=ORIENTED_EDGE('',*,*,#214,.F.) ;
#253=ORIENTED_EDGE('',*,*,#238,.T.) ;
#254=ORIENTED_EDGE('',*,*,#245,.T.) ;
#255=ORIENTED_EDGE('',*,*,#250,.F.) ;
#274=ORIENTED_EDGE('',*,*,#245,.F.) ;
#275=ORIENTED_EDGE('',*,*,#267,.T.) ;
#276=ORIENTED_EDGE('',*,*,#45,.T.) ;
#277=ORIENTED_EDGE('',*,*,#272,.F.) ;
#314=ORIENTED_EDGE('',*,*,#293,.T.) ;
#315=ORIENTED_EDGE('',*,*,#300,.F.) ;
#316=ORIENTED_EDGE('',*,*,#307,.F.) ;
#317=ORIENTED_EDGE('',*,*,#312,.T.) ;
#331=ORIENTED_EDGE('',*,*,#324,.T.) ;
#332=ORIENTED_EDGE('',*,*,#312,.F.) ;
#333=ORIENTED_EDGE('',*,*,#329,.F.) ;
#334=ORIENTED_EDGE('',*,*,#300,.T.) ;
#371=ORIENTED_EDGE('',*,*,#350,.T.) ;
#372=ORIENTED_EDGE('',*,*,#357,.F.) ;
#373=ORIENTED_EDGE('',*,*,#364,.F.) ;
#374=ORIENTED_EDGE('',*,*,#369,.T.) ;
#388=ORIENTED_EDGE('',*,*,#381,.T.) ;
#389=ORIENTED_EDGE('',*,*,#369,.F.) ;
#390=ORIENTED_EDGE('',*,*,#386,.F.) ;
#391=ORIENTED_EDGE('',*,*,#357,.T.) ;
#428=ORIENTED_EDGE('',*,*,#407,.T.) ;
#429=ORIENTED_EDGE('',*,*,#414,.F.) ;
#430=ORIENTED_EDGE('',*,*,#421,.F.) ;
#431=ORIENTED_EDGE('',*,*,#426,.T.) ;
#445=ORIENTED_EDGE('',*,*,#438,.T.) ;
#446=ORIENTED_EDGE('',*,*,#426,.F.) ;
#447=ORIENTED_EDGE('',*,*,#443,.F.) ;
#448=ORIENTED_EDGE('',*,*,#414,.T.) ;
#485=ORIENTED_EDGE('',*,*,#464,.T.) ;
#486=ORIENTED_EDGE('',*,*,#471,.F.) ;
#487=ORIENTED_EDGE('',*,*,#478,.F.) ;
#488=ORIENTED_EDGE('',*,*,#483,.T.) ;
#502=ORIENTED_EDGE('',*,*,#495,.T.) ;
#503=ORIENTED_EDGE('',*,*,#483,.F.) ;
#504=ORIENTED_EDGE('',*,*,#500,.F.) ;
#505=ORIENTED_EDGE('',*,*,#471,.T.) ;
#514=ORIENTED_EDGE('',*,*,#267,.F.) ;
#515=ORIENTED_EDGE('',*,*,#238,.F.) ;
#516=ORIENTED_EDGE('',*,*,#207,.F.) ;
#517=ORIENTED_EDGE('',*,*,#176,.F.) ;
#518=ORIENTED_EDGE('',*,*,#145,.F.) ;
#519=ORIENTED_EDGE('',*,*,#114,.F.) ;
#520=ORIENTED_EDGE('',*,*,#83,.F.) ;
#521=ORIENTED_EDGE('',*,*,#52,.F.) ;
#524=ORIENTED_EDGE('',*,*,#329,.T.) ;
#525=ORIENTED_EDGE('',*,*,#307,.T.) ;
#528=ORIENTED_EDGE('',*,*,#386,.T.) ;
#529=ORIENTED_EDGE('',*,*,#364,.T.) ;
#532=ORIENTED_EDGE('',*,*,#443,.T.) ;
#533=ORIENTED_EDGE('',*,*,#421,.T.) ;
#536=ORIENTED_EDGE('',*,*,#500,.T.) ;
#537=ORIENTED_EDGE('',*,*,#478,.T.) ;
#546=ORIENTED_EDGE('',*,*,#64,.T.) ;
#547=ORIENTED_EDGE('',*,*,#95,.T.) ;
#548=ORIENTED_EDGE('',*,*,#126,.T.) ;
#549=ORIENTED_EDGE('',*,*,#157,.T.) ;
#550=ORIENTED_EDGE('',*,*,#188,.T.) ;
#551=ORIENTED_EDGE('',*,*,#219,.T.) ;
#552=ORIENTED_EDGE('',*,*,#250,.T.) ;
#553=ORIENTED_EDGE('',*,*,#272,.T.) ;
#556=ORIENTED_EDGE('',*,*,#293,.F.) ;
#557=ORIENTED_EDGE('',*,*,#324,.F.) ;
#560=ORIENTED_EDGE('',*,*,#350,.F.) ;
#561=ORIENTED_EDGE('',*,*,#381,.F.) ;
#564=ORIENTED_EDGE('',*,*,#407,.F.) ;
#565=ORIENTED_EDGE('',*,*,#438,.F.) ;
#568=ORIENTED_EDGE('',*,*,#464,.F.) ;
#569=ORIENTED_EDGE('',*,*,#495,.F.) ;
#526=FACE_BOUND('',#523,.T.) ;
#530=FACE_BOUND('',#527,.T.) ;
#534=FACE_BOUND('',#531,.T.) ;
#538=FACE_BOUND('',#535,.T.) ;
#558=FACE_BOUND('',#555,.T.) ;
#562=FACE_BOUND('',#559,.T.) ;
#566=FACE_BOUND('',#563,.T.) ;
#570=FACE_BOUND('',#567,.T.) ;
#31=CLOSED_SHELL('Closed Shell',(#71,#102,#133,#164,#195,#226,#257,#279,#319,#336,#376,#393,#433,#450,#490,#507,#539,#571)) ;
#572=ADVANCED_BREP_SHAPE_REPRESENTATION('NONE',(#21),#16) ;
#71=ADVANCED_FACE('Hauptk\X2\00F6\X0\rper',(#70),#36,.T.) ;
#102=ADVANCED_FACE('Hauptk\X2\00F6\X0\rper',(#101),#76,.F.) ;
#133=ADVANCED_FACE('Hauptk\X2\00F6\X0\rper',(#132),#107,.F.) ;
#164=ADVANCED_FACE('Hauptk\X2\00F6\X0\rper',(#163),#138,.T.) ;
#195=ADVANCED_FACE('Hauptk\X2\00F6\X0\rper',(#194),#169,.T.) ;
#226=ADVANCED_FACE('Hauptk\X2\00F6\X0\rper',(#225),#200,.F.) ;
#257=ADVANCED_FACE('Hauptk\X2\00F6\X0\rper',(#256),#231,.F.) ;
#279=ADVANCED_FACE('Hauptk\X2\00F6\X0\rper',(#278),#262,.F.) ;
#319=ADVANCED_FACE('Hauptk\X2\00F6\X0\rper',(#318),#284,.F.) ;
#336=ADVANCED_FACE('Hauptk\X2\00F6\X0\rper',(#335),#284,.F.) ;
#376=ADVANCED_FACE('Hauptk\X2\00F6\X0\rper',(#375),#341,.F.) ;
#393=ADVANCED_FACE('Hauptk\X2\00F6\X0\rper',(#392),#341,.F.) ;
#433=ADVANCED_FACE('Hauptk\X2\00F6\X0\rper',(#432),#398,.F.) ;
#450=ADVANCED_FACE('Hauptk\X2\00F6\X0\rper',(#449),#398,.F.) ;
#490=ADVANCED_FACE('Hauptk\X2\00F6\X0\rper',(#489),#455,.F.) ;
#507=ADVANCED_FACE('Hauptk\X2\00F6\X0\rper',(#506),#455,.F.) ;
#539=ADVANCED_FACE('Hauptk\X2\00F6\X0\rper',(#522,#526,#530,#534,#538),#512,.F.) ;
#571=ADVANCED_FACE('Hauptk\X2\00F6\X0\rper',(#554,#558,#562,#566,#570),#544,.T.) ;
#4=APPLICATION_PROTOCOL_DEFINITION('international standard','automotive_design',2001,#1) ;
#21=MANIFOLD_SOLID_BREP('Hauptk\X2\00F6\X0\rper',#31) ;
#111=CIRCLE('generated circle',#110,2.5) ;
#125=CIRCLE('generated circle',#124,2.5) ;
#235=CIRCLE('generated circle',#234,2.5) ;
#249=CIRCLE('generated circle',#248,2.5) ;
#288=CIRCLE('generated circle',#287,4.3) ;
#304=CIRCLE('generated circle',#303,4.3) ;
#323=CIRCLE('generated circle',#322,4.3) ;
#328=CIRCLE('generated circle',#327,4.3) ;
#345=CIRCLE('generated circle',#344,3.3) ;
#361=CIRCLE('generated circle',#360,3.3) ;
#380=CIRCLE('generated circle',#379,3.3) ;
#385=CIRCLE('generated circle',#384,3.3) ;
#402=CIRCLE('generated circle',#401,3.3) ;
#418=CIRCLE('generated circle',#417,3.3) ;
#437=CIRCLE('generated circle',#436,3.3) ;
#442=CIRCLE('generated circle',#441,3.3) ;
#459=CIRCLE('generated circle',#458,3.3) ;
#475=CIRCLE('generated circle',#474,3.3) ;
#494=CIRCLE('generated circle',#493,3.3) ;
#499=CIRCLE('generated circle',#498,3.3) ;
#22=COLOUR_RGB('Colour',0.690196078431,0.690196078431,0.690196078431) ;
#107=CYLINDRICAL_SURFACE('generated cylinder',#106,2.5) ;
#231=CYLINDRICAL_SURFACE('generated cylinder',#230,2.5) ;
#284=CYLINDRICAL_SURFACE('generated cylinder',#283,4.3) ;
#341=CYLINDRICAL_SURFACE('generated cylinder',#340,3.3) ;
#398=CYLINDRICAL_SURFACE('generated cylinder',#397,3.3) ;
#455=CYLINDRICAL_SURFACE('generated cylinder',#454,3.3) ;
#45=EDGE_CURVE('',#42,#44,#40,.T.) ;
#52=EDGE_CURVE('',#42,#51,#49,.T.) ;
#59=EDGE_CURVE('',#51,#58,#56,.T.) ;
#64=EDGE_CURVE('',#44,#58,#63,.T.) ;
#83=EDGE_CURVE('',#51,#82,#80,.F.) ;
#90=EDGE_CURVE('',#82,#89,#87,.T.) ;
#95=EDGE_CURVE('',#58,#89,#94,.F.) ;
#114=EDGE_CURVE('',#82,#113,#111,.F.) ;
#121=EDGE_CURVE('',#113,#120,#118,.T.) ;
#126=EDGE_CURVE('',#89,#120,#125,.F.) ;
#145=EDGE_CURVE('',#113,#144,#142,.T.) ;
#152=EDGE_CURVE('',#144,#151,#149,.T.) ;
#157=EDGE_CURVE('',#120,#151,#156,.T.) ;
#176=EDGE_CURVE('',#144,#175,#173,.T.) ;
#183=EDGE_CURVE('',#175,#182,#180,.T.) ;
#188=EDGE_CURVE('',#151,#182,#187,.T.) ;
#207=EDGE_CURVE('',#175,#206,#204,.F.) ;
#214=EDGE_CURVE('',#206,#213,#211,.T.) ;
#219=EDGE_CURVE('',#182,#213,#218,.F.) ;
#238=EDGE_CURVE('',#206,#237,#235,.F.) ;
#245=EDGE_CURVE('',#237,#244,#242,.T.) ;
#250=EDGE_CURVE('',#213,#244,#249,.F.) ;
#267=EDGE_CURVE('',#237,#42,#266,.F.) ;
#272=EDGE_CURVE('',#244,#44,#271,.F.) ;
#293=EDGE_CURVE('',#290,#292,#288,.T.) ;
#300=EDGE_CURVE('',#299,#292,#297,.T.) ;
#307=EDGE_CURVE('',#306,#299,#304,.T.) ;
#312=EDGE_CURVE('',#306,#290,#311,.T.) ;
#324=EDGE_CURVE('',#292,#290,#323,.T.) ;
#329=EDGE_CURVE('',#299,#306,#328,.T.) ;
#350=EDGE_CURVE('',#347,#349,#345,.T.) ;
#357=EDGE_CURVE('',#356,#349,#354,.T.) ;
#364=EDGE_CURVE('',#363,#356,#361,.T.) ;
#369=EDGE_CURVE('',#363,#347,#368,.T.) ;
#381=EDGE_CURVE('',#349,#347,#380,.T.) ;
#386=EDGE_CURVE('',#356,#363,#385,.T.) ;
#407=EDGE_CURVE('',#404,#406,#402,.T.) ;
#414=EDGE_CURVE('',#413,#406,#411,.T.) ;
#421=EDGE_CURVE('',#420,#413,#418,.T.) ;
#426=EDGE_CURVE('',#420,#404,#425,.T.) ;
#438=EDGE_CURVE('',#406,#404,#437,.T.) ;
#443=EDGE_CURVE('',#413,#420,#442,.T.) ;
#464=EDGE_CURVE('',#461,#463,#459,.T.) ;
#471=EDGE_CURVE('',#470,#463,#468,.T.) ;
#478=EDGE_CURVE('',#477,#470,#475,.T.) ;
#483=EDGE_CURVE('',#477,#461,#482,.T.) ;
#495=EDGE_CURVE('',#463,#461,#494,.T.) ;
#500=EDGE_CURVE('',#470,#477,#499,.T.) ;
#65=EDGE_LOOP('',(#66,#67,#68,#69)) ;
#96=EDGE_LOOP('',(#97,#98,#99,#100)) ;
#127=EDGE_LOOP('',(#128,#129,#130,#131)) ;
#158=EDGE_LOOP('',(#159,#160,#161,#162)) ;
#189=EDGE_LOOP('',(#190,#191,#192,#193)) ;
#220=EDGE_LOOP('',(#221,#222,#223,#224)) ;
#251=EDGE_LOOP('',(#252,#253,#254,#255)) ;
#273=EDGE_LOOP('',(#274,#275,#276,#277)) ;
#313=EDGE_LOOP('',(#314,#315,#316,#317)) ;
#330=EDGE_LOOP('',(#331,#332,#333,#334)) ;
#370=EDGE_LOOP('',(#371,#372,#373,#374)) ;
#387=EDGE_LOOP('',(#388,#389,#390,#391)) ;
#427=EDGE_LOOP('',(#428,#429,#430,#431)) ;
#444=EDGE_LOOP('',(#445,#446,#447,#448)) ;
#484=EDGE_LOOP('',(#485,#486,#487,#488)) ;
#501=EDGE_LOOP('',(#502,#503,#504,#505)) ;
#513=EDGE_LOOP('',(#514,#515,#516,#517,#518,#519,#520,#521)) ;
#523=EDGE_LOOP('',(#524,#525)) ;
#527=EDGE_LOOP('',(#528,#529)) ;
#531=EDGE_LOOP('',(#532,#533)) ;
#535=EDGE_LOOP('',(#536,#537)) ;
#545=EDGE_LOOP('',(#546,#547,#548,#549,#550,#551,#552,#553)) ;
#555=EDGE_LOOP('',(#556,#557)) ;
#559=EDGE_LOOP('',(#560,#561)) ;
#563=EDGE_LOOP('',(#564,#565)) ;
#567=EDGE_LOOP('',(#568,#569)) ;
#70=FACE_OUTER_BOUND('',#65,.T.) ;
#101=FACE_OUTER_BOUND('',#96,.T.) ;
#132=FACE_OUTER_BOUND('',#127,.T.) ;
#163=FACE_OUTER_BOUND('',#158,.T.) ;
#194=FACE_OUTER_BOUND('',#189,.T.) ;
#225=FACE_OUTER_BOUND('',#220,.T.) ;
#256=FACE_OUTER_BOUND('',#251,.T.) ;
#278=FACE_OUTER_BOUND('',#273,.T.) ;
#318=FACE_OUTER_BOUND('',#313,.T.) ;
#335=FACE_OUTER_BOUND('',#330,.T.) ;
#375=FACE_OUTER_BOUND('',#370,.T.) ;
#392=FACE_OUTER_BOUND('',#387,.T.) ;
#432=FACE_OUTER_BOUND('',#427,.T.) ;
#449=FACE_OUTER_BOUND('',#444,.T.) ;
#489=FACE_OUTER_BOUND('',#484,.T.) ;
#506=FACE_OUTER_BOUND('',#501,.T.) ;
#522=FACE_OUTER_BOUND('',#513,.T.) ;
#554=FACE_OUTER_BOUND('',#545,.T.) ;
#40=LINE('Line',#37,#39) ;
#49=LINE('Line',#46,#48) ;
#56=LINE('Line',#53,#55) ;
#63=LINE('Line',#60,#62) ;
#80=LINE('Line',#77,#79) ;
#87=LINE('Line',#84,#86) ;
#94=LINE('Line',#91,#93) ;
#118=LINE('Line',#115,#117) ;
#142=LINE('Line',#139,#141) ;
#149=LINE('Line',#146,#148) ;
#156=LINE('Line',#153,#155) ;
#173=LINE('Line',#170,#172) ;
#180=LINE('Line',#177,#179) ;
#187=LINE('Line',#184,#186) ;
#204=LINE('Line',#201,#203) ;
#211=LINE('Line',#208,#210) ;
#218=LINE('Line',#215,#217) ;
#242=LINE('Line',#239,#241) ;
#266=LINE('Line',#263,#265) ;
#271=LINE('Line',#268,#270) ;
#297=LINE('Line',#294,#296) ;
#311=LINE('Line',#308,#310) ;
#354=LINE('Line',#351,#353) ;
#368=LINE('Line',#365,#367) ;
#411=LINE('Line',#408,#410) ;
#425=LINE('Line',#422,#424) ;
#468=LINE('Line',#465,#467) ;
#482=LINE('Line',#479,#481) ;
#36=PLANE('',#35) ;
#76=PLANE('',#75) ;
#138=PLANE('',#137) ;
#169=PLANE('',#168) ;
#200=PLANE('',#199) ;
#262=PLANE('',#261) ;
#512=PLANE('',#511) ;
#544=PLANE('',#543) ;
#9=PRODUCT_CATEGORY_RELATIONSHIP(' ',' ',#7,#8) ;
#6=PRODUCT_DEFINITION_FORMATION_WITH_SPECIFIED_SOURCE('',' ',#5,.NOT_KNOWN.) ;
#20=SHAPE_DEFINITION_REPRESENTATION(#11,#19) ;
#42=VERTEX_POINT('',#41) ;
#44=VERTEX_POINT('',#43) ;
#51=VERTEX_POINT('',#50) ;
#58=VERTEX_POINT('',#57) ;
#82=VERTEX_POINT('',#81) ;
#89=VERTEX_POINT('',#88) ;
#113=VERTEX_POINT('',#112) ;
#120=VERTEX_POINT('',#119) ;
#144=VERTEX_POINT('',#143) ;
#151=VERTEX_POINT('',#150) ;
#175=VERTEX_POINT('',#174) ;
#182=VERTEX_POINT('',#181) ;
#206=VERTEX_POINT('',#205) ;
#213=VERTEX_POINT('',#212) ;
#237=VERTEX_POINT('',#236) ;
#244=VERTEX_POINT('',#243) ;
#290=VERTEX_POINT('',#289) ;
#292=VERTEX_POINT('',#291) ;
#299=VERTEX_POINT('',#298) ;
#306=VERTEX_POINT('',#305) ;
#347=VERTEX_POINT('',#346) ;
#349=VERTEX_POINT('',#348) ;
#356=VERTEX_POINT('',#355) ;
#363=VERTEX_POINT('',#362) ;
#404=VERTEX_POINT('',#403) ;
#406=VERTEX_POINT('',#405) ;
#413=VERTEX_POINT('',#412) ;
#420=VERTEX_POINT('',#419) ;
#461=VERTEX_POINT('',#460) ;
#463=VERTEX_POINT('',#462) ;
#470=VERTEX_POINT('',#469) ;
#477=VERTEX_POINT('',#476) ;
#12=(LENGTH_UNIT()NAMED_UNIT(*)SI_UNIT(.MILLI.,.METRE.)) ;
#13=(NAMED_UNIT(*)PLANE_ANGLE_UNIT()SI_UNIT($,.RADIAN.)) ;
#14=(NAMED_UNIT(*)SI_UNIT($,.STERADIAN.)SOLID_ANGLE_UNIT()) ;
#16=(GEOMETRIC_REPRESENTATION_CONTEXT(3)GLOBAL_UNCERTAINTY_ASSIGNED_CONTEXT((#15))GLOBAL_UNIT_ASSIGNED_CONTEXT((#12,#13,#14))REPRESENTATION_CONTEXT(' ',' ')) ;
ENDSEC;
END-ISO-10303-21;
