ISO-10303-21;
HEADER;
FILE_DESCRIPTION(('CATIA V5R19 STEP'),'2;1');

FILE_NAME ('D1455769_0', '2015-02-23T09:20:04+00:00', ('Weidmueller Interface'), ('Weidmueller'), 'CATIA Version 5 Release 20 SP 5 (IN-10)', 'CATIA V5 STEP AP214', 'none');

FILE_SCHEMA(('AUTOMOTIVE_DESIGN { 1 0 10303 214 1 1 1 1 }'));

ENDSEC;
/* file written by CATIA V5R20 */
DATA;
#5=PRODUCT('ESG 9/20 o F','','MARKIERER ESG 9/20 o. F.\X2\000A\X0\<Q-CHECKER_SEAL> Q-Checker Version 2.6.2  \X2\000A\X0\CATIA-Version         : Catia V5 R19 SP5 Build Date 07-20-2009.19.00\X2\000A\X0\Model size (in KByte) : 0\X2\000A\X0\Checking date         : 2011-06-07 16:31:50\X2\000A\X0\Checking profile      : ADMIN / Release_2D-3D [CATPart]\X2\000A\X0\Model assessment      : In Ordnung (IO)\X2\000A\X0\Total weight sum      : 0\X2\000A\X0\<CROSS_CHECK_SUM>\X2\000A\X0\  <CHKSUM_DATE> -811862497 </CHKSUM_DATE>\X2\000A\X0\  <CHKSUM_ENTITIES> -1318065395 </CHKSUM_ENTITIES>\X2\000A\X0\  <CHKSUM_PROFILE> -1101559662 </CHKSUM_PROFILE>\X2\000A\X0\  <CHKSUM_DIMENSION> -186917087 </CHKSUM_DIMENSION>\X2\000A\X0\  <CHKSUM_PROJINTERSEC> -896974048 </CHKSUM_PROJINTERSEC>\X2\000A\X0\  <CHKSUM_IDENTCRV> -896974048 </CHKSUM_IDENTCRV>\X2\000A\X0\  <CHKSUM_INFINITY> 138018827 </CHKSUM_INFINITY>\X2\000A\X0\</CROSS_CHECK_SUM>\X2\000A\X0\</Q-CHECKER_SEAL> \X2\000A\X0\ \X2\000A\X0\ \X2\000A\X0\ \X2\000A\X0\',(#2)) ;
#2=PRODUCT_CONTEXT(' ',#1,'mechanical') ;
#1=APPLICATION_CONTEXT('automotive design') ;
#10=PRODUCT_DEFINITION('',' ',#6,#3) ;
#3=PRODUCT_DEFINITION_CONTEXT('part definition',#1,' ') ;
#11=PRODUCT_DEFINITION_SHAPE(' ',' ',#10) ;
#340=MECHANICAL_DESIGN_GEOMETRIC_PRESENTATION_REPRESENTATION(' ',(#30),#17) ;
#20=SHAPE_REPRESENTATION(' ',(#19),#17) ;
#19=AXIS2_PLACEMENT_3D(' ',#18,$,$) ;
#36=AXIS2_PLACEMENT_3D('Plane Axis2P3D',#33,#34,#35) ;
#76=AXIS2_PLACEMENT_3D('Plane Axis2P3D',#73,#74,#75) ;
#99=AXIS2_PLACEMENT_3D('Plane Axis2P3D',#96,#97,#98) ;
#123=AXIS2_PLACEMENT_3D('Plane Axis2P3D',#120,#121,#122) ;
#163=AXIS2_PLACEMENT_3D('Plane Axis2P3D',#160,#161,#162) ;
#205=AXIS2_PLACEMENT_3D('Plane Axis2P3D',#202,#203,#204) ;
#243=AXIS2_PLACEMENT_3D('Plane Axis2P3D',#240,#241,#242) ;
#267=AXIS2_PLACEMENT_3D('Plane Axis2P3D',#264,#265,#266) ;
#291=AXIS2_PLACEMENT_3D('Plane Axis2P3D',#288,#289,#290) ;
#308=AXIS2_PLACEMENT_3D('Plane Axis2P3D',#305,#306,#307) ;
#327=AXIS2_PLACEMENT_3D('Plane Axis2P3D',#324,#325,#326) ;
#18=CARTESIAN_POINT(' ',(0.,0.,0.)) ;
#33=CARTESIAN_POINT('Axis2P3D Location',(0.3,20.,0.4)) ;
#38=CARTESIAN_POINT('Line Origine',(0.15,15.,-3.05311331772E-016)) ;
#42=CARTESIAN_POINT('Vertex',(0.3,20.,-6.10622663544E-016)) ;
#44=CARTESIAN_POINT('Vertex',(-5.3290705182E-015,10.,2.24067200904E-029)) ;
#47=CARTESIAN_POINT('Line Origine',(-5.3290705182E-015,10.,0.2)) ;
#51=CARTESIAN_POINT('Vertex',(-5.3290705182E-015,10.,0.4)) ;
#54=CARTESIAN_POINT('Line Origine',(0.15,15.,0.4)) ;
#58=CARTESIAN_POINT('Vertex',(0.3,20.,0.4)) ;
#61=CARTESIAN_POINT('Line Origine',(0.3,20.,0.2)) ;
#73=CARTESIAN_POINT('Axis2P3D Location',(4.8,10.,0.4)) ;
#78=CARTESIAN_POINT('Line Origine',(0.15,5.,0.4)) ;
#82=CARTESIAN_POINT('Vertex',(0.3,-7.12992029358E-015,0.4)) ;
#85=CARTESIAN_POINT('Line Origine',(0.3,10.,0.4)) ;
#96=CARTESIAN_POINT('Axis2P3D Location',(0.,10.,0.4)) ;
#101=CARTESIAN_POINT('Line Origine',(0.15,5.,3.05311331772E-016)) ;
#105=CARTESIAN_POINT('Vertex',(0.3,-2.44929359829E-017,6.10622663544E-016)) ;
#108=CARTESIAN_POINT('Line Origine',(0.3,-1.22464679915E-017,0.2)) ;
#120=CARTESIAN_POINT('Axis2P3D Location',(9.6,10.,0.4)) ;
#125=CARTESIAN_POINT('Line Origine',(9.45,5.,3.05311331772E-016)) ;
#129=CARTESIAN_POINT('Vertex',(9.3,-7.15441322957E-015,6.66133814775E-016)) ;
#131=CARTESIAN_POINT('Vertex',(9.6,10.,0.)) ;
#134=CARTESIAN_POINT('Line Origine',(9.6,10.,0.2)) ;
#138=CARTESIAN_POINT('Vertex',(9.6,10.,0.4)) ;
#141=CARTESIAN_POINT('Line Origine',(9.45,5.,0.4)) ;
#145=CARTESIAN_POINT('Vertex',(9.3,-5.35356345418E-015,0.4)) ;
#148=CARTESIAN_POINT('Line Origine',(9.3,-1.22464679915E-017,0.2)) ;
#160=CARTESIAN_POINT('Axis2P3D Location',(9.3,20.,0.4)) ;
#165=CARTESIAN_POINT('Line Origine',(9.45,15.,-3.05311331772E-016)) ;
#169=CARTESIAN_POINT('Vertex',(9.3,20.,-6.66133814775E-016)) ;
#172=CARTESIAN_POINT('Line Origine',(9.3,20.,0.2)) ;
#176=CARTESIAN_POINT('Vertex',(9.3,20.,0.4)) ;
#179=CARTESIAN_POINT('Line Origine',(9.45,15.,0.4)) ;
#191=CARTESIAN_POINT('Line Origine',(9.3,10.,0.4)) ;
#202=CARTESIAN_POINT('Axis2P3D Location',(0.3,20.,0.8)) ;
#207=CARTESIAN_POINT('Line Origine',(4.8,20.,-6.66133814775E-016)) ;
#212=CARTESIAN_POINT('Line Origine',(0.3,20.,0.6)) ;
#216=CARTESIAN_POINT('Vertex',(0.3,20.,0.8)) ;
#219=CARTESIAN_POINT('Line Origine',(4.8,20.,0.8)) ;
#223=CARTESIAN_POINT('Vertex',(9.3,20.,0.8)) ;
#226=CARTESIAN_POINT('Line Origine',(9.3,20.,0.6)) ;
#240=CARTESIAN_POINT('Axis2P3D Location',(0.3,20.,0.8)) ;
#245=CARTESIAN_POINT('Line Origine',(0.3,-7.11767382559E-015,0.6)) ;
#249=CARTESIAN_POINT('Vertex',(0.3,-7.1054273576E-015,0.8)) ;
#252=CARTESIAN_POINT('Line Origine',(0.3,10.,0.8)) ;
#264=CARTESIAN_POINT('Axis2P3D Location',(4.8,10.,0.8)) ;
#269=CARTESIAN_POINT('Line Origine',(9.3,10.,0.8)) ;
#273=CARTESIAN_POINT('Vertex',(9.3,-5.3290705182E-015,0.8)) ;
#276=CARTESIAN_POINT('Line Origine',(4.8,-7.1054273576E-015,0.8)) ;
#288=CARTESIAN_POINT('Axis2P3D Location',(9.3,-5.3290705182E-015,0.8)) ;
#293=CARTESIAN_POINT('Line Origine',(9.3,-5.34131698619E-015,0.6)) ;
#305=CARTESIAN_POINT('Axis2P3D Location',(9.3,-7.1054273576E-015,0.8)) ;
#310=CARTESIAN_POINT('Line Origine',(4.8,-7.15441322957E-015,6.66133814775E-016)) ;
#324=CARTESIAN_POINT('Axis2P3D Location',(4.8,10.,0.)) ;
#34=DIRECTION('Axis2P3D Direction',(0.999550303522,-0.0299865091057,1.83614411969E-018)) ;
#35=DIRECTION('Axis2P3D XDirection',(-0.0299865091057,-0.999550303522,6.12048039898E-017)) ;
#39=DIRECTION('Vector Direction',(-0.0299865091057,-0.999550303522,6.10348068683E-017)) ;
#48=DIRECTION('Vector Direction',(0.,0.,-1.)) ;
#55=DIRECTION('Vector Direction',(-0.0299865091057,-0.999550303522,6.10348068683E-017)) ;
#62=DIRECTION('Vector Direction',(0.,0.,-1.)) ;
#74=DIRECTION('Axis2P3D Direction',(0.,6.12323399574E-017,1.)) ;
#75=DIRECTION('Axis2P3D XDirection',(-1.,0.,0.)) ;
#79=DIRECTION('Vector Direction',(0.0299865091057,-0.999550303522,6.10348068683E-017)) ;
#86=DIRECTION('Vector Direction',(0.,1.,-6.10622663544E-017)) ;
#97=DIRECTION('Axis2P3D Direction',(0.999550303522,0.0299865091057,-1.83614411969E-018)) ;
#98=DIRECTION('Axis2P3D XDirection',(0.0299865091057,-0.999550303522,6.12048039898E-017)) ;
#102=DIRECTION('Vector Direction',(0.0299865091057,-0.999550303522,6.10348068683E-017)) ;
#109=DIRECTION('Vector Direction',(0.,-6.12323399574E-017,-1.)) ;
#121=DIRECTION('Axis2P3D Direction',(0.999550303522,-0.0299865091057,1.83614411969E-018)) ;
#122=DIRECTION('Axis2P3D XDirection',(-0.0299865091057,-0.999550303522,6.12048039898E-017)) ;
#126=DIRECTION('Vector Direction',(-0.0299865091057,-0.999550303522,6.10348068683E-017)) ;
#135=DIRECTION('Vector Direction',(0.,0.,-1.)) ;
#142=DIRECTION('Vector Direction',(-0.0299865091057,-0.999550303522,6.10348068683E-017)) ;
#149=DIRECTION('Vector Direction',(0.,-6.12323399574E-017,-1.)) ;
#161=DIRECTION('Axis2P3D Direction',(0.999550303522,0.0299865091057,-1.83614411969E-018)) ;
#162=DIRECTION('Axis2P3D XDirection',(0.0299865091057,-0.999550303522,6.12048039898E-017)) ;
#166=DIRECTION('Vector Direction',(0.0299865091057,-0.999550303522,6.10348068683E-017)) ;
#173=DIRECTION('Vector Direction',(0.,0.,-1.)) ;
#180=DIRECTION('Vector Direction',(0.0299865091057,-0.999550303522,6.10348068683E-017)) ;
#192=DIRECTION('Vector Direction',(0.,1.,-6.10622663544E-017)) ;
#203=DIRECTION('Axis2P3D Direction',(0.,1.,-6.12323399574E-017)) ;
#204=DIRECTION('Axis2P3D XDirection',(1.,0.,0.)) ;
#208=DIRECTION('Vector Direction',(1.,0.,0.)) ;
#213=DIRECTION('Vector Direction',(0.,0.,-1.)) ;
#220=DIRECTION('Vector Direction',(1.,0.,0.)) ;
#227=DIRECTION('Vector Direction',(0.,0.,-1.)) ;
#241=DIRECTION('Axis2P3D Direction',(1.,0.,0.)) ;
#242=DIRECTION('Axis2P3D XDirection',(0.,-1.,6.12323399574E-017)) ;
#246=DIRECTION('Vector Direction',(0.,-6.12323399574E-017,-1.)) ;
#253=DIRECTION('Vector Direction',(0.,-1.,6.10622663544E-017)) ;
#265=DIRECTION('Axis2P3D Direction',(0.,6.12323399574E-017,1.)) ;
#266=DIRECTION('Axis2P3D XDirection',(-1.,0.,0.)) ;
#270=DIRECTION('Vector Direction',(0.,1.,-6.66133814775E-017)) ;
#277=DIRECTION('Vector Direction',(-1.,0.,0.)) ;
#289=DIRECTION('Axis2P3D Direction',(-1.,0.,-0.)) ;
#290=DIRECTION('Axis2P3D XDirection',(0.,1.,-6.12323399574E-017)) ;
#294=DIRECTION('Vector Direction',(0.,-6.12323399574E-017,-1.)) ;
#306=DIRECTION('Axis2P3D Direction',(0.,-1.,6.12323399574E-017)) ;
#307=DIRECTION('Axis2P3D XDirection',(-1.,0.,0.)) ;
#311=DIRECTION('Vector Direction',(-1.,0.,0.)) ;
#325=DIRECTION('Axis2P3D Direction',(0.,6.12323399574E-017,1.)) ;
#326=DIRECTION('Axis2P3D XDirection',(-1.,0.,0.)) ;
#31=PRESENTATION_LAYER_ASSIGNMENT('1',' ',(#22)) ;
#8=PRODUCT_RELATED_PRODUCT_CATEGORY('part',$,(#5)) ;
#7=PRODUCT_CATEGORY('part','specification') ;
#30=STYLED_ITEM(' ',(#29),#22) ;
#29=PRESENTATION_STYLE_ASSIGNMENT((#28)) ;
#28=SURFACE_STYLE_USAGE(.BOTH.,#27) ;
#27=SURFACE_SIDE_STYLE(' ',(#26)) ;
#26=SURFACE_STYLE_FILL_AREA(#25) ;
#25=FILL_AREA_STYLE(' ',(#24)) ;
#24=FILL_AREA_STYLE_COLOUR(' ',#23) ;
#40=VECTOR('Line Direction',#39,1.) ;
#49=VECTOR('Line Direction',#48,1.) ;
#56=VECTOR('Line Direction',#55,1.) ;
#63=VECTOR('Line Direction',#62,1.) ;
#80=VECTOR('Line Direction',#79,1.) ;
#87=VECTOR('Line Direction',#86,1.) ;
#103=VECTOR('Line Direction',#102,1.) ;
#110=VECTOR('Line Direction',#109,1.) ;
#127=VECTOR('Line Direction',#126,1.) ;
#136=VECTOR('Line Direction',#135,1.) ;
#143=VECTOR('Line Direction',#142,1.) ;
#150=VECTOR('Line Direction',#149,1.) ;
#167=VECTOR('Line Direction',#166,1.) ;
#174=VECTOR('Line Direction',#173,1.) ;
#181=VECTOR('Line Direction',#180,1.) ;
#193=VECTOR('Line Direction',#192,1.) ;
#209=VECTOR('Line Direction',#208,1.) ;
#214=VECTOR('Line Direction',#213,1.) ;
#221=VECTOR('Line Direction',#220,1.) ;
#228=VECTOR('Line Direction',#227,1.) ;
#247=VECTOR('Line Direction',#246,1.) ;
#254=VECTOR('Line Direction',#253,1.) ;
#271=VECTOR('Line Direction',#270,1.) ;
#278=VECTOR('Line Direction',#277,1.) ;
#295=VECTOR('Line Direction',#294,1.) ;
#312=VECTOR('Line Direction',#311,1.) ;
#16=UNCERTAINTY_MEASURE_WITH_UNIT(LENGTH_MEASURE(0.005),#12,'distance_accuracy_value','CONFUSED CURVE UNCERTAINTY') ;
#339=SHAPE_REPRESENTATION_RELATIONSHIP(' ',' ',#20,#338) ;
#67=ORIENTED_EDGE('',*,*,#46,.T.) ;
#68=ORIENTED_EDGE('',*,*,#53,.F.) ;
#69=ORIENTED_EDGE('',*,*,#60,.F.) ;
#70=ORIENTED_EDGE('',*,*,#65,.T.) ;
#91=ORIENTED_EDGE('',*,*,#60,.T.) ;
#92=ORIENTED_EDGE('',*,*,#84,.T.) ;
#93=ORIENTED_EDGE('',*,*,#89,.T.) ;
#114=ORIENTED_EDGE('',*,*,#107,.T.) ;
#115=ORIENTED_EDGE('',*,*,#112,.F.) ;
#116=ORIENTED_EDGE('',*,*,#84,.F.) ;
#117=ORIENTED_EDGE('',*,*,#53,.T.) ;
#154=ORIENTED_EDGE('',*,*,#133,.T.) ;
#155=ORIENTED_EDGE('',*,*,#140,.F.) ;
#156=ORIENTED_EDGE('',*,*,#147,.F.) ;
#157=ORIENTED_EDGE('',*,*,#152,.T.) ;
#185=ORIENTED_EDGE('',*,*,#171,.T.) ;
#186=ORIENTED_EDGE('',*,*,#178,.F.) ;
#187=ORIENTED_EDGE('',*,*,#183,.F.) ;
#188=ORIENTED_EDGE('',*,*,#140,.T.) ;
#197=ORIENTED_EDGE('',*,*,#195,.T.) ;
#198=ORIENTED_EDGE('',*,*,#147,.T.) ;
#199=ORIENTED_EDGE('',*,*,#183,.T.) ;
#232=ORIENTED_EDGE('',*,*,#211,.T.) ;
#233=ORIENTED_EDGE('',*,*,#65,.F.) ;
#234=ORIENTED_EDGE('',*,*,#218,.F.) ;
#235=ORIENTED_EDGE('',*,*,#225,.F.) ;
#236=ORIENTED_EDGE('',*,*,#230,.T.) ;
#237=ORIENTED_EDGE('',*,*,#178,.T.) ;
#258=ORIENTED_EDGE('',*,*,#89,.F.) ;
#259=ORIENTED_EDGE('',*,*,#251,.F.) ;
#260=ORIENTED_EDGE('',*,*,#256,.F.) ;
#261=ORIENTED_EDGE('',*,*,#218,.T.) ;
#282=ORIENTED_EDGE('',*,*,#275,.T.) ;
#283=ORIENTED_EDGE('',*,*,#225,.T.) ;
#284=ORIENTED_EDGE('',*,*,#256,.T.) ;
#285=ORIENTED_EDGE('',*,*,#280,.T.) ;
#299=ORIENTED_EDGE('',*,*,#195,.F.) ;
#300=ORIENTED_EDGE('',*,*,#230,.F.) ;
#301=ORIENTED_EDGE('',*,*,#275,.F.) ;
#302=ORIENTED_EDGE('',*,*,#297,.T.) ;
#316=ORIENTED_EDGE('',*,*,#314,.T.) ;
#317=ORIENTED_EDGE('',*,*,#152,.F.) ;
#318=ORIENTED_EDGE('',*,*,#297,.F.) ;
#319=ORIENTED_EDGE('',*,*,#280,.F.) ;
#320=ORIENTED_EDGE('',*,*,#251,.T.) ;
#321=ORIENTED_EDGE('',*,*,#112,.T.) ;
#330=ORIENTED_EDGE('',*,*,#314,.F.) ;
#331=ORIENTED_EDGE('',*,*,#107,.F.) ;
#332=ORIENTED_EDGE('',*,*,#46,.F.) ;
#333=ORIENTED_EDGE('',*,*,#211,.F.) ;
#334=ORIENTED_EDGE('',*,*,#171,.F.) ;
#335=ORIENTED_EDGE('',*,*,#133,.F.) ;
#32=CLOSED_SHELL('Closed Shell',(#72,#95,#119,#159,#190,#201,#239,#263,#287,#304,#323,#337)) ;
#338=ADVANCED_BREP_SHAPE_REPRESENTATION('NONE',(#22),#17) ;
#72=ADVANCED_FACE('S3D - gedreht',(#71),#37,.F.) ;
#95=ADVANCED_FACE('S3D - gedreht',(#94),#77,.T.) ;
#119=ADVANCED_FACE('S3D - gedreht',(#118),#100,.F.) ;
#159=ADVANCED_FACE('S3D - gedreht',(#158),#124,.T.) ;
#190=ADVANCED_FACE('S3D - gedreht',(#189),#164,.T.) ;
#201=ADVANCED_FACE('S3D - gedreht',(#200),#77,.T.) ;
#239=ADVANCED_FACE('S3D - gedreht',(#238),#206,.T.) ;
#263=ADVANCED_FACE('S3D - gedreht',(#262),#244,.F.) ;
#287=ADVANCED_FACE('S3D - gedreht',(#286),#268,.T.) ;
#304=ADVANCED_FACE('S3D - gedreht',(#303),#292,.F.) ;
#323=ADVANCED_FACE('S3D - gedreht',(#322),#309,.T.) ;
#337=ADVANCED_FACE('S3D - gedreht',(#336),#328,.F.) ;
#4=APPLICATION_PROTOCOL_DEFINITION('international standard','automotive_design',2001,#1) ;
#22=MANIFOLD_SOLID_BREP('S3D - gedreht',#32) ;
#23=DRAUGHTING_PRE_DEFINED_COLOUR('white') ;
#46=EDGE_CURVE('',#43,#45,#41,.T.) ;
#53=EDGE_CURVE('',#52,#45,#50,.T.) ;
#60=EDGE_CURVE('',#59,#52,#57,.T.) ;
#65=EDGE_CURVE('',#59,#43,#64,.T.) ;
#84=EDGE_CURVE('',#52,#83,#81,.T.) ;
#89=EDGE_CURVE('',#83,#59,#88,.T.) ;
#107=EDGE_CURVE('',#45,#106,#104,.T.) ;
#112=EDGE_CURVE('',#83,#106,#111,.T.) ;
#133=EDGE_CURVE('',#130,#132,#128,.F.) ;
#140=EDGE_CURVE('',#139,#132,#137,.T.) ;
#147=EDGE_CURVE('',#146,#139,#144,.F.) ;
#152=EDGE_CURVE('',#146,#130,#151,.T.) ;
#171=EDGE_CURVE('',#132,#170,#168,.F.) ;
#178=EDGE_CURVE('',#177,#170,#175,.T.) ;
#183=EDGE_CURVE('',#139,#177,#182,.F.) ;
#195=EDGE_CURVE('',#177,#146,#194,.F.) ;
#211=EDGE_CURVE('',#170,#43,#210,.F.) ;
#218=EDGE_CURVE('',#217,#59,#215,.T.) ;
#225=EDGE_CURVE('',#224,#217,#222,.F.) ;
#230=EDGE_CURVE('',#224,#177,#229,.T.) ;
#251=EDGE_CURVE('',#250,#83,#248,.T.) ;
#256=EDGE_CURVE('',#217,#250,#255,.T.) ;
#275=EDGE_CURVE('',#274,#224,#272,.T.) ;
#280=EDGE_CURVE('',#250,#274,#279,.F.) ;
#297=EDGE_CURVE('',#274,#146,#296,.T.) ;
#314=EDGE_CURVE('',#106,#130,#313,.F.) ;
#66=EDGE_LOOP('',(#67,#68,#69,#70)) ;
#90=EDGE_LOOP('',(#91,#92,#93)) ;
#113=EDGE_LOOP('',(#114,#115,#116,#117)) ;
#153=EDGE_LOOP('',(#154,#155,#156,#157)) ;
#184=EDGE_LOOP('',(#185,#186,#187,#188)) ;
#196=EDGE_LOOP('',(#197,#198,#199)) ;
#231=EDGE_LOOP('',(#232,#233,#234,#235,#236,#237)) ;
#257=EDGE_LOOP('',(#258,#259,#260,#261)) ;
#281=EDGE_LOOP('',(#282,#283,#284,#285)) ;
#298=EDGE_LOOP('',(#299,#300,#301,#302)) ;
#315=EDGE_LOOP('',(#316,#317,#318,#319,#320,#321)) ;
#329=EDGE_LOOP('',(#330,#331,#332,#333,#334,#335)) ;
#71=FACE_OUTER_BOUND('',#66,.T.) ;
#94=FACE_OUTER_BOUND('',#90,.T.) ;
#118=FACE_OUTER_BOUND('',#113,.T.) ;
#158=FACE_OUTER_BOUND('',#153,.T.) ;
#189=FACE_OUTER_BOUND('',#184,.T.) ;
#200=FACE_OUTER_BOUND('',#196,.T.) ;
#238=FACE_OUTER_BOUND('',#231,.T.) ;
#262=FACE_OUTER_BOUND('',#257,.T.) ;
#286=FACE_OUTER_BOUND('',#281,.T.) ;
#303=FACE_OUTER_BOUND('',#298,.T.) ;
#322=FACE_OUTER_BOUND('',#315,.T.) ;
#336=FACE_OUTER_BOUND('',#329,.T.) ;
#41=LINE('Line',#38,#40) ;
#50=LINE('Line',#47,#49) ;
#57=LINE('Line',#54,#56) ;
#64=LINE('Line',#61,#63) ;
#81=LINE('Line',#78,#80) ;
#88=LINE('Line',#85,#87) ;
#104=LINE('Line',#101,#103) ;
#111=LINE('Line',#108,#110) ;
#128=LINE('Line',#125,#127) ;
#137=LINE('Line',#134,#136) ;
#144=LINE('Line',#141,#143) ;
#151=LINE('Line',#148,#150) ;
#168=LINE('Line',#165,#167) ;
#175=LINE('Line',#172,#174) ;
#182=LINE('Line',#179,#181) ;
#194=LINE('Line',#191,#193) ;
#210=LINE('Line',#207,#209) ;
#215=LINE('Line',#212,#214) ;
#222=LINE('Line',#219,#221) ;
#229=LINE('Line',#226,#228) ;
#248=LINE('Line',#245,#247) ;
#255=LINE('Line',#252,#254) ;
#272=LINE('Line',#269,#271) ;
#279=LINE('Line',#276,#278) ;
#296=LINE('Line',#293,#295) ;
#313=LINE('Line',#310,#312) ;
#37=PLANE('',#36) ;
#77=PLANE('',#76) ;
#100=PLANE('',#99) ;
#124=PLANE('',#123) ;
#164=PLANE('',#163) ;
#206=PLANE('',#205) ;
#244=PLANE('',#243) ;
#268=PLANE('',#267) ;
#292=PLANE('',#291) ;
#309=PLANE('',#308) ;
#328=PLANE('',#327) ;
#14=PLANE_ANGLE_MEASURE_WITH_UNIT(PLANE_ANGLE_MEASURE(0.0174532925199),#13) ;
#9=PRODUCT_CATEGORY_RELATIONSHIP(' ',' ',#7,#8) ;
#6=PRODUCT_DEFINITION_FORMATION_WITH_SPECIFIED_SOURCE('',' ',#5,.NOT_KNOWN.) ;
#21=SHAPE_DEFINITION_REPRESENTATION(#11,#20) ;
#43=VERTEX_POINT('',#42) ;
#45=VERTEX_POINT('',#44) ;
#52=VERTEX_POINT('',#51) ;
#59=VERTEX_POINT('',#58) ;
#83=VERTEX_POINT('',#82) ;
#106=VERTEX_POINT('',#105) ;
#130=VERTEX_POINT('',#129) ;
#132=VERTEX_POINT('',#131) ;
#139=VERTEX_POINT('',#138) ;
#146=VERTEX_POINT('',#145) ;
#170=VERTEX_POINT('',#169) ;
#177=VERTEX_POINT('',#176) ;
#217=VERTEX_POINT('',#216) ;
#224=VERTEX_POINT('',#223) ;
#250=VERTEX_POINT('',#249) ;
#274=VERTEX_POINT('',#273) ;
#12=(LENGTH_UNIT()NAMED_UNIT(*)SI_UNIT(.MILLI.,.METRE.)) ;
#13=(NAMED_UNIT(*)PLANE_ANGLE_UNIT()SI_UNIT($,.RADIAN.)) ;
#15=(NAMED_UNIT(*)SI_UNIT($,.STERADIAN.)SOLID_ANGLE_UNIT()) ;
#17=(GEOMETRIC_REPRESENTATION_CONTEXT(3)GLOBAL_UNCERTAINTY_ASSIGNED_CONTEXT((#16))GLOBAL_UNIT_ASSIGNED_CONTEXT((#12,#13,#15))REPRESENTATION_CONTEXT(' ',' ')) ;
ENDSEC;
END-ISO-10303-21;
