ISO-10303-21;
HEADER;
FILE_DESCRIPTION(('CATIA V5 STEP Exchange','CAx-IF Rec.Pracs.--- Model Styling and Organization---1.4--- 2014-01-23'),'2;1');

FILE_NAME ('001848-2_0_0345300000_0345300000_S.stp','2021-05-07T12:22:38+00:00',('none'),('Weidmueller'),'CATIA Version 5-6 Release 2016 SP3 HF44','CATIA V5 STEP AP214','none');

FILE_SCHEMA(('AUTOMOTIVE_DESIGN { 1 0 10303 214 1 1 1 1 }'));

ENDSEC;
DATA;
#5=PRODUCT('QL 2 SAK70','','',(#2)) ;
#2=PRODUCT_CONTEXT(' ',#1,'mechanical') ;
#1=APPLICATION_CONTEXT('automotive design') ;
#10=PRODUCT_DEFINITION('',' ',#6,#3) ;
#3=PRODUCT_DEFINITION_CONTEXT('part definition',#1,' ') ;
#11=PRODUCT_DEFINITION_SHAPE(' ',' ',#10) ;
#323=MECHANICAL_DESIGN_GEOMETRIC_PRESENTATION_REPRESENTATION(' ',(#29),#16) ;
#324=MECHANICAL_DESIGN_GEOMETRIC_PRESENTATION_REPRESENTATION(' ',(#320),#16) ;
#19=SHAPE_REPRESENTATION(' ',(#18),#16) ;
#18=AXIS2_PLACEMENT_3D(' ',#17,$,$) ;
#35=AXIS2_PLACEMENT_3D('Cylinder Axis2P3D',#32,#33,#34) ;
#39=AXIS2_PLACEMENT_3D('Circle Axis2P3D',#37,#38,$) ;
#55=AXIS2_PLACEMENT_3D('Circle Axis2P3D',#53,#54,$) ;
#74=AXIS2_PLACEMENT_3D('Circle Axis2P3D',#72,#73,$) ;
#79=AXIS2_PLACEMENT_3D('Circle Axis2P3D',#77,#78,$) ;
#92=AXIS2_PLACEMENT_3D('Plane Axis2P3D',#89,#90,#91) ;
#134=AXIS2_PLACEMENT_3D('Circle Axis2P3D',#132,#133,$) ;
#143=AXIS2_PLACEMENT_3D('Circle Axis2P3D',#141,#142,$) ;
#154=AXIS2_PLACEMENT_3D('Plane Axis2P3D',#151,#152,#153) ;
#196=AXIS2_PLACEMENT_3D('Circle Axis2P3D',#194,#195,$) ;
#205=AXIS2_PLACEMENT_3D('Circle Axis2P3D',#203,#204,$) ;
#216=AXIS2_PLACEMENT_3D('Cylinder Axis2P3D',#213,#214,#215) ;
#245=AXIS2_PLACEMENT_3D('Plane Axis2P3D',#242,#243,#244) ;
#267=AXIS2_PLACEMENT_3D('Plane Axis2P3D',#264,#265,#266) ;
#284=AXIS2_PLACEMENT_3D('Plane Axis2P3D',#281,#282,#283) ;
#301=AXIS2_PLACEMENT_3D('Plane Axis2P3D',#298,#299,#300) ;
#315=AXIS2_PLACEMENT_3D('Axis System.1',#312,#313,#314) ;
#17=CARTESIAN_POINT(' ',(0.,0.,0.)) ;
#32=CARTESIAN_POINT('Axis2P3D Location',(29.,7.,3.9)) ;
#37=CARTESIAN_POINT('Axis2P3D Location',(29.,7.,4.)) ;
#41=CARTESIAN_POINT('Vertex',(31.4133520452,5.68157976884,4.)) ;
#43=CARTESIAN_POINT('Vertex',(26.5866479548,8.31842023116,4.)) ;
#46=CARTESIAN_POINT('Line Origine',(26.5866479548,8.31842023116,2.15500000002)) ;
#50=CARTESIAN_POINT('Vertex',(26.5866479548,8.31842023116,0.)) ;
#53=CARTESIAN_POINT('Axis2P3D Location',(29.,7.,0.)) ;
#57=CARTESIAN_POINT('Vertex',(31.4133520452,5.68157976884,0.)) ;
#60=CARTESIAN_POINT('Line Origine',(31.4133520452,5.68157976884,2.15500000002)) ;
#72=CARTESIAN_POINT('Axis2P3D Location',(29.,7.,4.)) ;
#77=CARTESIAN_POINT('Axis2P3D Location',(29.,7.,0.)) ;
#89=CARTESIAN_POINT('Axis2P3D Location',(0.,0.,0.)) ;
#94=CARTESIAN_POINT('Line Origine',(0.,7.,0.)) ;
#98=CARTESIAN_POINT('Vertex',(0.,14.,0.)) ;
#100=CARTESIAN_POINT('Vertex',(0.,0.,0.)) ;
#103=CARTESIAN_POINT('Line Origine',(18.,14.,0.)) ;
#107=CARTESIAN_POINT('Vertex',(36.,14.,0.)) ;
#110=CARTESIAN_POINT('Line Origine',(36.,7.,0.)) ;
#114=CARTESIAN_POINT('Vertex',(36.,0.,0.)) ;
#117=CARTESIAN_POINT('Line Origine',(18.,0.,0.)) ;
#132=CARTESIAN_POINT('Axis2P3D Location',(7.,7.,0.)) ;
#136=CARTESIAN_POINT('Vertex',(9.4133520452,5.68157976884,0.)) ;
#138=CARTESIAN_POINT('Vertex',(4.5866479548,8.31842023116,0.)) ;
#141=CARTESIAN_POINT('Axis2P3D Location',(7.,7.,0.)) ;
#151=CARTESIAN_POINT('Axis2P3D Location',(0.,0.,4.)) ;
#156=CARTESIAN_POINT('Line Origine',(18.,0.,4.)) ;
#160=CARTESIAN_POINT('Vertex',(0.,0.,4.)) ;
#162=CARTESIAN_POINT('Vertex',(36.,0.,4.)) ;
#165=CARTESIAN_POINT('Line Origine',(36.,7.,4.)) ;
#169=CARTESIAN_POINT('Vertex',(36.,14.,4.)) ;
#172=CARTESIAN_POINT('Line Origine',(18.,14.,4.)) ;
#176=CARTESIAN_POINT('Vertex',(0.,14.,4.)) ;
#179=CARTESIAN_POINT('Line Origine',(0.,7.,4.)) ;
#194=CARTESIAN_POINT('Axis2P3D Location',(7.,7.,4.)) ;
#198=CARTESIAN_POINT('Vertex',(4.5866479548,8.31842023116,4.)) ;
#200=CARTESIAN_POINT('Vertex',(9.4133520452,5.68157976884,4.)) ;
#203=CARTESIAN_POINT('Axis2P3D Location',(7.,7.,4.)) ;
#213=CARTESIAN_POINT('Axis2P3D Location',(7.,7.,3.9)) ;
#218=CARTESIAN_POINT('Line Origine',(9.4133520452,5.68157976884,2.15500000002)) ;
#223=CARTESIAN_POINT('Line Origine',(4.5866479548,8.31842023116,2.15500000002)) ;
#242=CARTESIAN_POINT('Axis2P3D Location',(0.,14.,0.)) ;
#247=CARTESIAN_POINT('Line Origine',(0.,14.,2.)) ;
#252=CARTESIAN_POINT('Line Origine',(0.,0.,2.)) ;
#264=CARTESIAN_POINT('Axis2P3D Location',(36.,14.,0.)) ;
#269=CARTESIAN_POINT('Line Origine',(36.,14.,2.)) ;
#281=CARTESIAN_POINT('Axis2P3D Location',(36.,0.,0.)) ;
#286=CARTESIAN_POINT('Line Origine',(36.,0.,2.)) ;
#298=CARTESIAN_POINT('Axis2P3D Location',(0.,0.,0.)) ;
#312=CARTESIAN_POINT('Axis2P3D Location',(0.,0.,0.)) ;
#33=DIRECTION('Axis2P3D Direction',(0.,-0.,-1.)) ;
#34=DIRECTION('Axis2P3D XDirection',(0.87758256189,-0.479425538604,0.)) ;
#38=DIRECTION('Axis2P3D Direction',(0.,-0.,-1.)) ;
#47=DIRECTION('Vector Direction',(0.,0.,-1.)) ;
#54=DIRECTION('Axis2P3D Direction',(0.,-0.,-1.)) ;
#61=DIRECTION('Vector Direction',(0.,0.,-1.)) ;
#73=DIRECTION('Axis2P3D Direction',(0.,-0.,-1.)) ;
#78=DIRECTION('Axis2P3D Direction',(0.,-0.,-1.)) ;
#90=DIRECTION('Axis2P3D Direction',(0.,0.,1.)) ;
#91=DIRECTION('Axis2P3D XDirection',(1.,0.,0.)) ;
#95=DIRECTION('Vector Direction',(0.,-1.,0.)) ;
#104=DIRECTION('Vector Direction',(-1.,0.,0.)) ;
#111=DIRECTION('Vector Direction',(0.,1.,0.)) ;
#118=DIRECTION('Vector Direction',(1.,0.,0.)) ;
#133=DIRECTION('Axis2P3D Direction',(0.,0.,1.)) ;
#142=DIRECTION('Axis2P3D Direction',(0.,0.,1.)) ;
#152=DIRECTION('Axis2P3D Direction',(0.,0.,1.)) ;
#153=DIRECTION('Axis2P3D XDirection',(1.,0.,0.)) ;
#157=DIRECTION('Vector Direction',(1.,0.,0.)) ;
#166=DIRECTION('Vector Direction',(0.,1.,0.)) ;
#173=DIRECTION('Vector Direction',(-1.,0.,0.)) ;
#180=DIRECTION('Vector Direction',(0.,-1.,0.)) ;
#195=DIRECTION('Axis2P3D Direction',(0.,0.,1.)) ;
#204=DIRECTION('Axis2P3D Direction',(0.,0.,1.)) ;
#214=DIRECTION('Axis2P3D Direction',(0.,-0.,-1.)) ;
#215=DIRECTION('Axis2P3D XDirection',(0.87758256189,-0.479425538604,0.)) ;
#219=DIRECTION('Vector Direction',(0.,0.,-1.)) ;
#224=DIRECTION('Vector Direction',(0.,0.,-1.)) ;
#243=DIRECTION('Axis2P3D Direction',(-1.,0.,0.)) ;
#244=DIRECTION('Axis2P3D XDirection',(0.,-1.,0.)) ;
#248=DIRECTION('Vector Direction',(0.,0.,1.)) ;
#253=DIRECTION('Vector Direction',(0.,0.,1.)) ;
#265=DIRECTION('Axis2P3D Direction',(0.,1.,-0.)) ;
#266=DIRECTION('Axis2P3D XDirection',(-1.,0.,0.)) ;
#270=DIRECTION('Vector Direction',(0.,0.,1.)) ;
#282=DIRECTION('Axis2P3D Direction',(1.,0.,0.)) ;
#283=DIRECTION('Axis2P3D XDirection',(0.,1.,0.)) ;
#287=DIRECTION('Vector Direction',(0.,0.,1.)) ;
#299=DIRECTION('Axis2P3D Direction',(0.,-1.,0.)) ;
#300=DIRECTION('Axis2P3D XDirection',(1.,0.,0.)) ;
#313=DIRECTION('Axis2P3D Direction',(0.,0.,1.)) ;
#314=DIRECTION('Axis2P3D XDirection',(1.,0.,0.)) ;
#30=PRESENTATION_LAYER_ASSIGNMENT('1',' ',(#21)) ;
#8=PRODUCT_RELATED_PRODUCT_CATEGORY('part',$,(#5)) ;
#7=PRODUCT_CATEGORY('part','specification') ;
#29=STYLED_ITEM(' ',(#28),#21) ;
#320=STYLED_ITEM(' ',(#319),#315) ;
#28=PRESENTATION_STYLE_ASSIGNMENT((#27)) ;
#319=PRESENTATION_STYLE_ASSIGNMENT((#318)) ;
#318=CURVE_STYLE(' ',#316,POSITIVE_LENGTH_MEASURE(0.129999995232),#317) ;
#27=SURFACE_STYLE_USAGE(.BOTH.,#26) ;
#26=SURFACE_SIDE_STYLE(' ',(#25)) ;
#25=SURFACE_STYLE_FILL_AREA(#24) ;
#24=FILL_AREA_STYLE(' ',(#23)) ;
#23=FILL_AREA_STYLE_COLOUR(' ',#22) ;
#48=VECTOR('Line Direction',#47,1.) ;
#62=VECTOR('Line Direction',#61,1.) ;
#96=VECTOR('Line Direction',#95,1.) ;
#105=VECTOR('Line Direction',#104,1.) ;
#112=VECTOR('Line Direction',#111,1.) ;
#119=VECTOR('Line Direction',#118,1.) ;
#158=VECTOR('Line Direction',#157,1.) ;
#167=VECTOR('Line Direction',#166,1.) ;
#174=VECTOR('Line Direction',#173,1.) ;
#181=VECTOR('Line Direction',#180,1.) ;
#220=VECTOR('Line Direction',#219,1.) ;
#225=VECTOR('Line Direction',#224,1.) ;
#249=VECTOR('Line Direction',#248,1.) ;
#254=VECTOR('Line Direction',#253,1.) ;
#271=VECTOR('Line Direction',#270,1.) ;
#288=VECTOR('Line Direction',#287,1.) ;
#15=UNCERTAINTY_MEASURE_WITH_UNIT(LENGTH_MEASURE(0.005),#12,'distance_accuracy_value','CONFUSED CURVE UNCERTAINTY') ;
#311=SHAPE_REPRESENTATION_RELATIONSHIP(' ',' ',#19,#310) ;
#66=ORIENTED_EDGE('',*,*,#45,.T.) ;
#67=ORIENTED_EDGE('',*,*,#52,.F.) ;
#68=ORIENTED_EDGE('',*,*,#59,.T.) ;
#69=ORIENTED_EDGE('',*,*,#64,.T.) ;
#83=ORIENTED_EDGE('',*,*,#76,.T.) ;
#84=ORIENTED_EDGE('',*,*,#64,.F.) ;
#85=ORIENTED_EDGE('',*,*,#81,.T.) ;
#86=ORIENTED_EDGE('',*,*,#52,.T.) ;
#123=ORIENTED_EDGE('',*,*,#102,.F.) ;
#124=ORIENTED_EDGE('',*,*,#109,.F.) ;
#125=ORIENTED_EDGE('',*,*,#116,.F.) ;
#126=ORIENTED_EDGE('',*,*,#121,.F.) ;
#129=ORIENTED_EDGE('',*,*,#81,.F.) ;
#130=ORIENTED_EDGE('',*,*,#59,.F.) ;
#147=ORIENTED_EDGE('',*,*,#140,.F.) ;
#148=ORIENTED_EDGE('',*,*,#145,.F.) ;
#185=ORIENTED_EDGE('',*,*,#164,.T.) ;
#186=ORIENTED_EDGE('',*,*,#171,.T.) ;
#187=ORIENTED_EDGE('',*,*,#178,.T.) ;
#188=ORIENTED_EDGE('',*,*,#183,.T.) ;
#191=ORIENTED_EDGE('',*,*,#76,.F.) ;
#192=ORIENTED_EDGE('',*,*,#45,.F.) ;
#209=ORIENTED_EDGE('',*,*,#202,.F.) ;
#210=ORIENTED_EDGE('',*,*,#207,.F.) ;
#229=ORIENTED_EDGE('',*,*,#202,.T.) ;
#230=ORIENTED_EDGE('',*,*,#222,.F.) ;
#231=ORIENTED_EDGE('',*,*,#140,.T.) ;
#232=ORIENTED_EDGE('',*,*,#227,.T.) ;
#236=ORIENTED_EDGE('',*,*,#207,.T.) ;
#237=ORIENTED_EDGE('',*,*,#227,.F.) ;
#238=ORIENTED_EDGE('',*,*,#145,.T.) ;
#239=ORIENTED_EDGE('',*,*,#222,.T.) ;
#258=ORIENTED_EDGE('',*,*,#251,.F.) ;
#259=ORIENTED_EDGE('',*,*,#102,.T.) ;
#260=ORIENTED_EDGE('',*,*,#256,.T.) ;
#261=ORIENTED_EDGE('',*,*,#183,.F.) ;
#275=ORIENTED_EDGE('',*,*,#273,.F.) ;
#276=ORIENTED_EDGE('',*,*,#109,.T.) ;
#277=ORIENTED_EDGE('',*,*,#251,.T.) ;
#278=ORIENTED_EDGE('',*,*,#178,.F.) ;
#292=ORIENTED_EDGE('',*,*,#290,.F.) ;
#293=ORIENTED_EDGE('',*,*,#116,.T.) ;
#294=ORIENTED_EDGE('',*,*,#273,.T.) ;
#295=ORIENTED_EDGE('',*,*,#171,.F.) ;
#304=ORIENTED_EDGE('',*,*,#256,.F.) ;
#305=ORIENTED_EDGE('',*,*,#121,.T.) ;
#306=ORIENTED_EDGE('',*,*,#290,.T.) ;
#307=ORIENTED_EDGE('',*,*,#164,.F.) ;
#131=FACE_BOUND('',#128,.T.) ;
#149=FACE_BOUND('',#146,.T.) ;
#193=FACE_BOUND('',#190,.T.) ;
#211=FACE_BOUND('',#208,.T.) ;
#31=CLOSED_SHELL('Closed Shell',(#71,#88,#150,#212,#234,#241,#263,#280,#297,#309)) ;
#310=ADVANCED_BREP_SHAPE_REPRESENTATION('NONE',(#21),#16) ;
#71=ADVANCED_FACE('Body.3',(#70),#36,.F.) ;
#88=ADVANCED_FACE('Body.3',(#87),#36,.F.) ;
#150=ADVANCED_FACE('Body.3',(#127,#131,#149),#93,.F.) ;
#212=ADVANCED_FACE('Body.3',(#189,#193,#211),#155,.T.) ;
#234=ADVANCED_FACE('Body.3',(#233),#217,.F.) ;
#241=ADVANCED_FACE('Body.3',(#240),#217,.F.) ;
#263=ADVANCED_FACE('Body.3',(#262),#246,.T.) ;
#280=ADVANCED_FACE('Body.3',(#279),#268,.T.) ;
#297=ADVANCED_FACE('Body.3',(#296),#285,.T.) ;
#309=ADVANCED_FACE('Body.3',(#308),#302,.T.) ;
#4=APPLICATION_PROTOCOL_DEFINITION('international standard','automotive_design',2001,#1) ;
#21=MANIFOLD_SOLID_BREP('Body.3',#31) ;
#40=CIRCLE('generated circle',#39,2.75) ;
#56=CIRCLE('generated circle',#55,2.75) ;
#75=CIRCLE('generated circle',#74,2.75) ;
#80=CIRCLE('generated circle',#79,2.75) ;
#135=CIRCLE('generated circle',#134,2.75) ;
#144=CIRCLE('generated circle',#143,2.75) ;
#197=CIRCLE('generated circle',#196,2.75) ;
#206=CIRCLE('generated circle',#205,2.75) ;
#22=COLOUR_RGB('Colour',0.823529411765,0.823529411765,1.) ;
#321=CONSTRUCTIVE_GEOMETRY_REPRESENTATION('supplemental geometry',(#315),#16) ;
#322=CONSTRUCTIVE_GEOMETRY_REPRESENTATION_RELATIONSHIP('supplemental geometry','',#19,#321) ;
#36=CYLINDRICAL_SURFACE('generated cylinder',#35,2.75) ;
#217=CYLINDRICAL_SURFACE('generated cylinder',#216,2.75) ;
#317=DRAUGHTING_PRE_DEFINED_COLOUR('white') ;
#316=DRAUGHTING_PRE_DEFINED_CURVE_FONT('continuous') ;
#45=EDGE_CURVE('',#42,#44,#40,.F.) ;
#52=EDGE_CURVE('',#51,#44,#49,.F.) ;
#59=EDGE_CURVE('',#51,#58,#56,.T.) ;
#64=EDGE_CURVE('',#58,#42,#63,.F.) ;
#76=EDGE_CURVE('',#44,#42,#75,.F.) ;
#81=EDGE_CURVE('',#58,#51,#80,.T.) ;
#102=EDGE_CURVE('',#99,#101,#97,.T.) ;
#109=EDGE_CURVE('',#108,#99,#106,.T.) ;
#116=EDGE_CURVE('',#115,#108,#113,.T.) ;
#121=EDGE_CURVE('',#101,#115,#120,.T.) ;
#140=EDGE_CURVE('',#137,#139,#135,.F.) ;
#145=EDGE_CURVE('',#139,#137,#144,.F.) ;
#164=EDGE_CURVE('',#161,#163,#159,.T.) ;
#171=EDGE_CURVE('',#163,#170,#168,.T.) ;
#178=EDGE_CURVE('',#170,#177,#175,.T.) ;
#183=EDGE_CURVE('',#177,#161,#182,.T.) ;
#202=EDGE_CURVE('',#199,#201,#197,.T.) ;
#207=EDGE_CURVE('',#201,#199,#206,.T.) ;
#222=EDGE_CURVE('',#137,#201,#221,.F.) ;
#227=EDGE_CURVE('',#139,#199,#226,.F.) ;
#251=EDGE_CURVE('',#99,#177,#250,.T.) ;
#256=EDGE_CURVE('',#101,#161,#255,.T.) ;
#273=EDGE_CURVE('',#108,#170,#272,.T.) ;
#290=EDGE_CURVE('',#115,#163,#289,.T.) ;
#65=EDGE_LOOP('',(#66,#67,#68,#69)) ;
#82=EDGE_LOOP('',(#83,#84,#85,#86)) ;
#122=EDGE_LOOP('',(#123,#124,#125,#126)) ;
#128=EDGE_LOOP('',(#129,#130)) ;
#146=EDGE_LOOP('',(#147,#148)) ;
#184=EDGE_LOOP('',(#185,#186,#187,#188)) ;
#190=EDGE_LOOP('',(#191,#192)) ;
#208=EDGE_LOOP('',(#209,#210)) ;
#228=EDGE_LOOP('',(#229,#230,#231,#232)) ;
#235=EDGE_LOOP('',(#236,#237,#238,#239)) ;
#257=EDGE_LOOP('',(#258,#259,#260,#261)) ;
#274=EDGE_LOOP('',(#275,#276,#277,#278)) ;
#291=EDGE_LOOP('',(#292,#293,#294,#295)) ;
#303=EDGE_LOOP('',(#304,#305,#306,#307)) ;
#70=FACE_OUTER_BOUND('',#65,.T.) ;
#87=FACE_OUTER_BOUND('',#82,.T.) ;
#127=FACE_OUTER_BOUND('',#122,.T.) ;
#189=FACE_OUTER_BOUND('',#184,.T.) ;
#233=FACE_OUTER_BOUND('',#228,.T.) ;
#240=FACE_OUTER_BOUND('',#235,.T.) ;
#262=FACE_OUTER_BOUND('',#257,.T.) ;
#279=FACE_OUTER_BOUND('',#274,.T.) ;
#296=FACE_OUTER_BOUND('',#291,.T.) ;
#308=FACE_OUTER_BOUND('',#303,.T.) ;
#49=LINE('Line',#46,#48) ;
#63=LINE('Line',#60,#62) ;
#97=LINE('Line',#94,#96) ;
#106=LINE('Line',#103,#105) ;
#113=LINE('Line',#110,#112) ;
#120=LINE('Line',#117,#119) ;
#159=LINE('Line',#156,#158) ;
#168=LINE('Line',#165,#167) ;
#175=LINE('Line',#172,#174) ;
#182=LINE('Line',#179,#181) ;
#221=LINE('Line',#218,#220) ;
#226=LINE('Line',#223,#225) ;
#250=LINE('Line',#247,#249) ;
#255=LINE('Line',#252,#254) ;
#272=LINE('Line',#269,#271) ;
#289=LINE('Line',#286,#288) ;
#93=PLANE('',#92) ;
#155=PLANE('',#154) ;
#246=PLANE('',#245) ;
#268=PLANE('',#267) ;
#285=PLANE('',#284) ;
#302=PLANE('',#301) ;
#9=PRODUCT_CATEGORY_RELATIONSHIP(' ',' ',#7,#8) ;
#6=PRODUCT_DEFINITION_FORMATION_WITH_SPECIFIED_SOURCE('',' ',#5,.NOT_KNOWN.) ;
#20=SHAPE_DEFINITION_REPRESENTATION(#11,#19) ;
#42=VERTEX_POINT('',#41) ;
#44=VERTEX_POINT('',#43) ;
#51=VERTEX_POINT('',#50) ;
#58=VERTEX_POINT('',#57) ;
#99=VERTEX_POINT('',#98) ;
#101=VERTEX_POINT('',#100) ;
#108=VERTEX_POINT('',#107) ;
#115=VERTEX_POINT('',#114) ;
#137=VERTEX_POINT('',#136) ;
#139=VERTEX_POINT('',#138) ;
#161=VERTEX_POINT('',#160) ;
#163=VERTEX_POINT('',#162) ;
#170=VERTEX_POINT('',#169) ;
#177=VERTEX_POINT('',#176) ;
#199=VERTEX_POINT('',#198) ;
#201=VERTEX_POINT('',#200) ;
#12=(LENGTH_UNIT()NAMED_UNIT(*)SI_UNIT(.MILLI.,.METRE.)) ;
#13=(NAMED_UNIT(*)PLANE_ANGLE_UNIT()SI_UNIT($,.RADIAN.)) ;
#14=(NAMED_UNIT(*)SI_UNIT($,.STERADIAN.)SOLID_ANGLE_UNIT()) ;
#16=(GEOMETRIC_REPRESENTATION_CONTEXT(3)GLOBAL_UNCERTAINTY_ASSIGNED_CONTEXT((#15))GLOBAL_UNIT_ASSIGNED_CONTEXT((#12,#13,#14))REPRESENTATION_CONTEXT(' ',' ')) ;
ENDSEC;
END-ISO-10303-21;
