ISO-10303-21;
HEADER;
FILE_DESCRIPTION(('CATIA V5 STEP Exchange','CAx-IF Rec.Pracs.--- Model Styling and Organization---1.5--- 2016-08-15','CAx-IF Rec.Pracs.---Supplemental Geometry---1.0---2011-11-01','CAx-IF Rec.Pracs.--- Composite Materials ---1.1---2010-07-15'),'2;1');

FILE_NAME ('D1458894_0', '2025-09-22T05:26:40+00:00', ('none'), ('Weidmueller'), 'CATIA Version 5-6 Release 2024 SP4', 'CATIA V5 STEP AP214 v3', 'none');

FILE_SCHEMA(('AUTOMOTIVE_DESIGN { 1 0 10303 214 1 1 1 1 }'));

ENDSEC;
DATA;
#5=PRODUCT('MF 4/5.2','','<Q-CHECKER_SEAL> Q-Checker Version 2.14.8  \X2\000A\X0\CATIA-Version         : Catia V5 R20 SP5 Build Date 01-06-2014.17.15\X2\000A\X0\Model size (in KByte) : 0\X2\000A\X0\Checking date         : 2014-06-25 11:46:20\X2\000A\X0\Checking profile      : ADMIN / Release_2D-3D [CATPart]\X2\000A\X0\Model assessment      : In Ordnung (IO)\X2\000A\X0\Total weight sum      : 0\X2\000A\X0\<CROSS_CHECK_SUM>\X2\000A\X0\  <CHKSUM_DATE> 1930362063 </CHKSUM_DATE>\X2\000A\X0\  <CHKSUM_ENTITIES> 2078481463 </CHKSUM_ENTITIES>\X2\000A\X0\  <CHKSUM_PROFILE> 1594213346 </CHKSUM_PROFILE>\X2\000A\X0\  <CHKSUM_DIMENSION> -186917087 </CHKSUM_DIMENSION>\X2\000A\X0\  <CHKSUM_PROJINTERSEC> -896974048 </CHKSUM_PROJINTERSEC>\X2\000A\X0\  <CHKSUM_IDENTCRV> -896974048 </CHKSUM_IDENTCRV>\X2\000A\X0\  <CHKSUM_INFINITY> 138018827 </CHKSUM_INFINITY>\X2\000A\X0\</CROSS_CHECK_SUM>\X2\000A\X0\</Q-CHECKER_SEAL> \X2\000A\X0\ \X2\000A\X0\ \X2\000A\X0\ \X2\000A\X0\',(#2)) ;
#2=PRODUCT_CONTEXT(' ',#1,'mechanical') ;
#1=APPLICATION_CONTEXT('automotive design') ;
#10=PRODUCT_DEFINITION('',' ',#6,#3) ;
#3=PRODUCT_DEFINITION_CONTEXT('part definition',#1,' ') ;
#11=PRODUCT_DEFINITION_SHAPE(' ',' ',#10) ;
#324=MECHANICAL_DESIGN_GEOMETRIC_PRESENTATION_REPRESENTATION(' ',(#29),#16) ;
#19=SHAPE_REPRESENTATION(' ',(#18),#16) ;
#18=AXIS2_PLACEMENT_3D(' ',#17,$,$) ;
#35=AXIS2_PLACEMENT_3D('Plane Axis2P3D',#32,#33,#34) ;
#75=AXIS2_PLACEMENT_3D('Plane Axis2P3D',#72,#73,#74) ;
#106=AXIS2_PLACEMENT_3D('Plane Axis2P3D',#103,#104,#105) ;
#164=AXIS2_PLACEMENT_3D('Plane Axis2P3D',#161,#162,#163) ;
#188=AXIS2_PLACEMENT_3D('Plane Axis2P3D',#185,#186,#187) ;
#205=AXIS2_PLACEMENT_3D('Plane Axis2P3D',#202,#203,#204) ;
#217=AXIS2_PLACEMENT_3D('Plane Axis2P3D',#214,#215,#216) ;
#248=AXIS2_PLACEMENT_3D('Plane Axis2P3D',#245,#246,#247) ;
#272=AXIS2_PLACEMENT_3D('Plane Axis2P3D',#269,#270,#271) ;
#296=AXIS2_PLACEMENT_3D('Plane Axis2P3D',#293,#294,#295) ;
#313=AXIS2_PLACEMENT_3D('Plane Axis2P3D',#310,#311,#312) ;
#17=CARTESIAN_POINT(' ',(0.,0.,0.)) ;
#32=CARTESIAN_POINT('Axis2P3D Location',(2.9,1.5,2.2)) ;
#37=CARTESIAN_POINT('Line Origine',(2.9,1.5,1.10000000037)) ;
#41=CARTESIAN_POINT('Vertex',(2.9,1.5,2.2)) ;
#43=CARTESIAN_POINT('Vertex',(2.9,1.5,7.45058237328E-10)) ;
#46=CARTESIAN_POINT('Line Origine',(2.4,1.5,2.2)) ;
#50=CARTESIAN_POINT('Vertex',(1.9,1.5,2.2)) ;
#53=CARTESIAN_POINT('Line Origine',(1.9,1.5,1.10000000037)) ;
#57=CARTESIAN_POINT('Vertex',(1.9,1.5,7.45058237328E-10)) ;
#60=CARTESIAN_POINT('Line Origine',(2.4,1.5,7.45058237328E-10)) ;
#72=CARTESIAN_POINT('Axis2P3D Location',(2.9,1.5,2.2)) ;
#77=CARTESIAN_POINT('Line Origine',(2.9,2.5,1.10000000037)) ;
#81=CARTESIAN_POINT('Vertex',(2.9,2.5,2.2)) ;
#83=CARTESIAN_POINT('Vertex',(2.9,2.5,7.45058237328E-10)) ;
#86=CARTESIAN_POINT('Line Origine',(2.9,2.,2.2)) ;
#91=CARTESIAN_POINT('Line Origine',(2.9,2.,7.45058237328E-10)) ;
#103=CARTESIAN_POINT('Axis2P3D Location',(2.4,2.,2.2)) ;
#108=CARTESIAN_POINT('Line Origine',(4.80000000037,2.,2.2)) ;
#112=CARTESIAN_POINT('Vertex',(4.80000000037,-1.46957615921E-16,2.2)) ;
#114=CARTESIAN_POINT('Vertex',(4.80000000037,4.,2.2)) ;
#117=CARTESIAN_POINT('Line Origine',(2.4,0.,2.2)) ;
#121=CARTESIAN_POINT('Vertex',(-3.72529562753E-10,1.46957615921E-16,2.2)) ;
#124=CARTESIAN_POINT('Line Origine',(-3.72529562753E-10,2.,2.2)) ;
#128=CARTESIAN_POINT('Vertex',(-3.72529562753E-10,4.,2.2)) ;
#131=CARTESIAN_POINT('Line Origine',(2.4,4.,2.2)) ;
#142=CARTESIAN_POINT('Line Origine',(2.4,2.5,2.2)) ;
#146=CARTESIAN_POINT('Vertex',(1.9,2.5,2.2)) ;
#149=CARTESIAN_POINT('Line Origine',(1.9,2.,2.2)) ;
#161=CARTESIAN_POINT('Axis2P3D Location',(1.9,2.5,2.2)) ;
#166=CARTESIAN_POINT('Line Origine',(1.9,2.5,1.10000000037)) ;
#170=CARTESIAN_POINT('Vertex',(1.9,2.5,7.45058237328E-10)) ;
#173=CARTESIAN_POINT('Line Origine',(1.9,2.,7.45058237328E-10)) ;
#185=CARTESIAN_POINT('Axis2P3D Location',(2.4,2.,0.)) ;
#190=CARTESIAN_POINT('Line Origine',(2.4,2.5,0.)) ;
#202=CARTESIAN_POINT('Axis2P3D Location',(1.9,2.5,2.2)) ;
#214=CARTESIAN_POINT('Axis2P3D Location',(4.8,4.,2.2)) ;
#219=CARTESIAN_POINT('Line Origine',(4.8,1.49975978406E-33,2.60000000037)) ;
#223=CARTESIAN_POINT('Vertex',(4.80000000037,-1.46957615921E-16,3.)) ;
#226=CARTESIAN_POINT('Line Origine',(4.8,4.,2.60000000037)) ;
#230=CARTESIAN_POINT('Vertex',(4.80000000037,4.,3.)) ;
#233=CARTESIAN_POINT('Line Origine',(4.8,2.,3.00000000075)) ;
#245=CARTESIAN_POINT('Axis2P3D Location',(-2.49800180541E-16,2.22044604925E-16,2.2)) ;
#250=CARTESIAN_POINT('Line Origine',(-2.74293116546E-16,2.22044604925E-16,2.60000000037)) ;
#254=CARTESIAN_POINT('Vertex',(-3.72529562753E-10,1.46957615921E-16,3.)) ;
#257=CARTESIAN_POINT('Line Origine',(2.40000000037,7.50869890044E-17,3.00000000075)) ;
#269=CARTESIAN_POINT('Axis2P3D Location',(-2.49800180541E-16,2.22044604925E-16,2.2)) ;
#274=CARTESIAN_POINT('Line Origine',(-2.93637567168E-17,4.,2.60000000037)) ;
#278=CARTESIAN_POINT('Vertex',(-3.72529562753E-10,4.,3.)) ;
#281=CARTESIAN_POINT('Line Origine',(-1.76321372637E-16,2.,3.00000000075)) ;
#293=CARTESIAN_POINT('Axis2P3D Location',(4.8,4.,2.2)) ;
#298=CARTESIAN_POINT('Line Origine',(2.39999999963,4.,3.00000000075)) ;
#310=CARTESIAN_POINT('Axis2P3D Location',(2.4,2.,3.)) ;
#33=DIRECTION('Axis2P3D Direction',(-6.12323399574E-17,-1.,0.)) ;
#34=DIRECTION('Axis2P3D XDirection',(-1.,6.12323399574E-17,-6.12323399574E-17)) ;
#38=DIRECTION('Vector Direction',(0.,0.,-1.)) ;
#47=DIRECTION('Vector Direction',(-1.,0.,0.)) ;
#54=DIRECTION('Vector Direction',(1.00929365909E-16,0.,-1.)) ;
#61=DIRECTION('Vector Direction',(-1.,0.,0.)) ;
#73=DIRECTION('Axis2P3D Direction',(-1.,6.12323399574E-17,-6.12323399574E-17)) ;
#74=DIRECTION('Axis2P3D XDirection',(6.12323399574E-17,1.,0.)) ;
#78=DIRECTION('Vector Direction',(0.,0.,-1.)) ;
#87=DIRECTION('Vector Direction',(0.,1.,0.)) ;
#92=DIRECTION('Vector Direction',(0.,1.,0.)) ;
#104=DIRECTION('Axis2P3D Direction',(-6.12323399574E-17,3.74939945666E-33,1.)) ;
#105=DIRECTION('Axis2P3D XDirection',(-6.12323399574E-17,-1.,0.)) ;
#109=DIRECTION('Vector Direction',(0.,-1.,0.)) ;
#118=DIRECTION('Vector Direction',(1.,-6.12323399574E-17,0.)) ;
#125=DIRECTION('Vector Direction',(0.,1.,0.)) ;
#132=DIRECTION('Vector Direction',(-1.,0.,0.)) ;
#143=DIRECTION('Vector Direction',(1.,0.,0.)) ;
#150=DIRECTION('Vector Direction',(0.,-1.,0.)) ;
#162=DIRECTION('Axis2P3D Direction',(1.,-6.12323399574E-17,6.12323399574E-17)) ;
#163=DIRECTION('Axis2P3D XDirection',(-6.12323399574E-17,-1.,0.)) ;
#167=DIRECTION('Vector Direction',(1.00929365909E-16,0.,-1.)) ;
#174=DIRECTION('Vector Direction',(0.,-1.,0.)) ;
#186=DIRECTION('Axis2P3D Direction',(6.12323399574E-17,-3.74939945666E-33,-1.)) ;
#187=DIRECTION('Axis2P3D XDirection',(6.12323399574E-17,1.,0.)) ;
#191=DIRECTION('Vector Direction',(1.,0.,6.12323399574E-17)) ;
#203=DIRECTION('Axis2P3D Direction',(6.12323399574E-17,1.,0.)) ;
#204=DIRECTION('Axis2P3D XDirection',(1.,-6.12323399574E-17,6.12323399574E-17)) ;
#215=DIRECTION('Axis2P3D Direction',(-1.,6.12323399574E-17,-6.12323399574E-17)) ;
#216=DIRECTION('Axis2P3D XDirection',(-6.12323399574E-17,-1.,0.)) ;
#220=DIRECTION('Vector Direction',(0.,3.74939945666E-33,1.)) ;
#227=DIRECTION('Vector Direction',(0.,0.,1.)) ;
#234=DIRECTION('Vector Direction',(0.,-1.,0.)) ;
#246=DIRECTION('Axis2P3D Direction',(-6.12323399574E-17,-1.,0.)) ;
#247=DIRECTION('Axis2P3D XDirection',(1.,-6.12323399574E-17,6.12323399574E-17)) ;
#251=DIRECTION('Vector Direction',(-6.12323399574E-17,0.,1.)) ;
#258=DIRECTION('Vector Direction',(1.,-6.12323399574E-17,9.25185853711E-17)) ;
#270=DIRECTION('Axis2P3D Direction',(1.,-6.12323399574E-17,6.12323399574E-17)) ;
#271=DIRECTION('Axis2P3D XDirection',(6.12323399574E-17,1.,0.)) ;
#275=DIRECTION('Vector Direction',(-6.12323399574E-17,0.,1.)) ;
#282=DIRECTION('Vector Direction',(6.12323399574E-17,1.,0.)) ;
#294=DIRECTION('Axis2P3D Direction',(6.12323399574E-17,1.,0.)) ;
#295=DIRECTION('Axis2P3D XDirection',(-1.,6.12323399574E-17,-6.12323399574E-17)) ;
#299=DIRECTION('Vector Direction',(-1.,0.,-9.25185853711E-17)) ;
#311=DIRECTION('Axis2P3D Direction',(-6.12323399574E-17,3.74939945666E-33,1.)) ;
#312=DIRECTION('Axis2P3D XDirection',(-6.12323399574E-17,-1.,0.)) ;
#30=PRESENTATION_LAYER_ASSIGNMENT('1',' ',(#21)) ;
#8=PRODUCT_RELATED_PRODUCT_CATEGORY('part',$,(#5)) ;
#7=PRODUCT_CATEGORY('part','specification') ;
#29=STYLED_ITEM(' ',(#28),#21) ;
#28=PRESENTATION_STYLE_ASSIGNMENT((#27)) ;
#27=SURFACE_STYLE_USAGE(.BOTH.,#26) ;
#26=SURFACE_SIDE_STYLE(' ',(#25)) ;
#25=SURFACE_STYLE_FILL_AREA(#24) ;
#24=FILL_AREA_STYLE(' ',(#23)) ;
#23=FILL_AREA_STYLE_COLOUR(' ',#22) ;
#39=VECTOR('Line Direction',#38,1.) ;
#48=VECTOR('Line Direction',#47,1.) ;
#55=VECTOR('Line Direction',#54,1.) ;
#62=VECTOR('Line Direction',#61,1.) ;
#79=VECTOR('Line Direction',#78,1.) ;
#88=VECTOR('Line Direction',#87,1.) ;
#93=VECTOR('Line Direction',#92,1.) ;
#110=VECTOR('Line Direction',#109,1.) ;
#119=VECTOR('Line Direction',#118,1.) ;
#126=VECTOR('Line Direction',#125,1.) ;
#133=VECTOR('Line Direction',#132,1.) ;
#144=VECTOR('Line Direction',#143,1.) ;
#151=VECTOR('Line Direction',#150,1.) ;
#168=VECTOR('Line Direction',#167,1.) ;
#175=VECTOR('Line Direction',#174,1.) ;
#192=VECTOR('Line Direction',#191,1.) ;
#221=VECTOR('Line Direction',#220,1.) ;
#228=VECTOR('Line Direction',#227,1.) ;
#235=VECTOR('Line Direction',#234,1.) ;
#252=VECTOR('Line Direction',#251,1.) ;
#259=VECTOR('Line Direction',#258,1.) ;
#276=VECTOR('Line Direction',#275,1.) ;
#283=VECTOR('Line Direction',#282,1.) ;
#300=VECTOR('Line Direction',#299,1.) ;
#15=UNCERTAINTY_MEASURE_WITH_UNIT(LENGTH_MEASURE(0.005),#12,'distance_accuracy_value','CONFUSED CURVE UNCERTAINTY') ;
#323=SHAPE_REPRESENTATION_RELATIONSHIP(' ',' ',#19,#322) ;
#66=ORIENTED_EDGE('',*,*,#45,.F.) ;
#67=ORIENTED_EDGE('',*,*,#52,.T.) ;
#68=ORIENTED_EDGE('',*,*,#59,.T.) ;
#69=ORIENTED_EDGE('',*,*,#64,.F.) ;
#97=ORIENTED_EDGE('',*,*,#85,.F.) ;
#98=ORIENTED_EDGE('',*,*,#90,.T.) ;
#99=ORIENTED_EDGE('',*,*,#45,.T.) ;
#100=ORIENTED_EDGE('',*,*,#95,.F.) ;
#137=ORIENTED_EDGE('',*,*,#116,.F.) ;
#138=ORIENTED_EDGE('',*,*,#123,.F.) ;
#139=ORIENTED_EDGE('',*,*,#130,.F.) ;
#140=ORIENTED_EDGE('',*,*,#135,.F.) ;
#155=ORIENTED_EDGE('',*,*,#148,.F.) ;
#156=ORIENTED_EDGE('',*,*,#153,.F.) ;
#157=ORIENTED_EDGE('',*,*,#52,.F.) ;
#158=ORIENTED_EDGE('',*,*,#90,.F.) ;
#179=ORIENTED_EDGE('',*,*,#59,.F.) ;
#180=ORIENTED_EDGE('',*,*,#153,.T.) ;
#181=ORIENTED_EDGE('',*,*,#172,.T.) ;
#182=ORIENTED_EDGE('',*,*,#177,.F.) ;
#196=ORIENTED_EDGE('',*,*,#64,.T.) ;
#197=ORIENTED_EDGE('',*,*,#177,.T.) ;
#198=ORIENTED_EDGE('',*,*,#194,.T.) ;
#199=ORIENTED_EDGE('',*,*,#95,.T.) ;
#208=ORIENTED_EDGE('',*,*,#172,.F.) ;
#209=ORIENTED_EDGE('',*,*,#148,.T.) ;
#210=ORIENTED_EDGE('',*,*,#85,.T.) ;
#211=ORIENTED_EDGE('',*,*,#194,.F.) ;
#239=ORIENTED_EDGE('',*,*,#225,.F.) ;
#240=ORIENTED_EDGE('',*,*,#116,.T.) ;
#241=ORIENTED_EDGE('',*,*,#232,.T.) ;
#242=ORIENTED_EDGE('',*,*,#237,.F.) ;
#263=ORIENTED_EDGE('',*,*,#256,.F.) ;
#264=ORIENTED_EDGE('',*,*,#123,.T.) ;
#265=ORIENTED_EDGE('',*,*,#225,.T.) ;
#266=ORIENTED_EDGE('',*,*,#261,.F.) ;
#287=ORIENTED_EDGE('',*,*,#280,.F.) ;
#288=ORIENTED_EDGE('',*,*,#130,.T.) ;
#289=ORIENTED_EDGE('',*,*,#256,.T.) ;
#290=ORIENTED_EDGE('',*,*,#285,.F.) ;
#304=ORIENTED_EDGE('',*,*,#232,.F.) ;
#305=ORIENTED_EDGE('',*,*,#135,.T.) ;
#306=ORIENTED_EDGE('',*,*,#280,.T.) ;
#307=ORIENTED_EDGE('',*,*,#302,.F.) ;
#316=ORIENTED_EDGE('',*,*,#302,.T.) ;
#317=ORIENTED_EDGE('',*,*,#285,.T.) ;
#318=ORIENTED_EDGE('',*,*,#261,.T.) ;
#319=ORIENTED_EDGE('',*,*,#237,.T.) ;
#159=FACE_BOUND('',#154,.T.) ;
#31=CLOSED_SHELL('Closed Shell',(#71,#102,#160,#184,#201,#213,#244,#268,#292,#309,#321)) ;
#322=ADVANCED_BREP_SHAPE_REPRESENTATION('NONE',(#21),#16) ;
#71=ADVANCED_FACE('S3D - gedreht',(#70),#36,.T.) ;
#102=ADVANCED_FACE('S3D - gedreht',(#101),#76,.F.) ;
#160=ADVANCED_FACE('S3D - gedreht',(#141,#159),#107,.F.) ;
#184=ADVANCED_FACE('S3D - gedreht',(#183),#165,.F.) ;
#201=ADVANCED_FACE('S3D - gedreht',(#200),#189,.T.) ;
#213=ADVANCED_FACE('S3D - gedreht',(#212),#206,.T.) ;
#244=ADVANCED_FACE('S3D - gedreht',(#243),#218,.F.) ;
#268=ADVANCED_FACE('S3D - gedreht',(#267),#249,.T.) ;
#292=ADVANCED_FACE('S3D - gedreht',(#291),#273,.F.) ;
#309=ADVANCED_FACE('S3D - gedreht',(#308),#297,.T.) ;
#321=ADVANCED_FACE('S3D - gedreht',(#320),#314,.T.) ;
#4=APPLICATION_PROTOCOL_DEFINITION('international standard','automotive_design',2001,#1) ;
#21=MANIFOLD_SOLID_BREP('S3D - gedreht',#31) ;
#22=DRAUGHTING_PRE_DEFINED_COLOUR('white') ;
#45=EDGE_CURVE('',#42,#44,#40,.T.) ;
#52=EDGE_CURVE('',#42,#51,#49,.T.) ;
#59=EDGE_CURVE('',#51,#58,#56,.T.) ;
#64=EDGE_CURVE('',#44,#58,#63,.T.) ;
#85=EDGE_CURVE('',#82,#84,#80,.T.) ;
#90=EDGE_CURVE('',#82,#42,#89,.F.) ;
#95=EDGE_CURVE('',#84,#44,#94,.F.) ;
#116=EDGE_CURVE('',#113,#115,#111,.F.) ;
#123=EDGE_CURVE('',#122,#113,#120,.T.) ;
#130=EDGE_CURVE('',#129,#122,#127,.F.) ;
#135=EDGE_CURVE('',#115,#129,#134,.T.) ;
#148=EDGE_CURVE('',#147,#82,#145,.T.) ;
#153=EDGE_CURVE('',#51,#147,#152,.F.) ;
#172=EDGE_CURVE('',#147,#171,#169,.T.) ;
#177=EDGE_CURVE('',#58,#171,#176,.F.) ;
#194=EDGE_CURVE('',#171,#84,#193,.T.) ;
#225=EDGE_CURVE('',#113,#224,#222,.T.) ;
#232=EDGE_CURVE('',#115,#231,#229,.T.) ;
#237=EDGE_CURVE('',#224,#231,#236,.F.) ;
#256=EDGE_CURVE('',#122,#255,#253,.T.) ;
#261=EDGE_CURVE('',#255,#224,#260,.T.) ;
#280=EDGE_CURVE('',#129,#279,#277,.T.) ;
#285=EDGE_CURVE('',#279,#255,#284,.F.) ;
#302=EDGE_CURVE('',#231,#279,#301,.T.) ;
#65=EDGE_LOOP('',(#66,#67,#68,#69)) ;
#96=EDGE_LOOP('',(#97,#98,#99,#100)) ;
#136=EDGE_LOOP('',(#137,#138,#139,#140)) ;
#154=EDGE_LOOP('',(#155,#156,#157,#158)) ;
#178=EDGE_LOOP('',(#179,#180,#181,#182)) ;
#195=EDGE_LOOP('',(#196,#197,#198,#199)) ;
#207=EDGE_LOOP('',(#208,#209,#210,#211)) ;
#238=EDGE_LOOP('',(#239,#240,#241,#242)) ;
#262=EDGE_LOOP('',(#263,#264,#265,#266)) ;
#286=EDGE_LOOP('',(#287,#288,#289,#290)) ;
#303=EDGE_LOOP('',(#304,#305,#306,#307)) ;
#315=EDGE_LOOP('',(#316,#317,#318,#319)) ;
#70=FACE_OUTER_BOUND('',#65,.T.) ;
#101=FACE_OUTER_BOUND('',#96,.T.) ;
#141=FACE_OUTER_BOUND('',#136,.T.) ;
#183=FACE_OUTER_BOUND('',#178,.T.) ;
#200=FACE_OUTER_BOUND('',#195,.T.) ;
#212=FACE_OUTER_BOUND('',#207,.T.) ;
#243=FACE_OUTER_BOUND('',#238,.T.) ;
#267=FACE_OUTER_BOUND('',#262,.T.) ;
#291=FACE_OUTER_BOUND('',#286,.T.) ;
#308=FACE_OUTER_BOUND('',#303,.T.) ;
#320=FACE_OUTER_BOUND('',#315,.T.) ;
#40=LINE('Line',#37,#39) ;
#49=LINE('Line',#46,#48) ;
#56=LINE('Line',#53,#55) ;
#63=LINE('Line',#60,#62) ;
#80=LINE('Line',#77,#79) ;
#89=LINE('Line',#86,#88) ;
#94=LINE('Line',#91,#93) ;
#111=LINE('Line',#108,#110) ;
#120=LINE('Line',#117,#119) ;
#127=LINE('Line',#124,#126) ;
#134=LINE('Line',#131,#133) ;
#145=LINE('Line',#142,#144) ;
#152=LINE('Line',#149,#151) ;
#169=LINE('Line',#166,#168) ;
#176=LINE('Line',#173,#175) ;
#193=LINE('Line',#190,#192) ;
#222=LINE('Line',#219,#221) ;
#229=LINE('Line',#226,#228) ;
#236=LINE('Line',#233,#235) ;
#253=LINE('Line',#250,#252) ;
#260=LINE('Line',#257,#259) ;
#277=LINE('Line',#274,#276) ;
#284=LINE('Line',#281,#283) ;
#301=LINE('Line',#298,#300) ;
#36=PLANE('',#35) ;
#76=PLANE('',#75) ;
#107=PLANE('',#106) ;
#165=PLANE('',#164) ;
#189=PLANE('',#188) ;
#206=PLANE('',#205) ;
#218=PLANE('',#217) ;
#249=PLANE('',#248) ;
#273=PLANE('',#272) ;
#297=PLANE('',#296) ;
#314=PLANE('',#313) ;
#9=PRODUCT_CATEGORY_RELATIONSHIP(' ',' ',#7,#8) ;
#6=PRODUCT_DEFINITION_FORMATION_WITH_SPECIFIED_SOURCE('',' ',#5,.NOT_KNOWN.) ;
#20=SHAPE_DEFINITION_REPRESENTATION(#11,#19) ;
#42=VERTEX_POINT('',#41) ;
#44=VERTEX_POINT('',#43) ;
#51=VERTEX_POINT('',#50) ;
#58=VERTEX_POINT('',#57) ;
#82=VERTEX_POINT('',#81) ;
#84=VERTEX_POINT('',#83) ;
#113=VERTEX_POINT('',#112) ;
#115=VERTEX_POINT('',#114) ;
#122=VERTEX_POINT('',#121) ;
#129=VERTEX_POINT('',#128) ;
#147=VERTEX_POINT('',#146) ;
#171=VERTEX_POINT('',#170) ;
#224=VERTEX_POINT('',#223) ;
#231=VERTEX_POINT('',#230) ;
#255=VERTEX_POINT('',#254) ;
#279=VERTEX_POINT('',#278) ;
#12=(LENGTH_UNIT()NAMED_UNIT(*)SI_UNIT(.MILLI.,.METRE.)) ;
#13=(NAMED_UNIT(*)PLANE_ANGLE_UNIT()SI_UNIT($,.RADIAN.)) ;
#14=(NAMED_UNIT(*)SI_UNIT($,.STERADIAN.)SOLID_ANGLE_UNIT()) ;
#16=(GEOMETRIC_REPRESENTATION_CONTEXT(3)GLOBAL_UNCERTAINTY_ASSIGNED_CONTEXT((#15))GLOBAL_UNIT_ASSIGNED_CONTEXT((#12,#13,#14))REPRESENTATION_CONTEXT(' ',' ')) ;
ENDSEC;
END-ISO-10303-21;
