ISO-10303-21;
HEADER;
FILE_DESCRIPTION(('CATIA V5 STEP Exchange','CAx-IF Rec.Pracs.--- Model Styling and Organization---1.4--- 2014-01-23'),'2;1');

FILE_NAME ('035309-2_0', '2022-05-10T05:17:28+00:00', ('none'), ('Weidmueller'), 'CATIA Version 5-6 Release 2016 SP3 HF44', 'CATIA V5 STEP AP214', 'none');

FILE_SCHEMA(('AUTOMOTIVE_DESIGN { 1 0 10303 214 1 1 1 1 }'));

ENDSEC;
DATA;
#5=PRODUCT('0353500000','','FLACHKOPFSCHRAUBE\X2\000D\X0\\X2\000A\X0\<Q-CHECKER_SEAL> Q-Checker Version 2.6.2  \X2\000D\X0\\X2\000A\X0\CATIA-Version         : Catia V5 R19 SP5 Build Date 07-20-2009.19.00\X2\000D\X0\\X2\000A\X0\Model size (in KByte) : 0\X2\000D\X0\\X2\000A\X0\Checking date         : 2010-12-20 11:29:20\X2\000D\X0\\X2\000A\X0\Checking profile      : ADMIN / Release_2D-3D [CATPart]\X2\000D\X0\\X2\000A\X0\Model assessment      : In Ordnung (IO)\X2\000D\X0\\X2\000A\X0\Total weight sum      : 0\X2\000D\X0\\X2\000A\X0\<CROSS_CHECK_SUM>\X2\000D\X0\\X2\000A\X0\  <CHKSUM_DATE> -1168712721 </CHKSUM_DATE>\X2\000D\X0\\X2\000A\X0\  <CHKSUM_ENTITIES> 65262133 </CHKSUM_ENTITIES>\X2\000D\X0\\X2\000A\X0\  <CHKSUM_PROFILE> -1101559662 </CHKSUM_PROFILE>\X2\000D\X0\\X2\000A\X0\  <CHKSUM_DIMENSION> -186917087 </CHKSUM_DIMENSION>\X2\000D\X0\\X2\000A\X0\  <CHKSUM_PROJINTERSEC> -896974048 </CHKSUM_PROJINTERSEC>\X2\000D\X0\\X2\000A\X0\  <CHKSUM_IDENTCRV> -896974048 </CHKSUM_IDENTCRV>\X2\000D\X0\\X2\000A\X0\  <CHKSUM_INFINITY> 138018827 </CHKSUM_INFINITY>\X2\000D\X0\\X2\000A\X0\</CROSS_CHECK_SUM>\X2\000D\X0\\X2\000A\X0\</Q-CHECKER_SEAL> \X2\000D\X0\\X2\000A\X0\ \X2\000D\X0\\X2\000A\X0\ \X2\000D\X0\\X2\000A\X0\',(#2)) ;
#2=PRODUCT_CONTEXT(' ',#1,'mechanical') ;
#1=APPLICATION_CONTEXT('automotive design') ;
#10=PRODUCT_DEFINITION('',' ',#6,#3) ;
#3=PRODUCT_DEFINITION_CONTEXT('part definition',#1,' ') ;
#11=PRODUCT_DEFINITION_SHAPE(' ',' ',#10) ;
#478=MECHANICAL_DESIGN_GEOMETRIC_PRESENTATION_REPRESENTATION(' ',(#29),#16) ;
#479=MECHANICAL_DESIGN_GEOMETRIC_PRESENTATION_REPRESENTATION(' ',(#475),#16) ;
#19=SHAPE_REPRESENTATION(' ',(#18),#16) ;
#18=AXIS2_PLACEMENT_3D(' ',#17,$,$) ;
#35=AXIS2_PLACEMENT_3D('Plane Axis2P3D',#32,#33,#34) ;
#39=AXIS2_PLACEMENT_3D('Circle Axis2P3D',#37,#38,$) ;
#48=AXIS2_PLACEMENT_3D('Circle Axis2P3D',#46,#47,$) ;
#59=AXIS2_PLACEMENT_3D('Cylinder Axis2P3D',#56,#57,#58) ;
#70=AXIS2_PLACEMENT_3D('Circle Axis2P3D',#68,#69,$) ;
#89=AXIS2_PLACEMENT_3D('Circle Axis2P3D',#87,#88,$) ;
#102=AXIS2_PLACEMENT_3D('Plane Axis2P3D',#99,#100,#101) ;
#106=AXIS2_PLACEMENT_3D('Circle Axis2P3D',#104,#105,$) ;
#115=AXIS2_PLACEMENT_3D('Circle Axis2P3D',#113,#114,$) ;
#130=AXIS2_PLACEMENT_3D('Cylinder Axis2P3D',#127,#128,#129) ;
#148=AXIS2_PLACEMENT_3D('Circle Axis2P3D',#146,#147,$) ;
#160=AXIS2_PLACEMENT_3D('Circle Axis2P3D',#158,#159,$) ;
#173=AXIS2_PLACEMENT_3D('Plane Axis2P3D',#170,#171,#172) ;
#233=AXIS2_PLACEMENT_3D('Plane Axis2P3D',#230,#231,#232) ;
#284=AXIS2_PLACEMENT_3D('Plane Axis2P3D',#281,#282,#283) ;
#317=AXIS2_PLACEMENT_3D('Plane Axis2P3D',#314,#315,#316) ;
#350=AXIS2_PLACEMENT_3D('Cone Axis2P3D',#347,#348,#349) ;
#421=AXIS2_PLACEMENT_3D('Plane Axis2P3D',#418,#419,#420) ;
#443=AXIS2_PLACEMENT_3D('Plane Axis2P3D',#440,#441,#442) ;
#455=AXIS2_PLACEMENT_3D('Plane Axis2P3D',#452,#453,#454) ;
#470=AXIS2_PLACEMENT_3D('Achsensystem.1',#467,#468,#469) ;
#17=CARTESIAN_POINT(' ',(0.,0.,0.)) ;
#32=CARTESIAN_POINT('Axis2P3D Location',(4.5,4.5,0.)) ;
#37=CARTESIAN_POINT('Axis2P3D Location',(4.5,4.5,1.68722975549E-032)) ;
#41=CARTESIAN_POINT('Vertex',(1.86725231433,5.93827661581,-8.80690426922E-017)) ;
#43=CARTESIAN_POINT('Vertex',(7.13274768567,3.06172338419,8.80690426922E-017)) ;
#46=CARTESIAN_POINT('Axis2P3D Location',(4.5,4.5,1.68722975549E-032)) ;
#56=CARTESIAN_POINT('Axis2P3D Location',(4.5,4.5,4.5)) ;
#61=CARTESIAN_POINT('Line Origine',(1.86725231433,5.93827661581,3.7)) ;
#65=CARTESIAN_POINT('Vertex',(1.86725231433,5.93827661581,8.)) ;
#68=CARTESIAN_POINT('Axis2P3D Location',(4.5,4.5,8.)) ;
#72=CARTESIAN_POINT('Vertex',(7.13274768567,3.06172338419,8.)) ;
#75=CARTESIAN_POINT('Line Origine',(7.13274768567,3.06172338419,3.7)) ;
#87=CARTESIAN_POINT('Axis2P3D Location',(4.5,4.5,8.)) ;
#99=CARTESIAN_POINT('Axis2P3D Location',(7.34,4.5,8.)) ;
#104=CARTESIAN_POINT('Axis2P3D Location',(4.5,4.5,8.)) ;
#108=CARTESIAN_POINT('Vertex',(0.550878471493,6.65741492372,8.)) ;
#110=CARTESIAN_POINT('Vertex',(8.44912152851,2.34258507628,8.)) ;
#113=CARTESIAN_POINT('Axis2P3D Location',(4.5,4.5,8.)) ;
#127=CARTESIAN_POINT('Axis2P3D Location',(4.5,4.5,4.5)) ;
#132=CARTESIAN_POINT('Line Origine',(0.550878471493,6.65741492372,8.5)) ;
#136=CARTESIAN_POINT('Vertex',(0.550878471493,6.65741492372,9.)) ;
#139=CARTESIAN_POINT('Line Origine',(8.44912152851,2.34258507628,8.5)) ;
#143=CARTESIAN_POINT('Vertex',(8.44912152851,2.34258507628,9.)) ;
#146=CARTESIAN_POINT('Axis2P3D Location',(4.5,4.5,9.)) ;
#158=CARTESIAN_POINT('Axis2P3D Location',(4.5,4.5,9.)) ;
#170=CARTESIAN_POINT('Axis2P3D Location',(4.5,4.5,9.)) ;
#179=CARTESIAN_POINT('Line Origine',(3.20096189432,5.25,9.)) ;
#183=CARTESIAN_POINT('Vertex',(2.76794919243,4.5,9.)) ;
#185=CARTESIAN_POINT('Vertex',(3.63397459622,6.,9.)) ;
#188=CARTESIAN_POINT('Line Origine',(4.5,6.,9.)) ;
#192=CARTESIAN_POINT('Vertex',(5.36602540378,6.,9.)) ;
#195=CARTESIAN_POINT('Line Origine',(5.79903810568,5.25,9.)) ;
#199=CARTESIAN_POINT('Vertex',(6.23205080757,4.5,9.)) ;
#202=CARTESIAN_POINT('Line Origine',(5.79903810568,3.75,9.)) ;
#206=CARTESIAN_POINT('Vertex',(5.36602540378,3.,9.)) ;
#209=CARTESIAN_POINT('Line Origine',(4.5,3.,9.)) ;
#213=CARTESIAN_POINT('Vertex',(3.63397459622,3.,9.)) ;
#216=CARTESIAN_POINT('Line Origine',(3.20096189432,3.75,9.)) ;
#230=CARTESIAN_POINT('Axis2P3D Location',(5.36602540378,3.,9.)) ;
#235=CARTESIAN_POINT('Line Origine',(5.36602540378,3.,7.5)) ;
#239=CARTESIAN_POINT('Vertex',(5.36602540378,3.,6.)) ;
#242=CARTESIAN_POINT('Line Origine',(6.23205080757,4.5,7.5)) ;
#246=CARTESIAN_POINT('Vertex',(6.23205080757,4.5,6.)) ;
#250=CARTESIAN_POINT('Control Point',(5.81674047366,3.78066140076,5.86626660548)) ;
#251=CARTESIAN_POINT('Control Point',(5.88254757548,3.89464264462,5.86805965091)) ;
#252=CARTESIAN_POINT('Control Point',(5.94869506803,4.0092134625,5.87818920633)) ;
#253=CARTESIAN_POINT('Control Point',(6.0170159573,4.12754871393,5.89678067942)) ;
#254=CARTESIAN_POINT('Control Point',(6.10044567415,4.27205322238,5.92908013209)) ;
#255=CARTESIAN_POINT('Control Point',(6.1955215186,4.43672941554,5.97947886649)) ;
#256=CARTESIAN_POINT('Control Point',(6.20748702,4.45745427191,5.98601006232)) ;
#257=CARTESIAN_POINT('Control Point',(6.21965816936,4.47853532099,5.992845107)) ;
#258=CARTESIAN_POINT('Control Point',(6.23205080757,4.5,6.)) ;
#259=CARTESIAN_POINT('Vertex',(5.81674047366,3.78066140076,5.86626660548)) ;
#263=CARTESIAN_POINT('Control Point',(5.81674047366,3.78066140076,5.86626660548)) ;
#264=CARTESIAN_POINT('Control Point',(5.74992520555,3.66493396167,5.86444609056)) ;
#265=CARTESIAN_POINT('Control Point',(5.68346083018,3.54981428665,5.87121947244)) ;
#266=CARTESIAN_POINT('Control Point',(5.61539733119,3.43192484824,5.88643597589)) ;
#267=CARTESIAN_POINT('Control Point',(5.52660599508,3.27813374284,5.91678849401)) ;
#268=CARTESIAN_POINT('Control Point',(5.42572656569,3.10340544569,5.9670737007)) ;
#269=CARTESIAN_POINT('Control Point',(5.40638352438,3.06990231537,5.97722359546)) ;
#270=CARTESIAN_POINT('Control Point',(5.38650696051,3.03547509687,5.98817496771)) ;
#271=CARTESIAN_POINT('Control Point',(5.36602540378,3.,6.)) ;
#281=CARTESIAN_POINT('Axis2P3D Location',(3.63397459622,3.,9.)) ;
#286=CARTESIAN_POINT('Line Origine',(3.63397459622,3.,7.5)) ;
#290=CARTESIAN_POINT('Vertex',(3.63397459622,3.,6.)) ;
#294=CARTESIAN_POINT('Control Point',(3.63397459622,3.,6.)) ;
#295=CARTESIAN_POINT('Control Point',(3.79122028438,3.,5.95460707981)) ;
#296=CARTESIAN_POINT('Control Point',(3.93063595292,3.,5.92208817576)) ;
#297=CARTESIAN_POINT('Control Point',(4.05963582418,3.,5.89853502393)) ;
#298=CARTESIAN_POINT('Control Point',(4.32485652432,3.,5.86402144867)) ;
#299=CARTESIAN_POINT('Control Point',(4.57568102348,3.,5.8619345543)) ;
#300=CARTESIAN_POINT('Control Point',(4.7105058318,3.,5.86924755418)) ;
#301=CARTESIAN_POINT('Control Point',(4.91232100483,3.,5.89264781884)) ;
#302=CARTESIAN_POINT('Control Point',(5.13804205437,3.,5.93999795781)) ;
#303=CARTESIAN_POINT('Control Point',(5.21010360045,3.,5.95700351999)) ;
#304=CARTESIAN_POINT('Control Point',(5.285740525,3.,5.97682375181)) ;
#305=CARTESIAN_POINT('Control Point',(5.36602540378,3.,6.)) ;
#314=CARTESIAN_POINT('Axis2P3D Location',(2.76794919243,4.5,9.)) ;
#319=CARTESIAN_POINT('Line Origine',(2.76794919243,4.5,7.5)) ;
#323=CARTESIAN_POINT('Vertex',(2.76794919243,4.5,6.)) ;
#327=CARTESIAN_POINT('Control Point',(2.76794919243,4.5,6.)) ;
#328=CARTESIAN_POINT('Control Point',(2.84657203647,4.36382123949,5.95460707983)) ;
#329=CARTESIAN_POINT('Control Point',(2.91627987071,4.2430837289,5.92208817578)) ;
#330=CARTESIAN_POINT('Control Point',(2.98077980648,4.13136656305,5.8985350239)) ;
#331=CARTESIAN_POINT('Control Point',(3.11339015649,3.90167869923,5.86402144869)) ;
#332=CARTESIAN_POINT('Control Point',(3.23880240603,3.68445831115,5.86193455429)) ;
#333=CARTESIAN_POINT('Control Point',(3.30621481027,3.56769660194,5.86924755419)) ;
#334=CARTESIAN_POINT('Control Point',(3.40712239676,3.39291953526,5.89264781885)) ;
#335=CARTESIAN_POINT('Control Point',(3.51998292151,3.19743937223,5.93999795781)) ;
#336=CARTESIAN_POINT('Control Point',(3.55601369455,3.13503224269,5.95700351999)) ;
#337=CARTESIAN_POINT('Control Point',(3.59383215683,3.06952874456,5.97682375181)) ;
#338=CARTESIAN_POINT('Control Point',(3.63397459622,3.,6.)) ;
#347=CARTESIAN_POINT('Axis2P3D Location',(4.5,4.5,5.)) ;
#352=CARTESIAN_POINT('Line Origine',(5.26000879252,4.08480530435,5.5)) ;
#356=CARTESIAN_POINT('Vertex',(4.5,4.5,5.)) ;
#359=CARTESIAN_POINT('Line Origine',(3.73999120748,4.91519469565,5.5)) ;
#363=CARTESIAN_POINT('Vertex',(3.18325952634,5.21933859924,5.86626660548)) ;
#367=CARTESIAN_POINT('Control Point',(3.18325952634,5.21933859924,5.86626660548)) ;
#368=CARTESIAN_POINT('Control Point',(3.08937409563,5.05672426316,5.86882470085)) ;
#369=CARTESIAN_POINT('Control Point',(2.99457234636,4.89251411118,5.88980995982)) ;
#370=CARTESIAN_POINT('Control Point',(2.89303873224,4.71666143844,5.92777952052)) ;
#371=CARTESIAN_POINT('Control Point',(2.76794919243,4.5,6.)) ;
#383=CARTESIAN_POINT('Control Point',(3.63397459622,6.,6.)) ;
#384=CARTESIAN_POINT('Control Point',(4.05306173386,6.,5.87901996413)) ;
#385=CARTESIAN_POINT('Control Point',(4.34617157213,5.99999679738,5.84656275679)) ;
#386=CARTESIAN_POINT('Control Point',(4.65323839898,6.0000017288,5.84628505319)) ;
#387=CARTESIAN_POINT('Control Point',(4.94693826614,6.,5.87901996413)) ;
#388=CARTESIAN_POINT('Control Point',(5.36602540378,6.,6.)) ;
#389=CARTESIAN_POINT('Vertex',(3.63397459622,6.,6.)) ;
#391=CARTESIAN_POINT('Vertex',(5.36602540378,6.,6.)) ;
#395=CARTESIAN_POINT('Control Point',(3.18325952634,5.21933859924,5.86626660548)) ;
#396=CARTESIAN_POINT('Control Point',(3.28599404485,5.39728000499,5.86346739911)) ;
#397=CARTESIAN_POINT('Control Point',(3.38819303484,5.5742878283,5.88279574141)) ;
#398=CARTESIAN_POINT('Control Point',(3.49709485305,5.7629173303,5.92097244343)) ;
#399=CARTESIAN_POINT('Control Point',(3.63397459622,6.,6.)) ;
#402=CARTESIAN_POINT('Control Point',(5.36602540378,6.,6.)) ;
#403=CARTESIAN_POINT('Control Point',(5.57556897265,5.63705989233,5.87901996411)) ;
#404=CARTESIAN_POINT('Control Point',(5.72212111837,5.38321772475,5.84656275679)) ;
#405=CARTESIAN_POINT('Control Point',(5.87565880228,5.11729251818,5.84628505321)) ;
#406=CARTESIAN_POINT('Control Point',(6.02250723871,4.86294010767,5.87901996411)) ;
#407=CARTESIAN_POINT('Control Point',(6.23205080757,4.5,6.)) ;
#418=CARTESIAN_POINT('Axis2P3D Location',(3.63397459622,6.,9.)) ;
#423=CARTESIAN_POINT('Line Origine',(5.36602540378,6.,7.5)) ;
#428=CARTESIAN_POINT('Line Origine',(3.63397459622,6.,7.5)) ;
#440=CARTESIAN_POINT('Axis2P3D Location',(5.36602540378,6.,9.)) ;
#452=CARTESIAN_POINT('Axis2P3D Location',(2.76794919243,4.5,9.)) ;
#467=CARTESIAN_POINT('Axis2P3D Location',(0.,0.,0.)) ;
#33=DIRECTION('Axis2P3D Direction',(0.,-6.12323399574E-017,-1.)) ;
#34=DIRECTION('Axis2P3D XDirection',(1.,0.,0.)) ;
#38=DIRECTION('Axis2P3D Direction',(0.,-6.12323399574E-017,-1.)) ;
#47=DIRECTION('Axis2P3D Direction',(0.,-6.12323399574E-017,-1.)) ;
#57=DIRECTION('Axis2P3D Direction',(0.,-6.12323399574E-017,-1.)) ;
#58=DIRECTION('Axis2P3D XDirection',(0.87758256189,-0.479425538604,2.93563475641E-017)) ;
#62=DIRECTION('Vector Direction',(0.,0.,-1.)) ;
#69=DIRECTION('Axis2P3D Direction',(0.,-6.12323399574E-017,-1.)) ;
#76=DIRECTION('Vector Direction',(0.,0.,-1.)) ;
#88=DIRECTION('Axis2P3D Direction',(0.,-6.12323399574E-017,-1.)) ;
#100=DIRECTION('Axis2P3D Direction',(0.,-6.12323399574E-017,-1.)) ;
#101=DIRECTION('Axis2P3D XDirection',(1.,0.,0.)) ;
#105=DIRECTION('Axis2P3D Direction',(0.,-6.12323399574E-017,-1.)) ;
#114=DIRECTION('Axis2P3D Direction',(0.,-6.12323399574E-017,-1.)) ;
#128=DIRECTION('Axis2P3D Direction',(0.,-6.12323399574E-017,-1.)) ;
#129=DIRECTION('Axis2P3D XDirection',(0.87758256189,-0.479425538604,2.93563475641E-017)) ;
#133=DIRECTION('Vector Direction',(0.,0.,-1.)) ;
#140=DIRECTION('Vector Direction',(0.,0.,-1.)) ;
#147=DIRECTION('Axis2P3D Direction',(0.,-6.12323399574E-017,-1.)) ;
#159=DIRECTION('Axis2P3D Direction',(0.,-6.12323399574E-017,-1.)) ;
#171=DIRECTION('Axis2P3D Direction',(0.,-6.12323399574E-017,-1.)) ;
#172=DIRECTION('Axis2P3D XDirection',(1.,0.,0.)) ;
#180=DIRECTION('Vector Direction',(0.5,0.866025403784,0.)) ;
#189=DIRECTION('Vector Direction',(1.,0.,0.)) ;
#196=DIRECTION('Vector Direction',(0.5,-0.866025403784,0.)) ;
#203=DIRECTION('Vector Direction',(0.5,0.866025403784,0.)) ;
#210=DIRECTION('Vector Direction',(1.,0.,0.)) ;
#217=DIRECTION('Vector Direction',(0.5,-0.866025403784,0.)) ;
#231=DIRECTION('Axis2P3D Direction',(-0.866025403784,0.5,-3.06161699787E-017)) ;
#232=DIRECTION('Axis2P3D XDirection',(0.5,0.866025403784,-5.30287619362E-017)) ;
#236=DIRECTION('Vector Direction',(0.,0.,-1.)) ;
#243=DIRECTION('Vector Direction',(0.,0.,-1.)) ;
#282=DIRECTION('Axis2P3D Direction',(-1.66533453694E-016,1.,-6.12323399574E-017)) ;
#283=DIRECTION('Axis2P3D XDirection',(1.,1.66533453694E-016,-1.01972330509E-032)) ;
#287=DIRECTION('Vector Direction',(0.,0.,-1.)) ;
#315=DIRECTION('Axis2P3D Direction',(0.866025403784,0.5,-3.06161699787E-017)) ;
#316=DIRECTION('Axis2P3D XDirection',(0.5,-0.866025403784,5.30287619362E-017)) ;
#320=DIRECTION('Vector Direction',(0.,0.,-1.)) ;
#348=DIRECTION('Axis2P3D Direction',(2.87141621797E-031,3.48603651275E-016,1.)) ;
#349=DIRECTION('Axis2P3D XDirection',(0.87758256189,-0.479425538604,1.34424834789E-016)) ;
#353=DIRECTION('Vector Direction',(0.760008792515,-0.415194695654,0.5)) ;
#360=DIRECTION('Vector Direction',(-0.760008792515,0.415194695654,0.5)) ;
#419=DIRECTION('Axis2P3D Direction',(-1.11022302463E-016,1.,-6.12323399574E-017)) ;
#420=DIRECTION('Axis2P3D XDirection',(1.,1.11022302463E-016,-6.79815536723E-033)) ;
#424=DIRECTION('Vector Direction',(0.,0.,-1.)) ;
#429=DIRECTION('Vector Direction',(0.,0.,-1.)) ;
#441=DIRECTION('Axis2P3D Direction',(0.866025403784,0.5,-3.06161699787E-017)) ;
#442=DIRECTION('Axis2P3D XDirection',(0.5,-0.866025403784,5.30287619362E-017)) ;
#453=DIRECTION('Axis2P3D Direction',(-0.866025403784,0.5,-3.06161699787E-017)) ;
#454=DIRECTION('Axis2P3D XDirection',(0.5,0.866025403784,-5.30287619362E-017)) ;
#468=DIRECTION('Axis2P3D Direction',(0.,0.,1.)) ;
#469=DIRECTION('Axis2P3D XDirection',(1.,0.,0.)) ;
#30=PRESENTATION_LAYER_ASSIGNMENT('1',' ',(#21)) ;
#8=PRODUCT_RELATED_PRODUCT_CATEGORY('part',$,(#5)) ;
#7=PRODUCT_CATEGORY('part','specification') ;
#29=STYLED_ITEM(' ',(#28),#21) ;
#475=STYLED_ITEM(' ',(#474),#470) ;
#28=PRESENTATION_STYLE_ASSIGNMENT((#27)) ;
#474=PRESENTATION_STYLE_ASSIGNMENT((#473)) ;
#473=CURVE_STYLE(' ',#471,POSITIVE_LENGTH_MEASURE(0.129999995232),#472) ;
#27=SURFACE_STYLE_USAGE(.BOTH.,#26) ;
#26=SURFACE_SIDE_STYLE(' ',(#25)) ;
#25=SURFACE_STYLE_FILL_AREA(#24) ;
#24=FILL_AREA_STYLE(' ',(#23)) ;
#23=FILL_AREA_STYLE_COLOUR(' ',#22) ;
#63=VECTOR('Line Direction',#62,1.) ;
#77=VECTOR('Line Direction',#76,1.) ;
#134=VECTOR('Line Direction',#133,1.) ;
#141=VECTOR('Line Direction',#140,1.) ;
#181=VECTOR('Line Direction',#180,1.) ;
#190=VECTOR('Line Direction',#189,1.) ;
#197=VECTOR('Line Direction',#196,1.) ;
#204=VECTOR('Line Direction',#203,1.) ;
#211=VECTOR('Line Direction',#210,1.) ;
#218=VECTOR('Line Direction',#217,1.) ;
#237=VECTOR('Line Direction',#236,1.) ;
#244=VECTOR('Line Direction',#243,1.) ;
#288=VECTOR('Line Direction',#287,1.) ;
#321=VECTOR('Line Direction',#320,1.) ;
#354=VECTOR('Line Direction',#353,1.) ;
#361=VECTOR('Line Direction',#360,1.) ;
#425=VECTOR('Line Direction',#424,1.) ;
#430=VECTOR('Line Direction',#429,1.) ;
#15=UNCERTAINTY_MEASURE_WITH_UNIT(LENGTH_MEASURE(0.005),#12,'distance_accuracy_value','CONFUSED CURVE UNCERTAINTY') ;
#466=SHAPE_REPRESENTATION_RELATIONSHIP(' ',' ',#19,#465) ;
#52=ORIENTED_EDGE('',*,*,#45,.T.) ;
#53=ORIENTED_EDGE('',*,*,#50,.T.) ;
#81=ORIENTED_EDGE('',*,*,#67,.T.) ;
#82=ORIENTED_EDGE('',*,*,#74,.T.) ;
#83=ORIENTED_EDGE('',*,*,#79,.F.) ;
#84=ORIENTED_EDGE('',*,*,#45,.F.) ;
#93=ORIENTED_EDGE('',*,*,#50,.F.) ;
#94=ORIENTED_EDGE('',*,*,#79,.T.) ;
#95=ORIENTED_EDGE('',*,*,#91,.T.) ;
#96=ORIENTED_EDGE('',*,*,#67,.F.) ;
#119=ORIENTED_EDGE('',*,*,#112,.T.) ;
#120=ORIENTED_EDGE('',*,*,#117,.T.) ;
#123=ORIENTED_EDGE('',*,*,#74,.F.) ;
#124=ORIENTED_EDGE('',*,*,#91,.F.) ;
#152=ORIENTED_EDGE('',*,*,#138,.T.) ;
#153=ORIENTED_EDGE('',*,*,#117,.F.) ;
#154=ORIENTED_EDGE('',*,*,#145,.F.) ;
#155=ORIENTED_EDGE('',*,*,#150,.T.) ;
#164=ORIENTED_EDGE('',*,*,#145,.T.) ;
#165=ORIENTED_EDGE('',*,*,#112,.F.) ;
#166=ORIENTED_EDGE('',*,*,#138,.F.) ;
#167=ORIENTED_EDGE('',*,*,#162,.T.) ;
#176=ORIENTED_EDGE('',*,*,#162,.F.) ;
#177=ORIENTED_EDGE('',*,*,#150,.F.) ;
#222=ORIENTED_EDGE('',*,*,#187,.T.) ;
#223=ORIENTED_EDGE('',*,*,#194,.T.) ;
#224=ORIENTED_EDGE('',*,*,#201,.T.) ;
#225=ORIENTED_EDGE('',*,*,#208,.T.) ;
#226=ORIENTED_EDGE('',*,*,#215,.T.) ;
#227=ORIENTED_EDGE('',*,*,#220,.T.) ;
#274=ORIENTED_EDGE('',*,*,#241,.F.) ;
#275=ORIENTED_EDGE('',*,*,#208,.F.) ;
#276=ORIENTED_EDGE('',*,*,#248,.T.) ;
#277=ORIENTED_EDGE('',*,*,#261,.F.) ;
#278=ORIENTED_EDGE('',*,*,#272,.T.) ;
#308=ORIENTED_EDGE('',*,*,#292,.F.) ;
#309=ORIENTED_EDGE('',*,*,#215,.F.) ;
#310=ORIENTED_EDGE('',*,*,#241,.T.) ;
#311=ORIENTED_EDGE('',*,*,#306,.F.) ;
#341=ORIENTED_EDGE('',*,*,#325,.F.) ;
#342=ORIENTED_EDGE('',*,*,#220,.F.) ;
#343=ORIENTED_EDGE('',*,*,#292,.T.) ;
#344=ORIENTED_EDGE('',*,*,#339,.F.) ;
#374=ORIENTED_EDGE('',*,*,#306,.T.) ;
#375=ORIENTED_EDGE('',*,*,#272,.F.) ;
#376=ORIENTED_EDGE('',*,*,#358,.F.) ;
#377=ORIENTED_EDGE('',*,*,#365,.T.) ;
#378=ORIENTED_EDGE('',*,*,#372,.T.) ;
#379=ORIENTED_EDGE('',*,*,#339,.T.) ;
#410=ORIENTED_EDGE('',*,*,#393,.F.) ;
#411=ORIENTED_EDGE('',*,*,#400,.F.) ;
#412=ORIENTED_EDGE('',*,*,#365,.F.) ;
#413=ORIENTED_EDGE('',*,*,#358,.T.) ;
#414=ORIENTED_EDGE('',*,*,#261,.T.) ;
#415=ORIENTED_EDGE('',*,*,#408,.F.) ;
#434=ORIENTED_EDGE('',*,*,#393,.T.) ;
#435=ORIENTED_EDGE('',*,*,#427,.F.) ;
#436=ORIENTED_EDGE('',*,*,#194,.F.) ;
#437=ORIENTED_EDGE('',*,*,#432,.T.) ;
#446=ORIENTED_EDGE('',*,*,#408,.T.) ;
#447=ORIENTED_EDGE('',*,*,#248,.F.) ;
#448=ORIENTED_EDGE('',*,*,#201,.F.) ;
#449=ORIENTED_EDGE('',*,*,#427,.T.) ;
#458=ORIENTED_EDGE('',*,*,#372,.F.) ;
#459=ORIENTED_EDGE('',*,*,#400,.T.) ;
#460=ORIENTED_EDGE('',*,*,#432,.F.) ;
#461=ORIENTED_EDGE('',*,*,#187,.F.) ;
#462=ORIENTED_EDGE('',*,*,#325,.T.) ;
#125=FACE_BOUND('',#122,.T.) ;
#228=FACE_BOUND('',#221,.T.) ;
#31=CLOSED_SHELL('Closed Shell',(#55,#86,#98,#126,#157,#169,#229,#280,#313,#346,#381,#417,#439,#451,#464)) ;
#465=ADVANCED_BREP_SHAPE_REPRESENTATION('NONE',(#21),#16) ;
#55=ADVANCED_FACE('K\X2\00F6\X0\rper.2 ( *SOL7 - wsp *MASTER -  )',(#54),#36,.T.) ;
#86=ADVANCED_FACE('K\X2\00F6\X0\rper.2 ( *SOL7 - wsp *MASTER -  )',(#85),#60,.T.) ;
#98=ADVANCED_FACE('K\X2\00F6\X0\rper.2 ( *SOL7 - wsp *MASTER -  )',(#97),#60,.T.) ;
#126=ADVANCED_FACE('K\X2\00F6\X0\rper.2 ( *SOL7 - wsp *MASTER -  )',(#121,#125),#103,.T.) ;
#157=ADVANCED_FACE('K\X2\00F6\X0\rper.2 ( *SOL7 - wsp *MASTER -  )',(#156),#131,.T.) ;
#169=ADVANCED_FACE('K\X2\00F6\X0\rper.2 ( *SOL7 - wsp *MASTER -  )',(#168),#131,.T.) ;
#229=ADVANCED_FACE('K\X2\00F6\X0\rper.2 ( *SOL7 - wsp *MASTER -  )',(#178,#228),#174,.F.) ;
#280=ADVANCED_FACE('K\X2\00F6\X0\rper.2 ( *SOL7 - wsp *MASTER -  )',(#279),#234,.T.) ;
#313=ADVANCED_FACE('K\X2\00F6\X0\rper.2 ( *SOL7 - wsp *MASTER -  )',(#312),#285,.T.) ;
#346=ADVANCED_FACE('K\X2\00F6\X0\rper.2 ( *SOL7 - wsp *MASTER -  )',(#345),#318,.T.) ;
#381=ADVANCED_FACE('K\X2\00F6\X0\rper.2 ( *SOL7 - wsp *MASTER -  )',(#380),#351,.F.) ;
#417=ADVANCED_FACE('K\X2\00F6\X0\rper.2 ( *SOL7 - wsp *MASTER -  )',(#416),#351,.F.) ;
#439=ADVANCED_FACE('K\X2\00F6\X0\rper.2 ( *SOL7 - wsp *MASTER -  )',(#438),#422,.F.) ;
#451=ADVANCED_FACE('K\X2\00F6\X0\rper.2 ( *SOL7 - wsp *MASTER -  )',(#450),#444,.F.) ;
#464=ADVANCED_FACE('K\X2\00F6\X0\rper.2 ( *SOL7 - wsp *MASTER -  )',(#463),#456,.F.) ;
#4=APPLICATION_PROTOCOL_DEFINITION('international standard','automotive_design',2001,#1) ;
#249=B_SPLINE_CURVE_WITH_KNOTS('',5,(#250,#251,#252,#253,#254,#255,#256,#257,#258),.UNSPECIFIED.,.F.,.U.,(6,3,6),(0.,43.8519162564,50.0499907351),.UNSPECIFIED.) ;
#262=B_SPLINE_CURVE_WITH_KNOTS('',5,(#263,#264,#265,#266,#267,#268,#269,#270,#271),.UNSPECIFIED.,.F.,.U.,(6,3,6),(0.,44.5237286077,54.7674081157),.UNSPECIFIED.) ;
#293=B_SPLINE_CURVE_WITH_KNOTS('',5,(#294,#295,#296,#297,#298,#299,#300,#301,#302,#303,#304,#305),.UNSPECIFIED.,.F.,.U.,(6,3,3,6),(0.,39.3225586991,84.7245598348,104.80146557),.UNSPECIFIED.) ;
#326=B_SPLINE_CURVE_WITH_KNOTS('',5,(#327,#328,#329,#330,#331,#332,#333,#334,#335,#336,#337,#338),.UNSPECIFIED.,.F.,.U.,(6,3,3,6),(0.,39.3225586776,84.7245598003,104.801465535),.UNSPECIFIED.) ;
#366=B_SPLINE_CURVE_WITH_KNOTS('',4,(#367,#368,#369,#370,#371),.UNSPECIFIED.,.F.,.U.,(5,5),(0.,50.0499907295),.UNSPECIFIED.) ;
#382=B_SPLINE_CURVE_WITH_KNOTS('',5,(#383,#384,#385,#386,#387,#388),.UNSPECIFIED.,.F.,.U.,(6,6),(0.,104.801465547),.UNSPECIFIED.) ;
#394=B_SPLINE_CURVE_WITH_KNOTS('',4,(#395,#396,#397,#398,#399),.UNSPECIFIED.,.F.,.U.,(5,5),(0.,54.7674081084),.UNSPECIFIED.) ;
#401=B_SPLINE_CURVE_WITH_KNOTS('',5,(#402,#403,#404,#405,#406,#407),.UNSPECIFIED.,.F.,.U.,(6,6),(0.,104.801465566),.UNSPECIFIED.) ;
#21=MANIFOLD_SOLID_BREP('K\X2\00F6\X0\rper.2 ( *SOL7 - wsp *MASTER -  )',#31) ;
#40=CIRCLE('generated circle',#39,3.) ;
#49=CIRCLE('generated circle',#48,3.) ;
#71=CIRCLE('generated circle',#70,3.) ;
#90=CIRCLE('generated circle',#89,3.) ;
#107=CIRCLE('generated circle',#106,4.5) ;
#116=CIRCLE('generated circle',#115,4.5) ;
#149=CIRCLE('generated circle',#148,4.5) ;
#161=CIRCLE('generated circle',#160,4.5) ;
#22=COLOUR_RGB('Colour',0.823529411765,0.823529411765,1.) ;
#351=CONICAL_SURFACE('Cone',#350,6.2172489379E-015,1.0471975512) ;
#476=CONSTRUCTIVE_GEOMETRY_REPRESENTATION('supplemental geometry',(#470),#16) ;
#477=CONSTRUCTIVE_GEOMETRY_REPRESENTATION_RELATIONSHIP('supplemental geometry','',#19,#476) ;
#60=CYLINDRICAL_SURFACE('generated cylinder',#59,3.) ;
#131=CYLINDRICAL_SURFACE('generated cylinder',#130,4.5) ;
#472=DRAUGHTING_PRE_DEFINED_COLOUR('white') ;
#471=DRAUGHTING_PRE_DEFINED_CURVE_FONT('continuous') ;
#45=EDGE_CURVE('',#42,#44,#40,.T.) ;
#50=EDGE_CURVE('',#44,#42,#49,.T.) ;
#67=EDGE_CURVE('',#42,#66,#64,.F.) ;
#74=EDGE_CURVE('',#66,#73,#71,.T.) ;
#79=EDGE_CURVE('',#44,#73,#78,.F.) ;
#91=EDGE_CURVE('',#73,#66,#90,.T.) ;
#112=EDGE_CURVE('',#109,#111,#107,.T.) ;
#117=EDGE_CURVE('',#111,#109,#116,.T.) ;
#138=EDGE_CURVE('',#137,#109,#135,.T.) ;
#145=EDGE_CURVE('',#144,#111,#142,.T.) ;
#150=EDGE_CURVE('',#144,#137,#149,.T.) ;
#162=EDGE_CURVE('',#137,#144,#161,.T.) ;
#187=EDGE_CURVE('',#184,#186,#182,.T.) ;
#194=EDGE_CURVE('',#186,#193,#191,.T.) ;
#201=EDGE_CURVE('',#193,#200,#198,.T.) ;
#208=EDGE_CURVE('',#200,#207,#205,.F.) ;
#215=EDGE_CURVE('',#207,#214,#212,.F.) ;
#220=EDGE_CURVE('',#214,#184,#219,.F.) ;
#241=EDGE_CURVE('',#207,#240,#238,.T.) ;
#248=EDGE_CURVE('',#200,#247,#245,.T.) ;
#261=EDGE_CURVE('',#260,#247,#249,.T.) ;
#272=EDGE_CURVE('',#260,#240,#262,.T.) ;
#292=EDGE_CURVE('',#214,#291,#289,.T.) ;
#306=EDGE_CURVE('',#291,#240,#293,.T.) ;
#325=EDGE_CURVE('',#184,#324,#322,.T.) ;
#339=EDGE_CURVE('',#324,#291,#326,.T.) ;
#358=EDGE_CURVE('',#357,#260,#355,.T.) ;
#365=EDGE_CURVE('',#357,#364,#362,.T.) ;
#372=EDGE_CURVE('',#364,#324,#366,.T.) ;
#393=EDGE_CURVE('',#390,#392,#382,.T.) ;
#400=EDGE_CURVE('',#364,#390,#394,.T.) ;
#408=EDGE_CURVE('',#392,#247,#401,.T.) ;
#427=EDGE_CURVE('',#193,#392,#426,.T.) ;
#432=EDGE_CURVE('',#186,#390,#431,.T.) ;
#51=EDGE_LOOP('',(#52,#53)) ;
#80=EDGE_LOOP('',(#81,#82,#83,#84)) ;
#92=EDGE_LOOP('',(#93,#94,#95,#96)) ;
#118=EDGE_LOOP('',(#119,#120)) ;
#122=EDGE_LOOP('',(#123,#124)) ;
#151=EDGE_LOOP('',(#152,#153,#154,#155)) ;
#163=EDGE_LOOP('',(#164,#165,#166,#167)) ;
#175=EDGE_LOOP('',(#176,#177)) ;
#221=EDGE_LOOP('',(#222,#223,#224,#225,#226,#227)) ;
#273=EDGE_LOOP('',(#274,#275,#276,#277,#278)) ;
#307=EDGE_LOOP('',(#308,#309,#310,#311)) ;
#340=EDGE_LOOP('',(#341,#342,#343,#344)) ;
#373=EDGE_LOOP('',(#374,#375,#376,#377,#378,#379)) ;
#409=EDGE_LOOP('',(#410,#411,#412,#413,#414,#415)) ;
#433=EDGE_LOOP('',(#434,#435,#436,#437)) ;
#445=EDGE_LOOP('',(#446,#447,#448,#449)) ;
#457=EDGE_LOOP('',(#458,#459,#460,#461,#462)) ;
#54=FACE_OUTER_BOUND('',#51,.T.) ;
#85=FACE_OUTER_BOUND('',#80,.T.) ;
#97=FACE_OUTER_BOUND('',#92,.T.) ;
#121=FACE_OUTER_BOUND('',#118,.T.) ;
#156=FACE_OUTER_BOUND('',#151,.T.) ;
#168=FACE_OUTER_BOUND('',#163,.T.) ;
#178=FACE_OUTER_BOUND('',#175,.T.) ;
#279=FACE_OUTER_BOUND('',#273,.T.) ;
#312=FACE_OUTER_BOUND('',#307,.T.) ;
#345=FACE_OUTER_BOUND('',#340,.T.) ;
#380=FACE_OUTER_BOUND('',#373,.T.) ;
#416=FACE_OUTER_BOUND('',#409,.T.) ;
#438=FACE_OUTER_BOUND('',#433,.T.) ;
#450=FACE_OUTER_BOUND('',#445,.T.) ;
#463=FACE_OUTER_BOUND('',#457,.T.) ;
#64=LINE('Line',#61,#63) ;
#78=LINE('Line',#75,#77) ;
#135=LINE('Line',#132,#134) ;
#142=LINE('Line',#139,#141) ;
#182=LINE('Line',#179,#181) ;
#191=LINE('Line',#188,#190) ;
#198=LINE('Line',#195,#197) ;
#205=LINE('Line',#202,#204) ;
#212=LINE('Line',#209,#211) ;
#219=LINE('Line',#216,#218) ;
#238=LINE('Line',#235,#237) ;
#245=LINE('Line',#242,#244) ;
#289=LINE('Line',#286,#288) ;
#322=LINE('Line',#319,#321) ;
#355=LINE('Line',#352,#354) ;
#362=LINE('Line',#359,#361) ;
#426=LINE('Line',#423,#425) ;
#431=LINE('Line',#428,#430) ;
#36=PLANE('',#35) ;
#103=PLANE('',#102) ;
#174=PLANE('',#173) ;
#234=PLANE('',#233) ;
#285=PLANE('',#284) ;
#318=PLANE('',#317) ;
#422=PLANE('',#421) ;
#444=PLANE('',#443) ;
#456=PLANE('',#455) ;
#9=PRODUCT_CATEGORY_RELATIONSHIP(' ',' ',#7,#8) ;
#6=PRODUCT_DEFINITION_FORMATION_WITH_SPECIFIED_SOURCE('',' ',#5,.NOT_KNOWN.) ;
#20=SHAPE_DEFINITION_REPRESENTATION(#11,#19) ;
#42=VERTEX_POINT('',#41) ;
#44=VERTEX_POINT('',#43) ;
#66=VERTEX_POINT('',#65) ;
#73=VERTEX_POINT('',#72) ;
#109=VERTEX_POINT('',#108) ;
#111=VERTEX_POINT('',#110) ;
#137=VERTEX_POINT('',#136) ;
#144=VERTEX_POINT('',#143) ;
#184=VERTEX_POINT('',#183) ;
#186=VERTEX_POINT('',#185) ;
#193=VERTEX_POINT('',#192) ;
#200=VERTEX_POINT('',#199) ;
#207=VERTEX_POINT('',#206) ;
#214=VERTEX_POINT('',#213) ;
#240=VERTEX_POINT('',#239) ;
#247=VERTEX_POINT('',#246) ;
#260=VERTEX_POINT('',#259) ;
#291=VERTEX_POINT('',#290) ;
#324=VERTEX_POINT('',#323) ;
#357=VERTEX_POINT('',#356) ;
#364=VERTEX_POINT('',#363) ;
#390=VERTEX_POINT('',#389) ;
#392=VERTEX_POINT('',#391) ;
#12=(LENGTH_UNIT()NAMED_UNIT(*)SI_UNIT(.MILLI.,.METRE.)) ;
#13=(NAMED_UNIT(*)PLANE_ANGLE_UNIT()SI_UNIT($,.RADIAN.)) ;
#14=(NAMED_UNIT(*)SI_UNIT($,.STERADIAN.)SOLID_ANGLE_UNIT()) ;
#16=(GEOMETRIC_REPRESENTATION_CONTEXT(3)GLOBAL_UNCERTAINTY_ASSIGNED_CONTEXT((#15))GLOBAL_UNIT_ASSIGNED_CONTEXT((#12,#13,#14))REPRESENTATION_CONTEXT(' ',' ')) ;
ENDSEC;
END-ISO-10303-21;
