ISO-10303-21;
HEADER;
FILE_DESCRIPTION(('CATIA V5R24 STEP','CAx-IF Rec.Pracs.--- Model Styling and Organization---1.2---2011-12-15'),'2;1');

FILE_NAME ('001737-1_1_0298900000_0298900000.stp','2018-08-13T09:51:31+00:00',('none'),('Weidmueller'),'CATIA Version 5-6 Release 2014 SP4 HF52','CATIA V5 STEP AP214','none');

FILE_SCHEMA(('AUTOMOTIVE_DESIGN { 1 0 10303 214 1 1 1 1 }'));

ENDSEC;
DATA;
#5=PRODUCT('0298900000','','',(#2)) ;
#2=PRODUCT_CONTEXT(' ',#1,'mechanical') ;
#1=APPLICATION_CONTEXT('automotive design') ;
#10=PRODUCT_DEFINITION('',' ',#6,#3) ;
#3=PRODUCT_DEFINITION_CONTEXT('part definition',#1,' ') ;
#11=PRODUCT_DEFINITION_SHAPE(' ',' ',#10) ;
#326=MECHANICAL_DESIGN_GEOMETRIC_PRESENTATION_REPRESENTATION(' ',(#46),#16) ;
#19=SHAPE_REPRESENTATION(' ',(#18),#16) ;
#18=AXIS2_PLACEMENT_3D(' ',#17,$,$) ;
#24=AXIS2_PLACEMENT_3D('Plane Axis2P3D',#21,#22,#23) ;
#31=AXIS2_PLACEMENT_3D('Plane Axis2P3D',#28,#29,#30) ;
#36=AXIS2_PLACEMENT_3D('Plane Axis2P3D',#33,#34,#35) ;
#52=AXIS2_PLACEMENT_3D('Cylinder Axis2P3D',#49,#50,#51) ;
#56=AXIS2_PLACEMENT_3D('Circle Axis2P3D',#54,#55,$) ;
#72=AXIS2_PLACEMENT_3D('Circle Axis2P3D',#70,#71,$) ;
#91=AXIS2_PLACEMENT_3D('Circle Axis2P3D',#89,#90,$) ;
#96=AXIS2_PLACEMENT_3D('Circle Axis2P3D',#94,#95,$) ;
#109=AXIS2_PLACEMENT_3D('Plane Axis2P3D',#106,#107,#108) ;
#119=AXIS2_PLACEMENT_3D('Plane Axis2P3D',#116,#117,#118) ;
#123=AXIS2_PLACEMENT_3D('Circle Axis2P3D',#121,#122,$) ;
#132=AXIS2_PLACEMENT_3D('Circle Axis2P3D',#130,#131,$) ;
#147=AXIS2_PLACEMENT_3D('Plane Axis2P3D',#144,#145,#146) ;
#160=AXIS2_PLACEMENT_3D('Circle Axis2P3D',#158,#159,$) ;
#167=AXIS2_PLACEMENT_3D('Circle Axis2P3D',#165,#166,$) ;
#187=AXIS2_PLACEMENT_3D('Circle Axis2P3D',#185,#186,$) ;
#194=AXIS2_PLACEMENT_3D('Circle Axis2P3D',#192,#193,$) ;
#206=AXIS2_PLACEMENT_3D('Cylinder Axis2P3D',#203,#204,#205) ;
#227=AXIS2_PLACEMENT_3D('Circle Axis2P3D',#225,#226,$) ;
#257=AXIS2_PLACEMENT_3D('Circle Axis2P3D',#255,#256,$) ;
#281=AXIS2_PLACEMENT_3D('Plane Axis2P3D',#278,#279,#280) ;
#303=AXIS2_PLACEMENT_3D('Plane Axis2P3D',#300,#301,#302) ;
#315=AXIS2_PLACEMENT_3D('Plane Axis2P3D',#312,#313,#314) ;
#17=CARTESIAN_POINT(' ',(0.,0.,0.)) ;
#21=CARTESIAN_POINT('Axis2P3D Location',(0.,0.,0.)) ;
#28=CARTESIAN_POINT('Axis2P3D Location',(0.,0.,0.)) ;
#33=CARTESIAN_POINT('Axis2P3D Location',(0.,0.,0.)) ;
#49=CARTESIAN_POINT('Axis2P3D Location',(3.5,3.5,18.9638639687)) ;
#54=CARTESIAN_POINT('Axis2P3D Location',(3.5,3.5,0.163864129326)) ;
#58=CARTESIAN_POINT('Vertex',(5.25516512378,2.54114892279,0.163864129326)) ;
#60=CARTESIAN_POINT('Vertex',(1.74483487622,4.45885107721,0.163864129326)) ;
#63=CARTESIAN_POINT('Line Origine',(5.25516512378,2.54114892279,17.6638641293)) ;
#67=CARTESIAN_POINT('Vertex',(5.25516512378,2.54114892279,35.1638641293)) ;
#70=CARTESIAN_POINT('Axis2P3D Location',(3.5,3.5,35.1638641293)) ;
#74=CARTESIAN_POINT('Vertex',(1.74483487622,4.45885107721,35.1638641293)) ;
#77=CARTESIAN_POINT('Line Origine',(1.74483487622,4.45885107721,17.6638641293)) ;
#89=CARTESIAN_POINT('Axis2P3D Location',(3.5,3.5,0.163864129326)) ;
#94=CARTESIAN_POINT('Axis2P3D Location',(3.5,3.5,35.1638641293)) ;
#106=CARTESIAN_POINT('Axis2P3D Location',(5.5,3.5,0.163864129326)) ;
#116=CARTESIAN_POINT('Axis2P3D Location',(7.,3.5,35.1638641293)) ;
#121=CARTESIAN_POINT('Axis2P3D Location',(3.5,3.5,35.1638641293)) ;
#125=CARTESIAN_POINT('Vertex',(0.428461033384,5.17798938511,35.1638641293)) ;
#127=CARTESIAN_POINT('Vertex',(6.57153896662,1.82201061489,35.1638641293)) ;
#130=CARTESIAN_POINT('Axis2P3D Location',(3.5,3.5,35.1638641293)) ;
#144=CARTESIAN_POINT('Axis2P3D Location',(7.,3.5,37.7638641293)) ;
#149=CARTESIAN_POINT('Line Origine',(4.1,3.5,37.7638641293)) ;
#153=CARTESIAN_POINT('Vertex',(4.1,6.94818792991,37.7638641293)) ;
#155=CARTESIAN_POINT('Vertex',(4.1,0.0518120700867,37.7638641293)) ;
#158=CARTESIAN_POINT('Axis2P3D Location',(3.5,3.5,37.7638641293)) ;
#162=CARTESIAN_POINT('Vertex',(6.57153896662,1.82201061489,37.7638641293)) ;
#165=CARTESIAN_POINT('Axis2P3D Location',(3.5,3.5,37.7638641293)) ;
#176=CARTESIAN_POINT('Line Origine',(2.9,3.5,37.7638641293)) ;
#180=CARTESIAN_POINT('Vertex',(2.9,0.0518120700867,37.7638641293)) ;
#182=CARTESIAN_POINT('Vertex',(2.9,6.94818792991,37.7638641293)) ;
#185=CARTESIAN_POINT('Axis2P3D Location',(3.5,3.5,37.7638641293)) ;
#189=CARTESIAN_POINT('Vertex',(0.428461033384,5.17798938511,37.7638641293)) ;
#192=CARTESIAN_POINT('Axis2P3D Location',(3.5,3.5,37.7638641293)) ;
#203=CARTESIAN_POINT('Axis2P3D Location',(3.5,3.5,18.9638639687)) ;
#208=CARTESIAN_POINT('Line Origine',(6.57153896662,1.82201061489,36.4638641293)) ;
#213=CARTESIAN_POINT('Line Origine',(0.428461033384,5.17798938511,36.4638641293)) ;
#218=CARTESIAN_POINT('Line Origine',(2.9,6.94818792991,36.4638641293)) ;
#222=CARTESIAN_POINT('Vertex',(2.9,6.94818792991,36.6638641293)) ;
#225=CARTESIAN_POINT('Axis2P3D Location',(3.5,3.5,36.6638641293)) ;
#229=CARTESIAN_POINT('Vertex',(4.1,6.94818792991,36.6638641293)) ;
#232=CARTESIAN_POINT('Line Origine',(4.1,6.94818792991,36.4638641293)) ;
#248=CARTESIAN_POINT('Line Origine',(4.1,0.0518120700867,36.4638641293)) ;
#252=CARTESIAN_POINT('Vertex',(4.1,0.0518120700867,36.6638641293)) ;
#255=CARTESIAN_POINT('Axis2P3D Location',(3.5,3.5,36.6638641293)) ;
#259=CARTESIAN_POINT('Vertex',(2.9,0.0518120700867,36.6638641293)) ;
#262=CARTESIAN_POINT('Line Origine',(2.9,0.0518120700867,36.4638641293)) ;
#278=CARTESIAN_POINT('Axis2P3D Location',(7.,3.08090963878,36.6638641293)) ;
#283=CARTESIAN_POINT('Line Origine',(4.1,3.5,36.6638641293)) ;
#288=CARTESIAN_POINT('Line Origine',(2.9,3.5,36.6638641293)) ;
#300=CARTESIAN_POINT('Axis2P3D Location',(2.9,-0.91909036122,37.7638641293)) ;
#312=CARTESIAN_POINT('Axis2P3D Location',(4.1,7.08090963878,37.7638641293)) ;
#22=DIRECTION('Axis2P3D Direction',(0.,0.,1.)) ;
#23=DIRECTION('Axis2P3D XDirection',(1.,0.,0.)) ;
#29=DIRECTION('Axis2P3D Direction',(1.,0.,0.)) ;
#30=DIRECTION('Axis2P3D XDirection',(0.,1.,0.)) ;
#34=DIRECTION('Axis2P3D Direction',(0.,1.,0.)) ;
#35=DIRECTION('Axis2P3D XDirection',(0.,0.,1.)) ;
#50=DIRECTION('Axis2P3D Direction',(0.,0.,-1.)) ;
#51=DIRECTION('Axis2P3D XDirection',(0.87758256189,-0.479425538604,0.)) ;
#55=DIRECTION('Axis2P3D Direction',(0.,0.,-1.)) ;
#64=DIRECTION('Vector Direction',(0.,0.,-1.)) ;
#71=DIRECTION('Axis2P3D Direction',(0.,0.,-1.)) ;
#78=DIRECTION('Vector Direction',(0.,0.,-1.)) ;
#90=DIRECTION('Axis2P3D Direction',(0.,0.,-1.)) ;
#95=DIRECTION('Axis2P3D Direction',(0.,0.,-1.)) ;
#107=DIRECTION('Axis2P3D Direction',(0.,0.,-1.)) ;
#108=DIRECTION('Axis2P3D XDirection',(1.,0.,0.)) ;
#117=DIRECTION('Axis2P3D Direction',(0.,0.,-1.)) ;
#118=DIRECTION('Axis2P3D XDirection',(1.,0.,0.)) ;
#122=DIRECTION('Axis2P3D Direction',(0.,0.,-1.)) ;
#131=DIRECTION('Axis2P3D Direction',(0.,0.,-1.)) ;
#145=DIRECTION('Axis2P3D Direction',(0.,0.,-1.)) ;
#146=DIRECTION('Axis2P3D XDirection',(1.,0.,0.)) ;
#150=DIRECTION('Vector Direction',(0.,-1.,0.)) ;
#159=DIRECTION('Axis2P3D Direction',(0.,0.,-1.)) ;
#166=DIRECTION('Axis2P3D Direction',(0.,0.,-1.)) ;
#177=DIRECTION('Vector Direction',(0.,1.,0.)) ;
#186=DIRECTION('Axis2P3D Direction',(0.,0.,-1.)) ;
#193=DIRECTION('Axis2P3D Direction',(0.,0.,-1.)) ;
#204=DIRECTION('Axis2P3D Direction',(0.,0.,-1.)) ;
#205=DIRECTION('Axis2P3D XDirection',(0.87758256189,-0.479425538604,0.)) ;
#209=DIRECTION('Vector Direction',(0.,0.,-1.)) ;
#214=DIRECTION('Vector Direction',(0.,0.,-1.)) ;
#219=DIRECTION('Vector Direction',(0.,0.,-1.)) ;
#226=DIRECTION('Axis2P3D Direction',(0.,0.,-1.)) ;
#233=DIRECTION('Vector Direction',(0.,0.,-1.)) ;
#249=DIRECTION('Vector Direction',(0.,0.,-1.)) ;
#256=DIRECTION('Axis2P3D Direction',(0.,0.,-1.)) ;
#263=DIRECTION('Vector Direction',(0.,0.,-1.)) ;
#279=DIRECTION('Axis2P3D Direction',(0.,0.,-1.)) ;
#280=DIRECTION('Axis2P3D XDirection',(1.,-1.17988916973E-017,0.)) ;
#284=DIRECTION('Vector Direction',(0.,-1.,0.)) ;
#289=DIRECTION('Vector Direction',(0.,1.,0.)) ;
#301=DIRECTION('Axis2P3D Direction',(-1.,1.17988916973E-017,0.)) ;
#302=DIRECTION('Axis2P3D XDirection',(1.17988916973E-017,1.,0.)) ;
#313=DIRECTION('Axis2P3D Direction',(1.,-1.17988916973E-017,0.)) ;
#314=DIRECTION('Axis2P3D XDirection',(-1.17988916973E-017,-1.,0.)) ;
#47=PRESENTATION_LAYER_ASSIGNMENT('1',' ',(#38)) ;
#8=PRODUCT_RELATED_PRODUCT_CATEGORY('part',$,(#5)) ;
#7=PRODUCT_CATEGORY('part','specification') ;
#46=STYLED_ITEM(' ',(#45),#38) ;
#45=PRESENTATION_STYLE_ASSIGNMENT((#44)) ;
#44=SURFACE_STYLE_USAGE(.BOTH.,#43) ;
#43=SURFACE_SIDE_STYLE(' ',(#42)) ;
#42=SURFACE_STYLE_FILL_AREA(#41) ;
#41=FILL_AREA_STYLE(' ',(#40)) ;
#40=FILL_AREA_STYLE_COLOUR(' ',#39) ;
#65=VECTOR('Line Direction',#64,1.) ;
#79=VECTOR('Line Direction',#78,1.) ;
#151=VECTOR('Line Direction',#150,1.) ;
#178=VECTOR('Line Direction',#177,1.) ;
#210=VECTOR('Line Direction',#209,1.) ;
#215=VECTOR('Line Direction',#214,1.) ;
#220=VECTOR('Line Direction',#219,1.) ;
#234=VECTOR('Line Direction',#233,1.) ;
#250=VECTOR('Line Direction',#249,1.) ;
#264=VECTOR('Line Direction',#263,1.) ;
#285=VECTOR('Line Direction',#284,1.) ;
#290=VECTOR('Line Direction',#289,1.) ;
#15=UNCERTAINTY_MEASURE_WITH_UNIT(LENGTH_MEASURE(0.005),#12,'distance_accuracy_value','CONFUSED CURVE UNCERTAINTY') ;
#325=SHAPE_REPRESENTATION_RELATIONSHIP(' ',' ',#19,#324) ;
#83=ORIENTED_EDGE('',*,*,#62,.F.) ;
#84=ORIENTED_EDGE('',*,*,#69,.T.) ;
#85=ORIENTED_EDGE('',*,*,#76,.T.) ;
#86=ORIENTED_EDGE('',*,*,#81,.F.) ;
#100=ORIENTED_EDGE('',*,*,#93,.F.) ;
#101=ORIENTED_EDGE('',*,*,#81,.T.) ;
#102=ORIENTED_EDGE('',*,*,#98,.T.) ;
#103=ORIENTED_EDGE('',*,*,#69,.F.) ;
#112=ORIENTED_EDGE('',*,*,#62,.T.) ;
#113=ORIENTED_EDGE('',*,*,#93,.T.) ;
#136=ORIENTED_EDGE('',*,*,#129,.T.) ;
#137=ORIENTED_EDGE('',*,*,#134,.T.) ;
#140=ORIENTED_EDGE('',*,*,#76,.F.) ;
#141=ORIENTED_EDGE('',*,*,#98,.F.) ;
#171=ORIENTED_EDGE('',*,*,#157,.T.) ;
#172=ORIENTED_EDGE('',*,*,#164,.F.) ;
#173=ORIENTED_EDGE('',*,*,#169,.F.) ;
#198=ORIENTED_EDGE('',*,*,#184,.T.) ;
#199=ORIENTED_EDGE('',*,*,#191,.F.) ;
#200=ORIENTED_EDGE('',*,*,#196,.F.) ;
#238=ORIENTED_EDGE('',*,*,#169,.T.) ;
#239=ORIENTED_EDGE('',*,*,#212,.F.) ;
#240=ORIENTED_EDGE('',*,*,#129,.F.) ;
#241=ORIENTED_EDGE('',*,*,#217,.T.) ;
#242=ORIENTED_EDGE('',*,*,#191,.T.) ;
#243=ORIENTED_EDGE('',*,*,#224,.T.) ;
#244=ORIENTED_EDGE('',*,*,#231,.T.) ;
#245=ORIENTED_EDGE('',*,*,#236,.F.) ;
#268=ORIENTED_EDGE('',*,*,#196,.T.) ;
#269=ORIENTED_EDGE('',*,*,#217,.F.) ;
#270=ORIENTED_EDGE('',*,*,#134,.F.) ;
#271=ORIENTED_EDGE('',*,*,#212,.T.) ;
#272=ORIENTED_EDGE('',*,*,#164,.T.) ;
#273=ORIENTED_EDGE('',*,*,#254,.T.) ;
#274=ORIENTED_EDGE('',*,*,#261,.T.) ;
#275=ORIENTED_EDGE('',*,*,#266,.F.) ;
#294=ORIENTED_EDGE('',*,*,#287,.F.) ;
#295=ORIENTED_EDGE('',*,*,#231,.F.) ;
#296=ORIENTED_EDGE('',*,*,#292,.F.) ;
#297=ORIENTED_EDGE('',*,*,#261,.F.) ;
#306=ORIENTED_EDGE('',*,*,#184,.F.) ;
#307=ORIENTED_EDGE('',*,*,#266,.T.) ;
#308=ORIENTED_EDGE('',*,*,#292,.T.) ;
#309=ORIENTED_EDGE('',*,*,#224,.F.) ;
#318=ORIENTED_EDGE('',*,*,#157,.F.) ;
#319=ORIENTED_EDGE('',*,*,#236,.T.) ;
#320=ORIENTED_EDGE('',*,*,#287,.T.) ;
#321=ORIENTED_EDGE('',*,*,#254,.F.) ;
#142=FACE_BOUND('',#139,.T.) ;
#48=CLOSED_SHELL('Closed Shell',(#88,#105,#115,#143,#175,#202,#247,#277,#299,#311,#323)) ;
#324=ADVANCED_BREP_SHAPE_REPRESENTATION('NONE',(#38),#16) ;
#88=ADVANCED_FACE('Koerper.2',(#87),#53,.T.) ;
#105=ADVANCED_FACE('Koerper.2',(#104),#53,.T.) ;
#115=ADVANCED_FACE('Koerper.2',(#114),#110,.T.) ;
#143=ADVANCED_FACE('Koerper.2',(#138,#142),#120,.T.) ;
#175=ADVANCED_FACE('Koerper.2',(#174),#148,.F.) ;
#202=ADVANCED_FACE('Koerper.2',(#201),#148,.F.) ;
#247=ADVANCED_FACE('Koerper.2',(#246),#207,.T.) ;
#277=ADVANCED_FACE('Koerper.2',(#276),#207,.T.) ;
#299=ADVANCED_FACE('Koerper.2',(#298),#282,.F.) ;
#311=ADVANCED_FACE('Koerper.2',(#310),#304,.F.) ;
#323=ADVANCED_FACE('Koerper.2',(#322),#316,.F.) ;
#4=APPLICATION_PROTOCOL_DEFINITION('international standard','automotive_design',2001,#1) ;
#38=MANIFOLD_SOLID_BREP('Koerper.2',#48) ;
#57=CIRCLE('generated circle',#56,2.) ;
#73=CIRCLE('generated circle',#72,2.) ;
#92=CIRCLE('generated circle',#91,2.) ;
#97=CIRCLE('generated circle',#96,2.) ;
#124=CIRCLE('generated circle',#123,3.5) ;
#133=CIRCLE('generated circle',#132,3.5) ;
#161=CIRCLE('generated circle',#160,3.5) ;
#168=CIRCLE('generated circle',#167,3.5) ;
#188=CIRCLE('generated circle',#187,3.5) ;
#195=CIRCLE('generated circle',#194,3.5) ;
#228=CIRCLE('generated circle',#227,3.5) ;
#258=CIRCLE('generated circle',#257,3.5) ;
#39=COLOUR_RGB('Colour',0.823529411765,0.823529411765,1.) ;
#26=CONSTRUCTIVE_GEOMETRY_REPRESENTATION('supplemental geometry',(#25,#32,#37),#16) ;
#27=CONSTRUCTIVE_GEOMETRY_REPRESENTATION_RELATIONSHIP('supplemental geometry','',#19,#26) ;
#53=CYLINDRICAL_SURFACE('generated cylinder',#52,2.) ;
#207=CYLINDRICAL_SURFACE('generated cylinder',#206,3.5) ;
#62=EDGE_CURVE('',#59,#61,#57,.T.) ;
#69=EDGE_CURVE('',#59,#68,#66,.F.) ;
#76=EDGE_CURVE('',#68,#75,#73,.T.) ;
#81=EDGE_CURVE('',#61,#75,#80,.F.) ;
#93=EDGE_CURVE('',#61,#59,#92,.T.) ;
#98=EDGE_CURVE('',#75,#68,#97,.T.) ;
#129=EDGE_CURVE('',#126,#128,#124,.T.) ;
#134=EDGE_CURVE('',#128,#126,#133,.T.) ;
#157=EDGE_CURVE('',#154,#156,#152,.T.) ;
#164=EDGE_CURVE('',#163,#156,#161,.T.) ;
#169=EDGE_CURVE('',#154,#163,#168,.T.) ;
#184=EDGE_CURVE('',#181,#183,#179,.T.) ;
#191=EDGE_CURVE('',#190,#183,#188,.T.) ;
#196=EDGE_CURVE('',#181,#190,#195,.T.) ;
#212=EDGE_CURVE('',#128,#163,#211,.F.) ;
#217=EDGE_CURVE('',#126,#190,#216,.F.) ;
#224=EDGE_CURVE('',#183,#223,#221,.T.) ;
#231=EDGE_CURVE('',#223,#230,#228,.T.) ;
#236=EDGE_CURVE('',#154,#230,#235,.T.) ;
#254=EDGE_CURVE('',#156,#253,#251,.T.) ;
#261=EDGE_CURVE('',#253,#260,#258,.T.) ;
#266=EDGE_CURVE('',#181,#260,#265,.T.) ;
#287=EDGE_CURVE('',#230,#253,#286,.T.) ;
#292=EDGE_CURVE('',#260,#223,#291,.T.) ;
#82=EDGE_LOOP('',(#83,#84,#85,#86)) ;
#99=EDGE_LOOP('',(#100,#101,#102,#103)) ;
#111=EDGE_LOOP('',(#112,#113)) ;
#135=EDGE_LOOP('',(#136,#137)) ;
#139=EDGE_LOOP('',(#140,#141)) ;
#170=EDGE_LOOP('',(#171,#172,#173)) ;
#197=EDGE_LOOP('',(#198,#199,#200)) ;
#237=EDGE_LOOP('',(#238,#239,#240,#241,#242,#243,#244,#245)) ;
#267=EDGE_LOOP('',(#268,#269,#270,#271,#272,#273,#274,#275)) ;
#293=EDGE_LOOP('',(#294,#295,#296,#297)) ;
#305=EDGE_LOOP('',(#306,#307,#308,#309)) ;
#317=EDGE_LOOP('',(#318,#319,#320,#321)) ;
#87=FACE_OUTER_BOUND('',#82,.T.) ;
#104=FACE_OUTER_BOUND('',#99,.T.) ;
#114=FACE_OUTER_BOUND('',#111,.T.) ;
#138=FACE_OUTER_BOUND('',#135,.T.) ;
#174=FACE_OUTER_BOUND('',#170,.T.) ;
#201=FACE_OUTER_BOUND('',#197,.T.) ;
#246=FACE_OUTER_BOUND('',#237,.T.) ;
#276=FACE_OUTER_BOUND('',#267,.T.) ;
#298=FACE_OUTER_BOUND('',#293,.T.) ;
#310=FACE_OUTER_BOUND('',#305,.T.) ;
#322=FACE_OUTER_BOUND('',#317,.T.) ;
#66=LINE('Line',#63,#65) ;
#80=LINE('Line',#77,#79) ;
#152=LINE('Line',#149,#151) ;
#179=LINE('Line',#176,#178) ;
#211=LINE('Line',#208,#210) ;
#216=LINE('Line',#213,#215) ;
#221=LINE('Line',#218,#220) ;
#235=LINE('Line',#232,#234) ;
#251=LINE('Line',#248,#250) ;
#265=LINE('Line',#262,#264) ;
#286=LINE('Line',#283,#285) ;
#291=LINE('Line',#288,#290) ;
#25=PLANE('Referenz_xy',#24) ;
#32=PLANE('Referenz_yz',#31) ;
#37=PLANE('Referenz_zx',#36) ;
#110=PLANE('',#109) ;
#120=PLANE('',#119) ;
#148=PLANE('',#147) ;
#282=PLANE('',#281) ;
#304=PLANE('',#303) ;
#316=PLANE('',#315) ;
#9=PRODUCT_CATEGORY_RELATIONSHIP(' ',' ',#7,#8) ;
#6=PRODUCT_DEFINITION_FORMATION_WITH_SPECIFIED_SOURCE('',' ',#5,.NOT_KNOWN.) ;
#20=SHAPE_DEFINITION_REPRESENTATION(#11,#19) ;
#59=VERTEX_POINT('',#58) ;
#61=VERTEX_POINT('',#60) ;
#68=VERTEX_POINT('',#67) ;
#75=VERTEX_POINT('',#74) ;
#126=VERTEX_POINT('',#125) ;
#128=VERTEX_POINT('',#127) ;
#154=VERTEX_POINT('',#153) ;
#156=VERTEX_POINT('',#155) ;
#163=VERTEX_POINT('',#162) ;
#181=VERTEX_POINT('',#180) ;
#183=VERTEX_POINT('',#182) ;
#190=VERTEX_POINT('',#189) ;
#223=VERTEX_POINT('',#222) ;
#230=VERTEX_POINT('',#229) ;
#253=VERTEX_POINT('',#252) ;
#260=VERTEX_POINT('',#259) ;
#12=(LENGTH_UNIT()NAMED_UNIT(*)SI_UNIT(.MILLI.,.METRE.)) ;
#13=(NAMED_UNIT(*)PLANE_ANGLE_UNIT()SI_UNIT($,.RADIAN.)) ;
#14=(NAMED_UNIT(*)SI_UNIT($,.STERADIAN.)SOLID_ANGLE_UNIT()) ;
#16=(GEOMETRIC_REPRESENTATION_CONTEXT(3)GLOBAL_UNCERTAINTY_ASSIGNED_CONTEXT((#15))GLOBAL_UNIT_ASSIGNED_CONTEXT((#12,#13,#14))REPRESENTATION_CONTEXT(' ',' ')) ;
ENDSEC;
END-ISO-10303-21;
