ISO-10303-21;
HEADER;
FILE_DESCRIPTION(('CATIA V5 STEP Exchange','CAx-IF Rec.Pracs.--- Model Styling and Organization---1.4--- 2014-01-23'),'2;1');

FILE_NAME ('001759-2_2', '2022-01-10T09:55:03+00:00', ('none'), ('Weidmueller'), 'CATIA Version 5-6 Release 2016 SP3 HF44', 'CATIA V5 STEP AP214', 'none');

FILE_SCHEMA(('AUTOMOTIVE_DESIGN { 1 0 10303 214 1 1 1 1 }'));

ENDSEC;
DATA;
#5=PRODUCT('VH 16/5/3.5 SAK10-35','','VERBINDUNGSHUELSE',(#2)) ;
#2=PRODUCT_CONTEXT(' ',#1,'mechanical') ;
#1=APPLICATION_CONTEXT('automotive design') ;
#10=PRODUCT_DEFINITION('',' ',#6,#3) ;
#3=PRODUCT_DEFINITION_CONTEXT('part definition',#1,' ') ;
#11=PRODUCT_DEFINITION_SHAPE(' ',' ',#10) ;
#198=MECHANICAL_DESIGN_GEOMETRIC_PRESENTATION_REPRESENTATION(' ',(#29),#16) ;
#19=SHAPE_REPRESENTATION(' ',(#18),#16) ;
#18=AXIS2_PLACEMENT_3D(' ',#17,$,$) ;
#35=AXIS2_PLACEMENT_3D('Cylinder Axis2P3D',#32,#33,#34) ;
#48=AXIS2_PLACEMENT_3D('Circle Axis2P3D',#46,#47,$) ;
#62=AXIS2_PLACEMENT_3D('Circle Axis2P3D',#60,#61,$) ;
#75=AXIS2_PLACEMENT_3D('Cylinder Axis2P3D',#72,#73,#74) ;
#109=AXIS2_PLACEMENT_3D('Plane Axis2P3D',#106,#107,#108) ;
#117=AXIS2_PLACEMENT_3D('Circle Axis2P3D',#115,#116,$) ;
#126=AXIS2_PLACEMENT_3D('Circle Axis2P3D',#124,#125,$) ;
#137=AXIS2_PLACEMENT_3D('Plane Axis2P3D',#134,#135,#136) ;
#145=AXIS2_PLACEMENT_3D('Circle Axis2P3D',#143,#144,$) ;
#154=AXIS2_PLACEMENT_3D('Circle Axis2P3D',#152,#153,$) ;
#165=AXIS2_PLACEMENT_3D('Cylinder Axis2P3D',#162,#163,#164) ;
#187=AXIS2_PLACEMENT_3D('Cylinder Axis2P3D',#184,#185,#186) ;
#17=CARTESIAN_POINT(' ',(0.,0.,0.)) ;
#32=CARTESIAN_POINT('Axis2P3D Location',(2.5,2.5,8.05)) ;
#37=CARTESIAN_POINT('Line Origine',(0.306043595274,1.30143615349,8.05000000075)) ;
#41=CARTESIAN_POINT('Vertex',(0.306043595273,1.30143615349,-7.45059052116E-010)) ;
#43=CARTESIAN_POINT('Vertex',(0.306043595274,1.30143615349,16.1000000007)) ;
#46=CARTESIAN_POINT('Axis2P3D Location',(2.5,2.5,16.1000000007)) ;
#50=CARTESIAN_POINT('Vertex',(4.69395640473,3.69856384651,16.1000000007)) ;
#53=CARTESIAN_POINT('Line Origine',(4.69395640473,3.69856384651,8.05000000075)) ;
#57=CARTESIAN_POINT('Vertex',(4.69395640473,3.69856384651,-7.45059198897E-010)) ;
#60=CARTESIAN_POINT('Axis2P3D Location',(2.5,2.5,-7.45059125506E-010)) ;
#72=CARTESIAN_POINT('Axis2P3D Location',(2.5,2.5,8.05)) ;
#78=CARTESIAN_POINT('Control Point',(0.306043595274,1.30143615349,16.1)) ;
#79=CARTESIAN_POINT('Control Point',(0.68258353278,0.612184421151,16.1000000001)) ;
#80=CARTESIAN_POINT('Control Point',(1.32979199263,0.0707995764945,16.1000000001)) ;
#81=CARTESIAN_POINT('Control Point',(2.17219349415,-0.176367757388,16.1000000002)) ;
#82=CARTESIAN_POINT('Control Point',(3.84643073419,0.0353750729251,16.1000000004)) ;
#83=CARTESIAN_POINT('Control Point',(4.9292004235,1.32979199263,16.1000000005)) ;
#84=CARTESIAN_POINT('Control Point',(5.17636775739,2.17219349415,16.1000000006)) ;
#85=CARTESIAN_POINT('Control Point',(5.07049634223,3.00931211417,16.1000000007)) ;
#86=CARTESIAN_POINT('Control Point',(4.69395640473,3.69856384651,16.1000000007)) ;
#89=CARTESIAN_POINT('Control Point',(0.306043595274,1.30143615349,1.84974770833E-015)) ;
#90=CARTESIAN_POINT('Control Point',(0.68258353278,0.612184421151,-7.45040205984E-011)) ;
#91=CARTESIAN_POINT('Control Point',(1.32979199263,0.0707995764945,-1.49009899999E-010)) ;
#92=CARTESIAN_POINT('Control Point',(2.17219349415,-0.176367757388,-2.23516685593E-010)) ;
#93=CARTESIAN_POINT('Control Point',(3.84643073419,0.0353750729251,-3.7252852366E-010)) ;
#94=CARTESIAN_POINT('Control Point',(4.9292004235,1.32979199263,-5.21540428022E-010)) ;
#95=CARTESIAN_POINT('Control Point',(5.17636775739,2.17219349415,-5.96047280333E-010)) ;
#96=CARTESIAN_POINT('Control Point',(5.07049634223,3.00931211417,-6.70553244142E-010)) ;
#97=CARTESIAN_POINT('Control Point',(4.69395640473,3.69856384651,-7.45059198897E-010)) ;
#106=CARTESIAN_POINT('Axis2P3D Location',(5.,2.5,16.1)) ;
#115=CARTESIAN_POINT('Axis2P3D Location',(2.5,2.5,16.1)) ;
#119=CARTESIAN_POINT('Vertex',(4.03576948307,3.33899469301,16.1)) ;
#121=CARTESIAN_POINT('Vertex',(0.964230516692,1.66100530744,16.1000000007)) ;
#124=CARTESIAN_POINT('Axis2P3D Location',(2.5,2.5,16.1)) ;
#134=CARTESIAN_POINT('Axis2P3D Location',(4.25,2.5,0.)) ;
#143=CARTESIAN_POINT('Axis2P3D Location',(2.5,2.5,0.)) ;
#147=CARTESIAN_POINT('Vertex',(0.964230516925,1.66100530699,5.13736082649E-017)) ;
#149=CARTESIAN_POINT('Vertex',(4.03576948331,3.33899469256,-7.4505917688E-010)) ;
#152=CARTESIAN_POINT('Axis2P3D Location',(2.5,2.5,0.)) ;
#162=CARTESIAN_POINT('Axis2P3D Location',(2.5,2.5,8.05)) ;
#167=CARTESIAN_POINT('Line Origine',(0.964230516692,1.66100530744,8.05000000075)) ;
#172=CARTESIAN_POINT('Line Origine',(4.03576948331,3.33899469256,8.05000000075)) ;
#184=CARTESIAN_POINT('Axis2P3D Location',(2.5,2.5,8.05)) ;
#33=DIRECTION('Axis2P3D Direction',(3.53385033636E-029,6.12323399574E-017,1.)) ;
#34=DIRECTION('Axis2P3D XDirection',(0.87758256189,0.479425538604,-2.93563475641E-017)) ;
#38=DIRECTION('Vector Direction',(0.,6.12323525218E-017,1.)) ;
#47=DIRECTION('Axis2P3D Direction',(3.53385033636E-029,6.12323399574E-017,1.)) ;
#54=DIRECTION('Vector Direction',(0.,6.12323525218E-017,1.)) ;
#61=DIRECTION('Axis2P3D Direction',(3.53385033636E-029,6.12323399574E-017,1.)) ;
#73=DIRECTION('Axis2P3D Direction',(3.53385033636E-029,6.12323399574E-017,1.)) ;
#74=DIRECTION('Axis2P3D XDirection',(-0.87758256189,-0.479425538604,2.93563475641E-017)) ;
#107=DIRECTION('Axis2P3D Direction',(-0.,6.12323399574E-017,1.)) ;
#108=DIRECTION('Axis2P3D XDirection',(1.,0.,0.)) ;
#116=DIRECTION('Axis2P3D Direction',(-0.,6.12323399574E-017,1.)) ;
#125=DIRECTION('Axis2P3D Direction',(-0.,6.12323399574E-017,1.)) ;
#135=DIRECTION('Axis2P3D Direction',(-0.,6.12323399574E-017,1.)) ;
#136=DIRECTION('Axis2P3D XDirection',(1.,0.,0.)) ;
#144=DIRECTION('Axis2P3D Direction',(-0.,6.12323399574E-017,1.)) ;
#153=DIRECTION('Axis2P3D Direction',(-0.,6.12323399574E-017,1.)) ;
#163=DIRECTION('Axis2P3D Direction',(3.53385033636E-029,6.12323399574E-017,1.)) ;
#164=DIRECTION('Axis2P3D XDirection',(0.87758256189,0.479425538604,-2.93563475641E-017)) ;
#168=DIRECTION('Vector Direction',(0.,6.12323525218E-017,1.)) ;
#173=DIRECTION('Vector Direction',(0.,6.12323525218E-017,1.)) ;
#185=DIRECTION('Axis2P3D Direction',(3.53385033636E-029,6.12323399574E-017,1.)) ;
#186=DIRECTION('Axis2P3D XDirection',(-0.87758256189,-0.479425538604,2.93563475641E-017)) ;
#30=PRESENTATION_LAYER_ASSIGNMENT('1',' ',(#21)) ;
#8=PRODUCT_RELATED_PRODUCT_CATEGORY('part',$,(#5)) ;
#7=PRODUCT_CATEGORY('part','specification') ;
#29=STYLED_ITEM(' ',(#28),#21) ;
#28=PRESENTATION_STYLE_ASSIGNMENT((#27)) ;
#27=SURFACE_STYLE_USAGE(.BOTH.,#26) ;
#26=SURFACE_SIDE_STYLE(' ',(#25)) ;
#25=SURFACE_STYLE_FILL_AREA(#24) ;
#24=FILL_AREA_STYLE(' ',(#23)) ;
#23=FILL_AREA_STYLE_COLOUR(' ',#22) ;
#39=VECTOR('Line Direction',#38,1.) ;
#55=VECTOR('Line Direction',#54,1.) ;
#169=VECTOR('Line Direction',#168,1.) ;
#174=VECTOR('Line Direction',#173,1.) ;
#15=UNCERTAINTY_MEASURE_WITH_UNIT(LENGTH_MEASURE(0.005),#12,'distance_accuracy_value','CONFUSED CURVE UNCERTAINTY') ;
#197=SHAPE_REPRESENTATION_RELATIONSHIP(' ',' ',#19,#196) ;
#66=ORIENTED_EDGE('',*,*,#45,.T.) ;
#67=ORIENTED_EDGE('',*,*,#52,.F.) ;
#68=ORIENTED_EDGE('',*,*,#59,.F.) ;
#69=ORIENTED_EDGE('',*,*,#64,.T.) ;
#100=ORIENTED_EDGE('',*,*,#59,.T.) ;
#101=ORIENTED_EDGE('',*,*,#87,.F.) ;
#102=ORIENTED_EDGE('',*,*,#45,.F.) ;
#103=ORIENTED_EDGE('',*,*,#98,.T.) ;
#112=ORIENTED_EDGE('',*,*,#87,.T.) ;
#113=ORIENTED_EDGE('',*,*,#52,.T.) ;
#130=ORIENTED_EDGE('',*,*,#123,.F.) ;
#131=ORIENTED_EDGE('',*,*,#128,.F.) ;
#140=ORIENTED_EDGE('',*,*,#64,.F.) ;
#141=ORIENTED_EDGE('',*,*,#98,.F.) ;
#158=ORIENTED_EDGE('',*,*,#151,.T.) ;
#159=ORIENTED_EDGE('',*,*,#156,.T.) ;
#178=ORIENTED_EDGE('',*,*,#171,.T.) ;
#179=ORIENTED_EDGE('',*,*,#156,.F.) ;
#180=ORIENTED_EDGE('',*,*,#176,.F.) ;
#181=ORIENTED_EDGE('',*,*,#123,.T.) ;
#190=ORIENTED_EDGE('',*,*,#176,.T.) ;
#191=ORIENTED_EDGE('',*,*,#151,.F.) ;
#192=ORIENTED_EDGE('',*,*,#171,.F.) ;
#193=ORIENTED_EDGE('',*,*,#128,.T.) ;
#132=FACE_BOUND('',#129,.T.) ;
#160=FACE_BOUND('',#157,.T.) ;
#31=CLOSED_SHELL('Closed Shell',(#71,#105,#133,#161,#183,#195)) ;
#196=ADVANCED_BREP_SHAPE_REPRESENTATION('NONE',(#21),#16) ;
#71=ADVANCED_FACE('K\X2\00F6\X0\rper.3',(#70),#36,.T.) ;
#105=ADVANCED_FACE('K\X2\00F6\X0\rper.3',(#104),#76,.T.) ;
#133=ADVANCED_FACE('K\X2\00F6\X0\rper.3',(#114,#132),#110,.T.) ;
#161=ADVANCED_FACE('K\X2\00F6\X0\rper.3',(#142,#160),#138,.F.) ;
#183=ADVANCED_FACE('K\X2\00F6\X0\rper.3',(#182),#166,.F.) ;
#195=ADVANCED_FACE('K\X2\00F6\X0\rper.3',(#194),#188,.F.) ;
#4=APPLICATION_PROTOCOL_DEFINITION('international standard','automotive_design',2001,#1) ;
#77=B_SPLINE_CURVE_WITH_KNOTS('',5,(#78,#79,#80,#81,#82,#83,#84,#85,#86),.UNSPECIFIED.,.F.,.U.,(6,3,6),(-3.92699081699,0.,3.92699081699),.UNSPECIFIED.) ;
#88=B_SPLINE_CURVE_WITH_KNOTS('',5,(#89,#90,#91,#92,#93,#94,#95,#96,#97),.UNSPECIFIED.,.F.,.U.,(6,3,6),(-3.92699081699,0.,3.92699081699),.UNSPECIFIED.) ;
#21=MANIFOLD_SOLID_BREP('K\X2\00F6\X0\rper.3',#31) ;
#49=CIRCLE('generated circle',#48,2.5) ;
#63=CIRCLE('generated circle',#62,2.5) ;
#118=CIRCLE('generated circle',#117,1.75000000001) ;
#127=CIRCLE('generated circle',#126,1.75000000001) ;
#146=CIRCLE('generated circle',#145,1.75000000001) ;
#155=CIRCLE('generated circle',#154,1.75000000001) ;
#22=COLOUR_RGB('Colour',0.823529411765,0.823529411765,1.) ;
#36=CYLINDRICAL_SURFACE('generated cylinder',#35,2.5) ;
#76=CYLINDRICAL_SURFACE('generated cylinder',#75,2.5) ;
#166=CYLINDRICAL_SURFACE('generated cylinder',#165,1.75) ;
#188=CYLINDRICAL_SURFACE('generated cylinder',#187,1.75) ;
#45=EDGE_CURVE('',#42,#44,#40,.T.) ;
#52=EDGE_CURVE('',#51,#44,#49,.T.) ;
#59=EDGE_CURVE('',#58,#51,#56,.T.) ;
#64=EDGE_CURVE('',#58,#42,#63,.T.) ;
#87=EDGE_CURVE('',#44,#51,#77,.T.) ;
#98=EDGE_CURVE('',#42,#58,#88,.T.) ;
#123=EDGE_CURVE('',#120,#122,#118,.T.) ;
#128=EDGE_CURVE('',#122,#120,#127,.T.) ;
#151=EDGE_CURVE('',#148,#150,#146,.T.) ;
#156=EDGE_CURVE('',#150,#148,#155,.T.) ;
#171=EDGE_CURVE('',#122,#148,#170,.F.) ;
#176=EDGE_CURVE('',#120,#150,#175,.F.) ;
#65=EDGE_LOOP('',(#66,#67,#68,#69)) ;
#99=EDGE_LOOP('',(#100,#101,#102,#103)) ;
#111=EDGE_LOOP('',(#112,#113)) ;
#129=EDGE_LOOP('',(#130,#131)) ;
#139=EDGE_LOOP('',(#140,#141)) ;
#157=EDGE_LOOP('',(#158,#159)) ;
#177=EDGE_LOOP('',(#178,#179,#180,#181)) ;
#189=EDGE_LOOP('',(#190,#191,#192,#193)) ;
#70=FACE_OUTER_BOUND('',#65,.T.) ;
#104=FACE_OUTER_BOUND('',#99,.T.) ;
#114=FACE_OUTER_BOUND('',#111,.T.) ;
#142=FACE_OUTER_BOUND('',#139,.T.) ;
#182=FACE_OUTER_BOUND('',#177,.T.) ;
#194=FACE_OUTER_BOUND('',#189,.T.) ;
#40=LINE('Line',#37,#39) ;
#56=LINE('Line',#53,#55) ;
#170=LINE('Line',#167,#169) ;
#175=LINE('Line',#172,#174) ;
#110=PLANE('',#109) ;
#138=PLANE('',#137) ;
#9=PRODUCT_CATEGORY_RELATIONSHIP(' ',' ',#7,#8) ;
#6=PRODUCT_DEFINITION_FORMATION_WITH_SPECIFIED_SOURCE('',' ',#5,.NOT_KNOWN.) ;
#20=SHAPE_DEFINITION_REPRESENTATION(#11,#19) ;
#42=VERTEX_POINT('',#41) ;
#44=VERTEX_POINT('',#43) ;
#51=VERTEX_POINT('',#50) ;
#58=VERTEX_POINT('',#57) ;
#120=VERTEX_POINT('',#119) ;
#122=VERTEX_POINT('',#121) ;
#148=VERTEX_POINT('',#147) ;
#150=VERTEX_POINT('',#149) ;
#12=(LENGTH_UNIT()NAMED_UNIT(*)SI_UNIT(.MILLI.,.METRE.)) ;
#13=(NAMED_UNIT(*)PLANE_ANGLE_UNIT()SI_UNIT($,.RADIAN.)) ;
#14=(NAMED_UNIT(*)SI_UNIT($,.STERADIAN.)SOLID_ANGLE_UNIT()) ;
#16=(GEOMETRIC_REPRESENTATION_CONTEXT(3)GLOBAL_UNCERTAINTY_ASSIGNED_CONTEXT((#15))GLOBAL_UNIT_ASSIGNED_CONTEXT((#12,#13,#14))REPRESENTATION_CONTEXT(' ',' ')) ;
ENDSEC;
END-ISO-10303-21;
