ISO-10303-21;
HEADER;
FILE_DESCRIPTION(('CATIA V5 STEP Exchange','CAx-IF Rec.Pracs.--- Model Styling and Organization---1.5--- 2016-08-15','CAx-IF Rec.Pracs.---Supplemental Geometry---1.0---2011-11-01','CAx-IF Rec.Pracs.--- Composite Materials ---1.1---2010-07-15'),'2;1');

FILE_NAME ('706719-1_3_2652340000_2652340000.stp','2024-06-13T07:58:19+00:00',('none'),('Weidmueller'),'CATIA Version 5-6 Release 2022 SP4 HF5','CATIA V5 STEP AP214 v3','none');

FILE_SCHEMA(('AUTOMOTIVE_DESIGN { 1 0 10303 214 1 1 1 1 }'));

ENDSEC;
DATA;
#5=PRODUCT('CABTITE BP 6MM PA','CABTITE BP 6MM PA',' ',(#2)) ;
#2=PRODUCT_CONTEXT(' ',#1,'mechanical') ;
#1=APPLICATION_CONTEXT('automotive design') ;
#10=PRODUCT_DEFINITION(' ',' ',#6,#3) ;
#3=PRODUCT_DEFINITION_CONTEXT('part definition',#1,' ') ;
#11=PRODUCT_DEFINITION_SHAPE(' ',' ',#10) ;
#351=MECHANICAL_DESIGN_GEOMETRIC_PRESENTATION_REPRESENTATION(' ',(#87,#113,#178,#210,#228,#240,#247,#279,#292,#324,#337,#348,#29),#16) ;
#19=SHAPE_REPRESENTATION(' ',(#18),#16) ;
#18=AXIS2_PLACEMENT_3D(' ',#17,$,$) ;
#35=AXIS2_PLACEMENT_3D('Cylinder Axis2P3D',#32,#33,#34) ;
#48=AXIS2_PLACEMENT_3D('Circle Axis2P3D',#46,#47,$) ;
#62=AXIS2_PLACEMENT_3D('Circle Axis2P3D',#60,#61,$) ;
#69=AXIS2_PLACEMENT_3D('Circle Axis2P3D',#67,#68,$) ;
#90=AXIS2_PLACEMENT_3D('Circle Axis2P3D',#88,#89,$) ;
#95=AXIS2_PLACEMENT_3D('Circle Axis2P3D',#93,#94,$) ;
#102=AXIS2_PLACEMENT_3D('Circle Axis2P3D',#100,#101,$) ;
#117=AXIS2_PLACEMENT_3D('Plane Axis2P3D',#114,#115,#116) ;
#182=AXIS2_PLACEMENT_3D('Sphere Axis2P3D',#179,#180,#181) ;
#186=AXIS2_PLACEMENT_3D('Circle Axis2P3D',#184,#185,$) ;
#193=AXIS2_PLACEMENT_3D('Circle Axis2P3D',#191,#192,$) ;
#200=AXIS2_PLACEMENT_3D('Circle Axis2P3D',#198,#199,$) ;
#214=AXIS2_PLACEMENT_3D('Sphere Axis2P3D',#211,#212,#213) ;
#218=AXIS2_PLACEMENT_3D('Circle Axis2P3D',#216,#217,$) ;
#231=AXIS2_PLACEMENT_3D('Circle Axis2P3D',#229,#230,$) ;
#251=AXIS2_PLACEMENT_3D('Cylinder Axis2P3D',#248,#249,#250) ;
#262=AXIS2_PLACEMENT_3D('Circle Axis2P3D',#260,#261,$) ;
#282=AXIS2_PLACEMENT_3D('Circle Axis2P3D',#280,#281,$) ;
#296=AXIS2_PLACEMENT_3D('Cone Axis2P3D',#293,#294,#295) ;
#314=AXIS2_PLACEMENT_3D('Circle Axis2P3D',#312,#313,$) ;
#327=AXIS2_PLACEMENT_3D('Circle Axis2P3D',#325,#326,$) ;
#341=AXIS2_PLACEMENT_3D('Plane Axis2P3D',#338,#339,#340) ;
#17=CARTESIAN_POINT(' ',(0.,0.,0.)) ;
#32=CARTESIAN_POINT('Axis2P3D Location',(3.9,3.9,16.5)) ;
#37=CARTESIAN_POINT('Line Origine',(7.8,3.9,16.5)) ;
#41=CARTESIAN_POINT('Vertex',(7.8,3.9,17.)) ;
#43=CARTESIAN_POINT('Vertex',(7.8,3.9,16.5)) ;
#46=CARTESIAN_POINT('Axis2P3D Location',(3.9,3.9,16.5)) ;
#50=CARTESIAN_POINT('Vertex',(-8.881784197E-16,3.9,16.5)) ;
#53=CARTESIAN_POINT('Line Origine',(-8.881784197E-16,3.9,16.5)) ;
#57=CARTESIAN_POINT('Vertex',(-8.881784197E-16,3.9,17.)) ;
#60=CARTESIAN_POINT('Axis2P3D Location',(3.9,3.9,17.)) ;
#64=CARTESIAN_POINT('Vertex',(3.90000000001,7.8,17.)) ;
#67=CARTESIAN_POINT('Axis2P3D Location',(3.9,3.9,17.)) ;
#88=CARTESIAN_POINT('Axis2P3D Location',(3.9,3.9,16.5)) ;
#93=CARTESIAN_POINT('Axis2P3D Location',(3.9,3.9,17.)) ;
#97=CARTESIAN_POINT('Vertex',(3.9,0.,17.)) ;
#100=CARTESIAN_POINT('Axis2P3D Location',(3.9,3.9,17.)) ;
#114=CARTESIAN_POINT('Axis2P3D Location',(3.9,-2.6645352591E-15,16.5)) ;
#124=CARTESIAN_POINT('Control Point',(6.9,3.90000000037,16.5)) ;
#125=CARTESIAN_POINT('Control Point',(6.9,3.56062939899,16.5)) ;
#126=CARTESIAN_POINT('Control Point',(6.85201149353,3.22125978481,16.5)) ;
#127=CARTESIAN_POINT('Control Point',(6.75596499069,2.8907791085,16.5)) ;
#128=CARTESIAN_POINT('Control Point',(6.47319529605,2.26632319742,16.5)) ;
#129=CARTESIAN_POINT('Control Point',(6.02837485519,1.74475509017,16.5)) ;
#130=CARTESIAN_POINT('Control Point',(5.77015707108,1.5172336737,16.5)) ;
#131=CARTESIAN_POINT('Control Point',(5.19673613321,1.1416111,16.5)) ;
#132=CARTESIAN_POINT('Control Point',(4.54165381453,0.939706005719,16.5)) ;
#133=CARTESIAN_POINT('Control Point',(4.2017112111,0.886027011817,16.5)) ;
#134=CARTESIAN_POINT('Control Point',(3.51628540704,0.876261083903,16.5)) ;
#135=CARTESIAN_POINT('Control Point',(2.85502877898,1.0569215126,16.5)) ;
#136=CARTESIAN_POINT('Control Point',(2.53926874903,1.1938083409,16.5)) ;
#137=CARTESIAN_POINT('Control Point',(1.95537901102,1.55294159523,16.5)) ;
#138=CARTESIAN_POINT('Control Point',(1.49395923004,2.05988371206,16.5)) ;
#139=CARTESIAN_POINT('Control Point',(1.30075520873,2.34468995553,16.5)) ;
#140=CARTESIAN_POINT('Control Point',(1.0673439864,2.82336354662,16.5)) ;
#141=CARTESIAN_POINT('Control Point',(0.944150049399,3.33773228031,16.5)) ;
#142=CARTESIAN_POINT('Control Point',(0.914716001355,3.52413639669,16.5)) ;
#143=CARTESIAN_POINT('Control Point',(0.9,3.71206809072,16.5)) ;
#144=CARTESIAN_POINT('Control Point',(0.9,3.90000000037,16.5)) ;
#145=CARTESIAN_POINT('Vertex',(6.9,3.9,16.5)) ;
#147=CARTESIAN_POINT('Vertex',(0.9,3.90000000037,16.5)) ;
#151=CARTESIAN_POINT('Control Point',(0.9,3.90000000037,16.5)) ;
#152=CARTESIAN_POINT('Control Point',(0.9,4.23937060133,16.5)) ;
#153=CARTESIAN_POINT('Control Point',(0.947988506345,4.57874021507,16.5)) ;
#154=CARTESIAN_POINT('Control Point',(1.04403500988,4.90922089295,16.5)) ;
#155=CARTESIAN_POINT('Control Point',(1.32680470479,5.5336768049,16.5)) ;
#156=CARTESIAN_POINT('Control Point',(1.77162514642,6.05524491281,16.5)) ;
#157=CARTESIAN_POINT('Control Point',(2.02984293006,6.28276632603,16.5)) ;
#158=CARTESIAN_POINT('Control Point',(2.60326386864,6.65838889997,16.5)) ;
#159=CARTESIAN_POINT('Control Point',(3.25834618807,6.86029399408,16.5)) ;
#160=CARTESIAN_POINT('Control Point',(3.59828879595,6.91397298999,16.5)) ;
#161=CARTESIAN_POINT('Control Point',(4.28371459405,6.92373891659,16.5)) ;
#162=CARTESIAN_POINT('Control Point',(4.94497121626,6.74307848987,16.5)) ;
#163=CARTESIAN_POINT('Control Point',(5.26073125995,6.60619165438,16.5)) ;
#164=CARTESIAN_POINT('Control Point',(5.84462098772,6.2470584046,16.5)) ;
#165=CARTESIAN_POINT('Control Point',(6.30604076231,5.74011629698,16.5)) ;
#166=CARTESIAN_POINT('Control Point',(6.49924479512,5.45531004021,16.5)) ;
#167=CARTESIAN_POINT('Control Point',(6.73265601224,4.97663645915,16.5)) ;
#168=CARTESIAN_POINT('Control Point',(6.85584994869,4.46226773678,16.5)) ;
#169=CARTESIAN_POINT('Control Point',(6.8852839995,4.27586359321,16.5)) ;
#170=CARTESIAN_POINT('Control Point',(6.9,4.08793190461,16.5)) ;
#171=CARTESIAN_POINT('Control Point',(6.9,3.90000000037,16.5)) ;
#179=CARTESIAN_POINT('Axis2P3D Location',(3.9,3.9,2.04)) ;
#184=CARTESIAN_POINT('Axis2P3D Location',(3.9,3.9,2.04)) ;
#188=CARTESIAN_POINT('Vertex',(3.9,3.9,17.5)) ;
#191=CARTESIAN_POINT('Axis2P3D Location',(3.9,3.9,2.04)) ;
#195=CARTESIAN_POINT('Vertex',(3.9,4.09409381246,17.4987815688)) ;
#198=CARTESIAN_POINT('Axis2P3D Location',(3.9,3.9,2.04)) ;
#211=CARTESIAN_POINT('Axis2P3D Location',(3.9,3.9,2.04)) ;
#216=CARTESIAN_POINT('Axis2P3D Location',(3.9,3.9,2.04)) ;
#229=CARTESIAN_POINT('Axis2P3D Location',(3.9,3.9,2.04)) ;
#248=CARTESIAN_POINT('Axis2P3D Location',(3.9,3.9,16.5)) ;
#253=CARTESIAN_POINT('Line Origine',(0.9,3.9,16.5)) ;
#257=CARTESIAN_POINT('Vertex',(0.9,3.9,2.)) ;
#260=CARTESIAN_POINT('Axis2P3D Location',(3.9,3.9,2.)) ;
#264=CARTESIAN_POINT('Vertex',(6.9,3.9,2.)) ;
#267=CARTESIAN_POINT('Line Origine',(6.9,3.9,16.5)) ;
#280=CARTESIAN_POINT('Axis2P3D Location',(3.9,3.9,2.)) ;
#293=CARTESIAN_POINT('Axis2P3D Location',(3.9,3.9,0.)) ;
#298=CARTESIAN_POINT('Line Origine',(980585.874583,3.89999999976,4902896.87868)) ;
#302=CARTESIAN_POINT('Vertex',(6.5,3.9,0.)) ;
#305=CARTESIAN_POINT('Line Origine',(-980578.074583,3.90000000012,4902896.87868)) ;
#309=CARTESIAN_POINT('Vertex',(1.30000000004,3.9,-1.84696509413E-10)) ;
#312=CARTESIAN_POINT('Axis2P3D Location',(3.9,3.9,0.)) ;
#325=CARTESIAN_POINT('Axis2P3D Location',(3.9,3.9,0.)) ;
#338=CARTESIAN_POINT('Axis2P3D Location',(3.9,0.9,0.)) ;
#33=DIRECTION('Axis2P3D Direction',(0.,0.,-1.)) ;
#34=DIRECTION('Axis2P3D XDirection',(-1.,-4.55476112667E-16,0.)) ;
#38=DIRECTION('Vector Direction',(0.,0.,-1.)) ;
#47=DIRECTION('Axis2P3D Direction',(0.,0.,-1.)) ;
#54=DIRECTION('Vector Direction',(0.,0.,-1.)) ;
#61=DIRECTION('Axis2P3D Direction',(0.,0.,-1.)) ;
#68=DIRECTION('Axis2P3D Direction',(0.,0.,-1.)) ;
#89=DIRECTION('Axis2P3D Direction',(0.,0.,-1.)) ;
#94=DIRECTION('Axis2P3D Direction',(0.,0.,-1.)) ;
#101=DIRECTION('Axis2P3D Direction',(0.,0.,-1.)) ;
#115=DIRECTION('Axis2P3D Direction',(0.,0.,1.)) ;
#116=DIRECTION('Axis2P3D XDirection',(1.,0.,0.)) ;
#180=DIRECTION('Axis2P3D Direction',(-0.,0.,-1.)) ;
#181=DIRECTION('Axis2P3D XDirection',(-1.,-4.02150642814E-16,0.)) ;
#185=DIRECTION('Axis2P3D Direction',(4.02150642814E-16,-1.,0.)) ;
#192=DIRECTION('Axis2P3D Direction',(-1.,-4.63382982771E-16,-0.)) ;
#199=DIRECTION('Axis2P3D Direction',(-1.,-4.63382982771E-16,-0.)) ;
#212=DIRECTION('Axis2P3D Direction',(0.,0.,-1.)) ;
#213=DIRECTION('Axis2P3D XDirection',(1.,2.87250459153E-16,0.)) ;
#217=DIRECTION('Axis2P3D Direction',(-2.87250459153E-16,1.,0.)) ;
#230=DIRECTION('Axis2P3D Direction',(1.,3.4848279911E-16,0.)) ;
#249=DIRECTION('Axis2P3D Direction',(0.,0.,-1.)) ;
#250=DIRECTION('Axis2P3D XDirection',(-1.,-2.64687485605E-28,-0.)) ;
#254=DIRECTION('Vector Direction',(0.,0.,-1.)) ;
#261=DIRECTION('Axis2P3D Direction',(0.,0.,-1.)) ;
#268=DIRECTION('Vector Direction',(0.,0.,-1.)) ;
#281=DIRECTION('Axis2P3D Direction',(0.,0.,-1.)) ;
#294=DIRECTION('Axis2P3D Direction',(0.,0.,1.)) ;
#295=DIRECTION('Axis2P3D XDirection',(1.,0.,0.)) ;
#299=DIRECTION('Vector Direction',(0.196116134917,-4.80345792483E-17,0.980580675735)) ;
#306=DIRECTION('Vector Direction',(-0.196116134917,2.40172896241E-17,0.980580675735)) ;
#313=DIRECTION('Axis2P3D Direction',(0.,0.,1.)) ;
#326=DIRECTION('Axis2P3D Direction',(0.,0.,1.)) ;
#339=DIRECTION('Axis2P3D Direction',(0.,0.,1.)) ;
#340=DIRECTION('Axis2P3D XDirection',(1.,0.,0.)) ;
#30=PRESENTATION_LAYER_ASSIGNMENT('1',' ',(#21)) ;
#8=PRODUCT_RELATED_PRODUCT_CATEGORY('part',$,(#5)) ;
#7=PRODUCT_CATEGORY('part','specification') ;
#29=STYLED_ITEM(' ',(#28),#21) ;
#28=PRESENTATION_STYLE_ASSIGNMENT((#27)) ;
#86=PRESENTATION_STYLE_ASSIGNMENT((#85)) ;
#27=SURFACE_STYLE_USAGE(.BOTH.,#26) ;
#85=SURFACE_STYLE_USAGE(.BOTH.,#84) ;
#26=SURFACE_SIDE_STYLE(' ',(#25)) ;
#84=SURFACE_SIDE_STYLE(' ',(#83)) ;
#25=SURFACE_STYLE_FILL_AREA(#24) ;
#83=SURFACE_STYLE_FILL_AREA(#82) ;
#24=FILL_AREA_STYLE(' ',(#23)) ;
#82=FILL_AREA_STYLE(' ',(#81)) ;
#23=FILL_AREA_STYLE_COLOUR(' ',#22) ;
#81=FILL_AREA_STYLE_COLOUR(' ',#80) ;
#39=VECTOR('Line Direction',#38,1.) ;
#55=VECTOR('Line Direction',#54,1.) ;
#255=VECTOR('Line Direction',#254,1.) ;
#269=VECTOR('Line Direction',#268,1.) ;
#300=VECTOR('Line Direction',#299,1.) ;
#307=VECTOR('Line Direction',#306,1.) ;
#15=UNCERTAINTY_MEASURE_WITH_UNIT(LENGTH_MEASURE(0.005),#12,'distance_accuracy_value','CONFUSED CURVE UNCERTAINTY') ;
#350=SHAPE_REPRESENTATION_RELATIONSHIP(' ',' ',#19,#349) ;
#73=ORIENTED_EDGE('',*,*,#45,.T.) ;
#74=ORIENTED_EDGE('',*,*,#52,.F.) ;
#75=ORIENTED_EDGE('',*,*,#59,.T.) ;
#76=ORIENTED_EDGE('',*,*,#66,.T.) ;
#77=ORIENTED_EDGE('',*,*,#71,.T.) ;
#106=ORIENTED_EDGE('',*,*,#59,.F.) ;
#107=ORIENTED_EDGE('',*,*,#92,.F.) ;
#108=ORIENTED_EDGE('',*,*,#45,.F.) ;
#109=ORIENTED_EDGE('',*,*,#99,.T.) ;
#110=ORIENTED_EDGE('',*,*,#104,.T.) ;
#120=ORIENTED_EDGE('',*,*,#52,.T.) ;
#121=ORIENTED_EDGE('',*,*,#92,.T.) ;
#174=ORIENTED_EDGE('',*,*,#149,.F.) ;
#175=ORIENTED_EDGE('',*,*,#172,.F.) ;
#204=ORIENTED_EDGE('',*,*,#190,.F.) ;
#205=ORIENTED_EDGE('',*,*,#197,.T.) ;
#206=ORIENTED_EDGE('',*,*,#202,.T.) ;
#207=ORIENTED_EDGE('',*,*,#66,.F.) ;
#222=ORIENTED_EDGE('',*,*,#220,.T.) ;
#223=ORIENTED_EDGE('',*,*,#71,.F.) ;
#224=ORIENTED_EDGE('',*,*,#202,.F.) ;
#225=ORIENTED_EDGE('',*,*,#197,.F.) ;
#235=ORIENTED_EDGE('',*,*,#220,.F.) ;
#236=ORIENTED_EDGE('',*,*,#233,.T.) ;
#237=ORIENTED_EDGE('',*,*,#99,.F.) ;
#242=ORIENTED_EDGE('',*,*,#190,.T.) ;
#243=ORIENTED_EDGE('',*,*,#104,.F.) ;
#244=ORIENTED_EDGE('',*,*,#233,.F.) ;
#273=ORIENTED_EDGE('',*,*,#259,.F.) ;
#274=ORIENTED_EDGE('',*,*,#266,.T.) ;
#275=ORIENTED_EDGE('',*,*,#271,.F.) ;
#276=ORIENTED_EDGE('',*,*,#149,.T.) ;
#286=ORIENTED_EDGE('',*,*,#271,.T.) ;
#287=ORIENTED_EDGE('',*,*,#284,.T.) ;
#288=ORIENTED_EDGE('',*,*,#259,.T.) ;
#289=ORIENTED_EDGE('',*,*,#172,.T.) ;
#318=ORIENTED_EDGE('',*,*,#304,.F.) ;
#319=ORIENTED_EDGE('',*,*,#266,.F.) ;
#320=ORIENTED_EDGE('',*,*,#311,.F.) ;
#321=ORIENTED_EDGE('',*,*,#316,.F.) ;
#331=ORIENTED_EDGE('',*,*,#311,.T.) ;
#332=ORIENTED_EDGE('',*,*,#284,.F.) ;
#333=ORIENTED_EDGE('',*,*,#304,.T.) ;
#334=ORIENTED_EDGE('',*,*,#329,.F.) ;
#344=ORIENTED_EDGE('',*,*,#316,.T.) ;
#345=ORIENTED_EDGE('',*,*,#329,.T.) ;
#176=FACE_BOUND('',#173,.T.) ;
#31=CLOSED_SHELL('Closed Shell',(#79,#112,#177,#209,#227,#239,#246,#278,#291,#323,#336,#347)) ;
#349=ADVANCED_BREP_SHAPE_REPRESENTATION('NONE',(#21),#16) ;
#79=ADVANCED_FACE('CABTITE BP 6MM PA',(#78),#36,.T.) ;
#112=ADVANCED_FACE('CABTITE BP 6MM PA',(#111),#36,.T.) ;
#177=ADVANCED_FACE('CABTITE BP 6MM PA',(#122,#176),#118,.F.) ;
#209=ADVANCED_FACE('CABTITE BP 6MM PA',(#208),#183,.T.) ;
#227=ADVANCED_FACE('CABTITE BP 6MM PA',(#226),#215,.T.) ;
#239=ADVANCED_FACE('CABTITE BP 6MM PA',(#238),#215,.T.) ;
#246=ADVANCED_FACE('CABTITE BP 6MM PA',(#245),#215,.T.) ;
#278=ADVANCED_FACE('CABTITE BP 6MM PA',(#277),#252,.T.) ;
#291=ADVANCED_FACE('CABTITE BP 6MM PA',(#290),#252,.T.) ;
#323=ADVANCED_FACE('CABTITE BP 6MM PA',(#322),#297,.T.) ;
#336=ADVANCED_FACE('CABTITE BP 6MM PA',(#335),#297,.T.) ;
#347=ADVANCED_FACE('CABTITE BP 6MM PA',(#346),#342,.F.) ;
#4=APPLICATION_PROTOCOL_DEFINITION('international standard','automotive_design',2001,#1) ;
#123=B_SPLINE_CURVE_WITH_KNOTS('',5,(#124,#125,#126,#127,#128,#129,#130,#131,#132,#133,#134,#135,#136,#137,#138,#139,#140,#141,#142,#143,#144),.UNSPECIFIED.,.F.,.U.,(6,3,3,3,3,3,6),(0.,2.40727047601,4.81454091831,7.22181139765,9.62908189803,12.0363524236,13.3694170314),.UNSPECIFIED.) ;
#150=B_SPLINE_CURVE_WITH_KNOTS('',5,(#151,#152,#153,#154,#155,#156,#157,#158,#159,#160,#161,#162,#163,#164,#165,#166,#167,#168,#169,#170,#171),.UNSPECIFIED.,.F.,.U.,(6,3,3,3,3,3,6),(0.,2.40727047864,4.81454093634,7.22181141647,9.62908188567,12.0363523773,13.3694169498),.UNSPECIFIED.) ;
#21=MANIFOLD_SOLID_BREP('CABTITE BP 6MM PA',#31) ;
#49=CIRCLE('generated circle',#48,3.9) ;
#63=CIRCLE('generated circle',#62,3.9) ;
#70=CIRCLE('generated circle',#69,3.9) ;
#91=CIRCLE('generated circle',#90,3.9) ;
#96=CIRCLE('generated circle',#95,3.9) ;
#103=CIRCLE('generated circle',#102,3.9) ;
#187=CIRCLE('generated circle',#186,15.46) ;
#194=CIRCLE('generated circle',#193,15.46) ;
#201=CIRCLE('generated circle',#200,15.46) ;
#219=CIRCLE('generated circle',#218,15.46) ;
#232=CIRCLE('generated circle',#231,15.46) ;
#263=CIRCLE('generated circle',#262,3.) ;
#283=CIRCLE('generated circle',#282,3.) ;
#315=CIRCLE('generated circle',#314,2.6) ;
#328=CIRCLE('generated circle',#327,2.6) ;
#22=COLOUR_RGB('Colour',0.823529411765,0.823529411765,1.) ;
#80=COLOUR_RGB('Colour',0.964705882353,0.937254901961,0.894117647059) ;
#297=CONICAL_SURFACE('Cone',#296,2.6,0.197395559624) ;
#87=OVER_RIDING_STYLED_ITEM(' ',(#86),#79,#29) ;
#113=OVER_RIDING_STYLED_ITEM(' ',(#86),#112,#29) ;
#178=OVER_RIDING_STYLED_ITEM(' ',(#86),#177,#29) ;
#210=OVER_RIDING_STYLED_ITEM(' ',(#86),#209,#29) ;
#228=OVER_RIDING_STYLED_ITEM(' ',(#86),#227,#29) ;
#240=OVER_RIDING_STYLED_ITEM(' ',(#86),#239,#29) ;
#247=OVER_RIDING_STYLED_ITEM(' ',(#86),#246,#29) ;
#279=OVER_RIDING_STYLED_ITEM(' ',(#86),#278,#29) ;
#292=OVER_RIDING_STYLED_ITEM(' ',(#86),#291,#29) ;
#324=OVER_RIDING_STYLED_ITEM(' ',(#86),#323,#29) ;
#337=OVER_RIDING_STYLED_ITEM(' ',(#86),#336,#29) ;
#348=OVER_RIDING_STYLED_ITEM(' ',(#86),#347,#29) ;
#36=CYLINDRICAL_SURFACE('generated cylinder',#35,3.9) ;
#252=CYLINDRICAL_SURFACE('generated cylinder',#251,3.) ;
#45=EDGE_CURVE('',#42,#44,#40,.T.) ;
#52=EDGE_CURVE('',#51,#44,#49,.T.) ;
#59=EDGE_CURVE('',#51,#58,#56,.F.) ;
#66=EDGE_CURVE('',#58,#65,#63,.T.) ;
#71=EDGE_CURVE('',#65,#42,#70,.T.) ;
#92=EDGE_CURVE('',#44,#51,#91,.T.) ;
#99=EDGE_CURVE('',#42,#98,#96,.T.) ;
#104=EDGE_CURVE('',#98,#58,#103,.T.) ;
#149=EDGE_CURVE('',#146,#148,#123,.T.) ;
#172=EDGE_CURVE('',#148,#146,#150,.T.) ;
#190=EDGE_CURVE('',#189,#58,#187,.T.) ;
#197=EDGE_CURVE('',#189,#196,#194,.T.) ;
#202=EDGE_CURVE('',#196,#65,#201,.T.) ;
#220=EDGE_CURVE('',#189,#42,#219,.T.) ;
#233=EDGE_CURVE('',#189,#98,#232,.T.) ;
#259=EDGE_CURVE('',#258,#148,#256,.F.) ;
#266=EDGE_CURVE('',#258,#265,#263,.F.) ;
#271=EDGE_CURVE('',#146,#265,#270,.T.) ;
#284=EDGE_CURVE('',#265,#258,#283,.F.) ;
#304=EDGE_CURVE('',#265,#303,#301,.F.) ;
#311=EDGE_CURVE('',#310,#258,#308,.T.) ;
#316=EDGE_CURVE('',#303,#310,#315,.F.) ;
#329=EDGE_CURVE('',#310,#303,#328,.F.) ;
#72=EDGE_LOOP('',(#73,#74,#75,#76,#77)) ;
#105=EDGE_LOOP('',(#106,#107,#108,#109,#110)) ;
#119=EDGE_LOOP('',(#120,#121)) ;
#173=EDGE_LOOP('',(#174,#175)) ;
#203=EDGE_LOOP('',(#204,#205,#206,#207)) ;
#221=EDGE_LOOP('',(#222,#223,#224,#225)) ;
#234=EDGE_LOOP('',(#235,#236,#237)) ;
#241=EDGE_LOOP('',(#242,#243,#244)) ;
#272=EDGE_LOOP('',(#273,#274,#275,#276)) ;
#285=EDGE_LOOP('',(#286,#287,#288,#289)) ;
#317=EDGE_LOOP('',(#318,#319,#320,#321)) ;
#330=EDGE_LOOP('',(#331,#332,#333,#334)) ;
#343=EDGE_LOOP('',(#344,#345)) ;
#78=FACE_OUTER_BOUND('',#72,.T.) ;
#111=FACE_OUTER_BOUND('',#105,.T.) ;
#122=FACE_OUTER_BOUND('',#119,.T.) ;
#208=FACE_OUTER_BOUND('',#203,.T.) ;
#226=FACE_OUTER_BOUND('',#221,.T.) ;
#238=FACE_OUTER_BOUND('',#234,.T.) ;
#245=FACE_OUTER_BOUND('',#241,.T.) ;
#277=FACE_OUTER_BOUND('',#272,.T.) ;
#290=FACE_OUTER_BOUND('',#285,.T.) ;
#322=FACE_OUTER_BOUND('',#317,.T.) ;
#335=FACE_OUTER_BOUND('',#330,.T.) ;
#346=FACE_OUTER_BOUND('',#343,.T.) ;
#40=LINE('Line',#37,#39) ;
#56=LINE('Line',#53,#55) ;
#256=LINE('Line',#253,#255) ;
#270=LINE('Line',#267,#269) ;
#301=LINE('Line',#298,#300) ;
#308=LINE('Line',#305,#307) ;
#118=PLANE('',#117) ;
#342=PLANE('',#341) ;
#9=PRODUCT_CATEGORY_RELATIONSHIP(' ',' ',#7,#8) ;
#6=PRODUCT_DEFINITION_FORMATION_WITH_SPECIFIED_SOURCE(' ',' ',#5,.NOT_KNOWN.) ;
#20=SHAPE_DEFINITION_REPRESENTATION(#11,#19) ;
#183=SPHERICAL_SURFACE('',#182,15.46) ;
#215=SPHERICAL_SURFACE('',#214,15.46) ;
#42=VERTEX_POINT('',#41) ;
#44=VERTEX_POINT('',#43) ;
#51=VERTEX_POINT('',#50) ;
#58=VERTEX_POINT('',#57) ;
#65=VERTEX_POINT('',#64) ;
#98=VERTEX_POINT('',#97) ;
#146=VERTEX_POINT('',#145) ;
#148=VERTEX_POINT('',#147) ;
#189=VERTEX_POINT('',#188) ;
#196=VERTEX_POINT('',#195) ;
#258=VERTEX_POINT('',#257) ;
#265=VERTEX_POINT('',#264) ;
#303=VERTEX_POINT('',#302) ;
#310=VERTEX_POINT('',#309) ;
#12=(LENGTH_UNIT()NAMED_UNIT(*)SI_UNIT(.MILLI.,.METRE.)) ;
#13=(NAMED_UNIT(*)PLANE_ANGLE_UNIT()SI_UNIT($,.RADIAN.)) ;
#14=(NAMED_UNIT(*)SI_UNIT($,.STERADIAN.)SOLID_ANGLE_UNIT()) ;
#16=(GEOMETRIC_REPRESENTATION_CONTEXT(3)GLOBAL_UNCERTAINTY_ASSIGNED_CONTEXT((#15))GLOBAL_UNIT_ASSIGNED_CONTEXT((#12,#13,#14))REPRESENTATION_CONTEXT(' ',' ')) ;
ENDSEC;
END-ISO-10303-21;
