ISO-10303-21;
HEADER;
FILE_DESCRIPTION(('CATIA V5 STEP Exchange','CAx-IF Rec.Pracs.--- Model Styling and Organization---1.5--- 2016-08-15','CAx-IF Rec.Pracs.---Supplemental Geometry---1.0---2011-11-01','CAx-IF Rec.Pracs.--- Composite Materials ---1.1---2010-07-15'),'2;1');

FILE_NAME ('D1456712_0', '2025-09-22T05:24:51+00:00', ('none'), ('Weidmueller'), 'CATIA Version 5-6 Release 2024 SP4', 'CATIA V5 STEP AP214 v3', 'none');

FILE_SCHEMA(('AUTOMOTIVE_DESIGN { 1 0 10303 214 1 1 1 1 }'));

ENDSEC;
DATA;
#5=PRODUCT('MF-W 9/5','','<Q-CHECKER_SEAL> Q-Checker Version 2.14.8  \X2\000A\X0\CATIA-Version         : Catia V5 R20 SP5 Build Date 01-14-2011.22.00\X2\000A\X0\Model size (in KByte) : 0\X2\000A\X0\Checking date         : 2014-03-04 11:56:58\X2\000A\X0\Checking profile      : ADMIN / Release_2D-3D [CATPart]\X2\000A\X0\Model assessment      : In Ordnung (IO)\X2\000A\X0\Total weight sum      : 0\X2\000A\X0\<CROSS_CHECK_SUM>\X2\000A\X0\  <CHKSUM_DATE> -2066122524 </CHKSUM_DATE>\X2\000A\X0\  <CHKSUM_ENTITIES> -677809911 </CHKSUM_ENTITIES>\X2\000A\X0\  <CHKSUM_PROFILE> 1594213346 </CHKSUM_PROFILE>\X2\000A\X0\  <CHKSUM_DIMENSION> -186917087 </CHKSUM_DIMENSION>\X2\000A\X0\  <CHKSUM_PROJINTERSEC> -896974048 </CHKSUM_PROJINTERSEC>\X2\000A\X0\  <CHKSUM_IDENTCRV> -896974048 </CHKSUM_IDENTCRV>\X2\000A\X0\  <CHKSUM_INFINITY> 138018827 </CHKSUM_INFINITY>\X2\000A\X0\</CROSS_CHECK_SUM>\X2\000A\X0\</Q-CHECKER_SEAL> \X2\000A\X0\ \X2\000A\X0\ \X2\000D\X0\\X2\000A\X0\',(#2)) ;
#2=PRODUCT_CONTEXT(' ',#1,'mechanical') ;
#1=APPLICATION_CONTEXT('automotive design') ;
#10=PRODUCT_DEFINITION('',' ',#6,#3) ;
#3=PRODUCT_DEFINITION_CONTEXT('part definition',#1,' ') ;
#11=PRODUCT_DEFINITION_SHAPE(' ',' ',#10) ;
#572=MECHANICAL_DESIGN_GEOMETRIC_PRESENTATION_REPRESENTATION(' ',(#29),#16) ;
#19=SHAPE_REPRESENTATION(' ',(#18),#16) ;
#18=AXIS2_PLACEMENT_3D(' ',#17,$,$) ;
#34=AXIS2_PLACEMENT_3D('Plane Axis2P3D',#31,#32,#33) ;
#74=AXIS2_PLACEMENT_3D('Plane Axis2P3D',#71,#72,#73) ;
#201=AXIS2_PLACEMENT_3D('Plane Axis2P3D',#198,#199,#200) ;
#225=AXIS2_PLACEMENT_3D('Plane Axis2P3D',#222,#223,#224) ;
#345=AXIS2_PLACEMENT_3D('Plane Axis2P3D',#342,#343,#344) ;
#362=AXIS2_PLACEMENT_3D('Plane Axis2P3D',#359,#360,#361) ;
#379=AXIS2_PLACEMENT_3D('Plane Axis2P3D',#376,#377,#378) ;
#396=AXIS2_PLACEMENT_3D('Plane Axis2P3D',#393,#394,#395) ;
#413=AXIS2_PLACEMENT_3D('Plane Axis2P3D',#410,#411,#412) ;
#430=AXIS2_PLACEMENT_3D('Plane Axis2P3D',#427,#428,#429) ;
#447=AXIS2_PLACEMENT_3D('Plane Axis2P3D',#444,#445,#446) ;
#464=AXIS2_PLACEMENT_3D('Plane Axis2P3D',#461,#462,#463) ;
#493=AXIS2_PLACEMENT_3D('Plane Axis2P3D',#490,#491,#492) ;
#510=AXIS2_PLACEMENT_3D('Plane Axis2P3D',#507,#508,#509) ;
#527=AXIS2_PLACEMENT_3D('Plane Axis2P3D',#524,#525,#526) ;
#544=AXIS2_PLACEMENT_3D('Plane Axis2P3D',#541,#542,#543) ;
#561=AXIS2_PLACEMENT_3D('Plane Axis2P3D',#558,#559,#560) ;
#17=CARTESIAN_POINT(' ',(0.,0.,0.)) ;
#31=CARTESIAN_POINT('Axis2P3D Location',(2.25,0.7,1.4)) ;
#36=CARTESIAN_POINT('Line Origine',(4.5,0.7,1.15816825312)) ;
#40=CARTESIAN_POINT('Vertex',(4.5,0.7,0.916336506233)) ;
#42=CARTESIAN_POINT('Vertex',(4.5,0.7,1.4)) ;
#45=CARTESIAN_POINT('Line Origine',(2.25,0.7,1.4)) ;
#49=CARTESIAN_POINT('Vertex',(0.,0.7,1.4)) ;
#52=CARTESIAN_POINT('Line Origine',(0.,0.7,1.15816825312)) ;
#56=CARTESIAN_POINT('Vertex',(0.,0.7,0.916336506233)) ;
#59=CARTESIAN_POINT('Line Origine',(2.25,0.7,0.916336506233)) ;
#71=CARTESIAN_POINT('Axis2P3D Location',(4.5,5.1,1.4)) ;
#76=CARTESIAN_POINT('Line Origine',(4.5,0.446472381614,0.84840398524)) ;
#80=CARTESIAN_POINT('Vertex',(4.5,0.192944763918,0.780471464984)) ;
#83=CARTESIAN_POINT('Line Origine',(4.5,0.0964723819867,0.683999082632)) ;
#87=CARTESIAN_POINT('Vertex',(4.5,1.60265496324E-10,0.587526701226)) ;
#90=CARTESIAN_POINT('Line Origine',(4.5,3.72528674575E-10,0.493763350509)) ;
#94=CARTESIAN_POINT('Vertex',(4.5,7.50405654796E-16,0.4)) ;
#97=CARTESIAN_POINT('Line Origine',(4.5,0.200000000559,0.199999999814)) ;
#101=CARTESIAN_POINT('Vertex',(4.5,0.400000000003,-3.1543389071E-12)) ;
#104=CARTESIAN_POINT('Line Origine',(4.5,0.514718693122,-3.72529118664E-10)) ;
#108=CARTESIAN_POINT('Vertex',(4.5,0.629437386245,1.37772764904E-16)) ;
#111=CARTESIAN_POINT('Line Origine',(4.5,0.860377492756,0.4)) ;
#115=CARTESIAN_POINT('Vertex',(4.5,1.09131760079,0.800000000159)) ;
#118=CARTESIAN_POINT('Line Origine',(4.5,5.1,0.800000000373)) ;
#122=CARTESIAN_POINT('Vertex',(4.5,9.10868239881,0.8)) ;
#125=CARTESIAN_POINT('Line Origine',(4.5,9.33962250724,0.4)) ;
#129=CARTESIAN_POINT('Vertex',(4.5,9.57056261465,-7.50405654796E-16)) ;
#132=CARTESIAN_POINT('Line Origine',(4.5,9.68528130688,-3.72529118664E-10)) ;
#136=CARTESIAN_POINT('Vertex',(4.5,9.8,1.37772764904E-16)) ;
#139=CARTESIAN_POINT('Line Origine',(4.5,9.99999999944,0.199999999814)) ;
#143=CARTESIAN_POINT('Vertex',(4.5,10.2,0.4)) ;
#146=CARTESIAN_POINT('Line Origine',(4.5,10.1999999996,0.493763350509)) ;
#150=CARTESIAN_POINT('Vertex',(4.5,10.2,0.587526701066)) ;
#153=CARTESIAN_POINT('Line Origine',(4.5,10.103527618,0.683999082632)) ;
#157=CARTESIAN_POINT('Vertex',(4.5,10.0070552361,0.780471464984)) ;
#160=CARTESIAN_POINT('Line Origine',(4.5,9.75352761839,0.84840398524)) ;
#164=CARTESIAN_POINT('Vertex',(4.5,9.5,0.916336506011)) ;
#167=CARTESIAN_POINT('Line Origine',(4.5,9.50000000037,1.15816825312)) ;
#171=CARTESIAN_POINT('Vertex',(4.5,9.5,1.39999999978)) ;
#174=CARTESIAN_POINT('Line Origine',(4.5,5.1,1.4)) ;
#198=CARTESIAN_POINT('Axis2P3D Location',(2.25,0.7,1.4)) ;
#203=CARTESIAN_POINT('Line Origine',(2.25,9.50000000075,1.4)) ;
#207=CARTESIAN_POINT('Vertex',(0.,9.5,1.39999999978)) ;
#210=CARTESIAN_POINT('Line Origine',(2.22044604925E-16,5.10000000037,1.4)) ;
#222=CARTESIAN_POINT('Axis2P3D Location',(0.,5.1,1.4)) ;
#227=CARTESIAN_POINT('Line Origine',(2.84230219573E-16,9.50000000037,1.15816825312)) ;
#231=CARTESIAN_POINT('Vertex',(0.,9.5,0.916336506011)) ;
#234=CARTESIAN_POINT('Line Origine',(3.18721899825E-16,9.75352761839,0.84840398524)) ;
#238=CARTESIAN_POINT('Vertex',(0.,10.0070552361,0.780471464984)) ;
#241=CARTESIAN_POINT('Line Origine',(3.50220115674E-16,10.103527618,0.683999082632)) ;
#245=CARTESIAN_POINT('Vertex',(0.,10.2,0.587526701066)) ;
#248=CARTESIAN_POINT('Line Origine',(3.67775924363E-16,10.1999999996,0.493763350509)) ;
#252=CARTESIAN_POINT('Vertex',(0.,10.2,0.4)) ;
#255=CARTESIAN_POINT('Line Origine',(3.73517273717E-16,9.99999999944,0.199999999814)) ;
#259=CARTESIAN_POINT('Vertex',(0.,9.8,-1.37772764904E-16)) ;
#262=CARTESIAN_POINT('Line Origine',(3.66492779746E-16,9.68528130688,-3.72529118664E-10)) ;
#266=CARTESIAN_POINT('Vertex',(0.,9.57056261465,-1.0259511846E-15)) ;
#269=CARTESIAN_POINT('Line Origine',(3.20834346612E-16,9.33962250724,0.4)) ;
#273=CARTESIAN_POINT('Vertex',(4.4408920985E-16,9.10868239881,0.8)) ;
#276=CARTESIAN_POINT('Line Origine',(3.67394039516E-17,5.1,0.800000000373)) ;
#280=CARTESIAN_POINT('Vertex',(0.,1.09131760079,0.800000000159)) ;
#283=CARTESIAN_POINT('Line Origine',(-1.98369666697E-16,0.860377492756,0.4)) ;
#287=CARTESIAN_POINT('Vertex',(-4.4408920985E-16,0.629437386245,-1.37772764904E-16)) ;
#290=CARTESIAN_POINT('Line Origine',(-1.9504222782E-16,0.514718693122,-3.72529118664E-10)) ;
#294=CARTESIAN_POINT('Vertex',(0.,0.400000000003,-3.15461445263E-12)) ;
#297=CARTESIAN_POINT('Line Origine',(-2.26559657797E-16,0.200000000559,0.199999999814)) ;
#301=CARTESIAN_POINT('Vertex',(0.,1.0259511846E-15,0.4)) ;
#304=CARTESIAN_POINT('Line Origine',(-2.56793943156E-16,3.72528674575E-10,0.493763350509)) ;
#308=CARTESIAN_POINT('Vertex',(0.,1.6026577187E-10,0.587526701226)) ;
#311=CARTESIAN_POINT('Line Origine',(-2.6253529251E-16,0.0964723819867,0.683999082632)) ;
#315=CARTESIAN_POINT('Vertex',(0.,0.192944763918,0.780471464984)) ;
#318=CARTESIAN_POINT('Line Origine',(-2.51170870435E-16,0.446472381614,0.84840398524)) ;
#342=CARTESIAN_POINT('Axis2P3D Location',(2.25,0.192944763918,0.780471464984)) ;
#347=CARTESIAN_POINT('Line Origine',(2.25,0.192944763918,0.780471464984)) ;
#359=CARTESIAN_POINT('Axis2P3D Location',(2.25,0.192944763918,0.780471464984)) ;
#364=CARTESIAN_POINT('Line Origine',(2.25,1.60265634097E-10,0.587526701226)) ;
#376=CARTESIAN_POINT('Axis2P3D Location',(2.25,8.881784197E-16,0.4)) ;
#381=CARTESIAN_POINT('Line Origine',(2.25,8.881784197E-16,0.4)) ;
#393=CARTESIAN_POINT('Axis2P3D Location',(2.25,0.,0.4)) ;
#398=CARTESIAN_POINT('Line Origine',(2.25,0.400000000003,-3.15447667987E-12)) ;
#410=CARTESIAN_POINT('Axis2P3D Location',(2.25,9.8,0.)) ;
#415=CARTESIAN_POINT('Line Origine',(2.25,0.629437386245,0.)) ;
#427=CARTESIAN_POINT('Axis2P3D Location',(2.25,0.629437385347,-1.7763568394E-15)) ;
#432=CARTESIAN_POINT('Line Origine',(2.25,1.09131760079,0.800000000159)) ;
#444=CARTESIAN_POINT('Axis2P3D Location',(2.25,1.0913176007,0.8)) ;
#449=CARTESIAN_POINT('Line Origine',(2.25,9.10868239881,0.8)) ;
#461=CARTESIAN_POINT('Axis2P3D Location',(2.25,9.57056261465,-8.881784197E-16)) ;
#466=CARTESIAN_POINT('Line Origine',(2.25,9.57056261465,-8.881784197E-16)) ;
#478=CARTESIAN_POINT('Line Origine',(2.25,9.8,0.)) ;
#490=CARTESIAN_POINT('Axis2P3D Location',(2.25,10.2,0.4)) ;
#495=CARTESIAN_POINT('Line Origine',(2.25,10.2,0.4)) ;
#507=CARTESIAN_POINT('Axis2P3D Location',(2.25,10.2,0.587526701066)) ;
#512=CARTESIAN_POINT('Line Origine',(2.25,10.2,0.587526701066)) ;
#524=CARTESIAN_POINT('Axis2P3D Location',(2.25,10.0070552361,0.780471464984)) ;
#529=CARTESIAN_POINT('Line Origine',(2.25,10.0070552361,0.780471464984)) ;
#541=CARTESIAN_POINT('Axis2P3D Location',(2.25,9.5,0.916336506011)) ;
#546=CARTESIAN_POINT('Line Origine',(2.25,9.5,0.916336506011)) ;
#558=CARTESIAN_POINT('Axis2P3D Location',(2.25,9.5,0.916336506011)) ;
#32=DIRECTION('Axis2P3D Direction',(-6.12323399574E-17,-1.,-8.60484838249E-45)) ;
#33=DIRECTION('Axis2P3D XDirection',(6.12323399574E-17,-3.74939945665E-33,-1.)) ;
#37=DIRECTION('Vector Direction',(0.,0.,-1.)) ;
#46=DIRECTION('Vector Direction',(1.,-4.93432455389E-17,9.86864910778E-17)) ;
#53=DIRECTION('Vector Direction',(0.,0.,-1.)) ;
#60=DIRECTION('Vector Direction',(1.,-4.93432455389E-17,4.93432455389E-17)) ;
#72=DIRECTION('Axis2P3D Direction',(1.,-6.12323399574E-17,6.12323399574E-17)) ;
#73=DIRECTION('Axis2P3D XDirection',(6.12323399574E-17,1.,0.)) ;
#77=DIRECTION('Vector Direction',(0.,0.965925825825,0.258819046835)) ;
#84=DIRECTION('Vector Direction',(0.,-0.707106781187,-0.707106781187)) ;
#91=DIRECTION('Vector Direction',(0.,0.,1.)) ;
#98=DIRECTION('Vector Direction',(0.,0.707106781187,-0.707106781187)) ;
#105=DIRECTION('Vector Direction',(0.,1.,0.)) ;
#112=DIRECTION('Vector Direction',(0.,0.499999998969,0.86602540438)) ;
#119=DIRECTION('Vector Direction',(0.,1.,0.)) ;
#126=DIRECTION('Vector Direction',(0.,-0.499999998969,0.86602540438)) ;
#133=DIRECTION('Vector Direction',(0.,-1.,0.)) ;
#140=DIRECTION('Vector Direction',(0.,-0.707106781187,-0.707106781187)) ;
#147=DIRECTION('Vector Direction',(0.,0.,-1.)) ;
#154=DIRECTION('Vector Direction',(0.,0.707106781187,-0.707106781187)) ;
#161=DIRECTION('Vector Direction',(0.,0.965925825825,-0.258819046835)) ;
#168=DIRECTION('Vector Direction',(0.,0.,1.)) ;
#175=DIRECTION('Vector Direction',(0.,1.,0.)) ;
#199=DIRECTION('Axis2P3D Direction',(6.12323399574E-17,-3.74939945666E-33,-1.)) ;
#200=DIRECTION('Axis2P3D XDirection',(6.12323399574E-17,1.,0.)) ;
#204=DIRECTION('Vector Direction',(1.,0.,9.86864910778E-17)) ;
#211=DIRECTION('Vector Direction',(5.04646829332E-17,1.,0.)) ;
#223=DIRECTION('Axis2P3D Direction',(1.,-6.12323399574E-17,6.12323399574E-17)) ;
#224=DIRECTION('Axis2P3D XDirection',(6.12323399574E-17,1.,0.)) ;
#228=DIRECTION('Vector Direction',(-6.12323399574E-17,0.,1.)) ;
#235=DIRECTION('Vector Direction',(7.49939944038E-17,0.965925825825,-0.258819046835)) ;
#242=DIRECTION('Vector Direction',(8.65956056236E-17,0.707106781187,-0.707106781187)) ;
#249=DIRECTION('Vector Direction',(6.12323399574E-17,0.,-1.)) ;
#256=DIRECTION('Vector Direction',(0.,-0.707106781187,-0.707106781187)) ;
#263=DIRECTION('Vector Direction',(-6.12323399574E-17,-1.,0.)) ;
#270=DIRECTION('Vector Direction',(-8.36449318883E-17,-0.499999998969,0.86602540438)) ;
#277=DIRECTION('Vector Direction',(6.12323399574E-17,1.,0.)) ;
#284=DIRECTION('Vector Direction',(-2.24125920571E-17,0.499999998969,0.86602540438)) ;
#291=DIRECTION('Vector Direction',(6.12323399574E-17,1.,0.)) ;
#298=DIRECTION('Vector Direction',(8.65956056236E-17,0.707106781187,-0.707106781187)) ;
#305=DIRECTION('Vector Direction',(-6.12323399574E-17,0.,1.)) ;
#312=DIRECTION('Vector Direction',(0.,-0.707106781187,-0.707106781187)) ;
#319=DIRECTION('Vector Direction',(4.32978026773E-17,0.965925825825,0.258819046835)) ;
#343=DIRECTION('Axis2P3D Direction',(7.49939943261E-17,0.258819045103,-0.965925826289)) ;
#344=DIRECTION('Axis2P3D XDirection',(4.32978028118E-17,0.965925826289,0.258819045103)) ;
#348=DIRECTION('Vector Direction',(1.,-6.16790569236E-17,4.93432455389E-17)) ;
#360=DIRECTION('Axis2P3D Direction',(-8.65956056234E-17,-0.707106781187,0.707106781187)) ;
#361=DIRECTION('Axis2P3D XDirection',(-9.86076131525E-32,-0.707106781187,-0.707106781187)) ;
#365=DIRECTION('Vector Direction',(1.,-6.12323399524E-17,4.93432455389E-17)) ;
#377=DIRECTION('Axis2P3D Direction',(6.12323399574E-17,1.,8.60484838249E-45)) ;
#378=DIRECTION('Axis2P3D XDirection',(-6.12323399574E-17,3.74939945665E-33,1.)) ;
#382=DIRECTION('Vector Direction',(1.,-6.12323399574E-17,4.93432455389E-17)) ;
#394=DIRECTION('Axis2P3D Direction',(1.84889274661E-32,-0.707106781187,-0.707106781187)) ;
#395=DIRECTION('Axis2P3D XDirection',(8.65956056234E-17,0.707106781187,-0.707106781187)) ;
#399=DIRECTION('Vector Direction',(1.,-4.93432455389E-17,6.12323399573E-17)) ;
#411=DIRECTION('Axis2P3D Direction',(-6.12323399574E-17,3.74939945666E-33,1.)) ;
#412=DIRECTION('Axis2P3D XDirection',(-6.12323399574E-17,-1.,0.)) ;
#416=DIRECTION('Vector Direction',(1.,-4.93432455389E-17,6.12323399574E-17)) ;
#428=DIRECTION('Axis2P3D Direction',(8.36449319149E-17,0.866025403784,-0.5)) ;
#429=DIRECTION('Axis2P3D XDirection',(-2.24125919576E-17,0.5,0.866025403784)) ;
#433=DIRECTION('Vector Direction',(1.,-9.86864910778E-17,4.93432455389E-17)) ;
#445=DIRECTION('Axis2P3D Direction',(6.12323399574E-17,-3.74939945666E-33,-1.)) ;
#446=DIRECTION('Axis2P3D XDirection',(6.12323399574E-17,1.,0.)) ;
#450=DIRECTION('Vector Direction',(1.,0.,4.93432455389E-17)) ;
#462=DIRECTION('Axis2P3D Direction',(2.24125919576E-17,0.866025403784,0.5)) ;
#463=DIRECTION('Axis2P3D XDirection',(-8.36449319149E-17,-0.5,0.866025403784)) ;
#467=DIRECTION('Vector Direction',(1.,0.,6.12323399573E-17)) ;
#479=DIRECTION('Vector Direction',(1.,0.,6.12323399574E-17)) ;
#491=DIRECTION('Axis2P3D Direction',(-8.65956056234E-17,-0.707106781187,0.707106781187)) ;
#492=DIRECTION('Axis2P3D XDirection',(-1.84889274661E-32,-0.707106781187,-0.707106781187)) ;
#496=DIRECTION('Vector Direction',(1.,0.,4.93432455389E-17)) ;
#508=DIRECTION('Axis2P3D Direction',(-6.12323399574E-17,-1.,-8.60484838249E-45)) ;
#509=DIRECTION('Axis2P3D XDirection',(6.12323399574E-17,-3.74939945665E-33,-1.)) ;
#513=DIRECTION('Vector Direction',(1.,0.,4.93432455389E-17)) ;
#525=DIRECTION('Axis2P3D Direction',(1.04770588975E-31,-0.707106781187,-0.707106781187)) ;
#526=DIRECTION('Axis2P3D XDirection',(8.65956056234E-17,0.707106781187,-0.707106781187)) ;
#530=DIRECTION('Vector Direction',(1.,0.,4.93432455389E-17)) ;
#542=DIRECTION('Axis2P3D Direction',(4.32978028118E-17,-0.258819045103,-0.965925826289)) ;
#543=DIRECTION('Axis2P3D XDirection',(7.49939943261E-17,0.965925826289,-0.258819045103)) ;
#547=DIRECTION('Vector Direction',(1.,0.,4.93432455389E-17)) ;
#559=DIRECTION('Axis2P3D Direction',(6.12323399574E-17,1.,8.60484838249E-45)) ;
#560=DIRECTION('Axis2P3D XDirection',(-6.12323399574E-17,3.74939945665E-33,1.)) ;
#8=PRODUCT_RELATED_PRODUCT_CATEGORY('part',$,(#5)) ;
#7=PRODUCT_CATEGORY('part','specification') ;
#29=STYLED_ITEM(' ',(#28),#21) ;
#28=PRESENTATION_STYLE_ASSIGNMENT((#27)) ;
#27=SURFACE_STYLE_USAGE(.BOTH.,#26) ;
#26=SURFACE_SIDE_STYLE(' ',(#25)) ;
#25=SURFACE_STYLE_FILL_AREA(#24) ;
#24=FILL_AREA_STYLE(' ',(#23)) ;
#23=FILL_AREA_STYLE_COLOUR(' ',#22) ;
#38=VECTOR('Line Direction',#37,1.) ;
#47=VECTOR('Line Direction',#46,1.) ;
#54=VECTOR('Line Direction',#53,1.) ;
#61=VECTOR('Line Direction',#60,1.) ;
#78=VECTOR('Line Direction',#77,1.) ;
#85=VECTOR('Line Direction',#84,1.) ;
#92=VECTOR('Line Direction',#91,1.) ;
#99=VECTOR('Line Direction',#98,1.) ;
#106=VECTOR('Line Direction',#105,1.) ;
#113=VECTOR('Line Direction',#112,1.) ;
#120=VECTOR('Line Direction',#119,1.) ;
#127=VECTOR('Line Direction',#126,1.) ;
#134=VECTOR('Line Direction',#133,1.) ;
#141=VECTOR('Line Direction',#140,1.) ;
#148=VECTOR('Line Direction',#147,1.) ;
#155=VECTOR('Line Direction',#154,1.) ;
#162=VECTOR('Line Direction',#161,1.) ;
#169=VECTOR('Line Direction',#168,1.) ;
#176=VECTOR('Line Direction',#175,1.) ;
#205=VECTOR('Line Direction',#204,1.) ;
#212=VECTOR('Line Direction',#211,1.) ;
#229=VECTOR('Line Direction',#228,1.) ;
#236=VECTOR('Line Direction',#235,1.) ;
#243=VECTOR('Line Direction',#242,1.) ;
#250=VECTOR('Line Direction',#249,1.) ;
#257=VECTOR('Line Direction',#256,1.) ;
#264=VECTOR('Line Direction',#263,1.) ;
#271=VECTOR('Line Direction',#270,1.) ;
#278=VECTOR('Line Direction',#277,1.) ;
#285=VECTOR('Line Direction',#284,1.) ;
#292=VECTOR('Line Direction',#291,1.) ;
#299=VECTOR('Line Direction',#298,1.) ;
#306=VECTOR('Line Direction',#305,1.) ;
#313=VECTOR('Line Direction',#312,1.) ;
#320=VECTOR('Line Direction',#319,1.) ;
#349=VECTOR('Line Direction',#348,1.) ;
#366=VECTOR('Line Direction',#365,1.) ;
#383=VECTOR('Line Direction',#382,1.) ;
#400=VECTOR('Line Direction',#399,1.) ;
#417=VECTOR('Line Direction',#416,1.) ;
#434=VECTOR('Line Direction',#433,1.) ;
#451=VECTOR('Line Direction',#450,1.) ;
#468=VECTOR('Line Direction',#467,1.) ;
#480=VECTOR('Line Direction',#479,1.) ;
#497=VECTOR('Line Direction',#496,1.) ;
#514=VECTOR('Line Direction',#513,1.) ;
#531=VECTOR('Line Direction',#530,1.) ;
#548=VECTOR('Line Direction',#547,1.) ;
#15=UNCERTAINTY_MEASURE_WITH_UNIT(LENGTH_MEASURE(0.005),#12,'distance_accuracy_value','CONFUSED CURVE UNCERTAINTY') ;
#571=SHAPE_REPRESENTATION_RELATIONSHIP(' ',' ',#19,#570) ;
#65=ORIENTED_EDGE('',*,*,#44,.T.) ;
#66=ORIENTED_EDGE('',*,*,#51,.F.) ;
#67=ORIENTED_EDGE('',*,*,#58,.F.) ;
#68=ORIENTED_EDGE('',*,*,#63,.T.) ;
#180=ORIENTED_EDGE('',*,*,#44,.F.) ;
#181=ORIENTED_EDGE('',*,*,#82,.F.) ;
#182=ORIENTED_EDGE('',*,*,#89,.F.) ;
#183=ORIENTED_EDGE('',*,*,#96,.F.) ;
#184=ORIENTED_EDGE('',*,*,#103,.F.) ;
#185=ORIENTED_EDGE('',*,*,#110,.F.) ;
#186=ORIENTED_EDGE('',*,*,#117,.F.) ;
#187=ORIENTED_EDGE('',*,*,#124,.F.) ;
#188=ORIENTED_EDGE('',*,*,#131,.F.) ;
#189=ORIENTED_EDGE('',*,*,#138,.F.) ;
#190=ORIENTED_EDGE('',*,*,#145,.F.) ;
#191=ORIENTED_EDGE('',*,*,#152,.F.) ;
#192=ORIENTED_EDGE('',*,*,#159,.F.) ;
#193=ORIENTED_EDGE('',*,*,#166,.F.) ;
#194=ORIENTED_EDGE('',*,*,#173,.F.) ;
#195=ORIENTED_EDGE('',*,*,#178,.F.) ;
#216=ORIENTED_EDGE('',*,*,#178,.T.) ;
#217=ORIENTED_EDGE('',*,*,#209,.F.) ;
#218=ORIENTED_EDGE('',*,*,#214,.F.) ;
#219=ORIENTED_EDGE('',*,*,#51,.T.) ;
#324=ORIENTED_EDGE('',*,*,#214,.T.) ;
#325=ORIENTED_EDGE('',*,*,#233,.T.) ;
#326=ORIENTED_EDGE('',*,*,#240,.T.) ;
#327=ORIENTED_EDGE('',*,*,#247,.T.) ;
#328=ORIENTED_EDGE('',*,*,#254,.T.) ;
#329=ORIENTED_EDGE('',*,*,#261,.T.) ;
#330=ORIENTED_EDGE('',*,*,#268,.T.) ;
#331=ORIENTED_EDGE('',*,*,#275,.T.) ;
#332=ORIENTED_EDGE('',*,*,#282,.T.) ;
#333=ORIENTED_EDGE('',*,*,#289,.T.) ;
#334=ORIENTED_EDGE('',*,*,#296,.T.) ;
#335=ORIENTED_EDGE('',*,*,#303,.T.) ;
#336=ORIENTED_EDGE('',*,*,#310,.T.) ;
#337=ORIENTED_EDGE('',*,*,#317,.T.) ;
#338=ORIENTED_EDGE('',*,*,#322,.T.) ;
#339=ORIENTED_EDGE('',*,*,#58,.T.) ;
#353=ORIENTED_EDGE('',*,*,#82,.T.) ;
#354=ORIENTED_EDGE('',*,*,#63,.F.) ;
#355=ORIENTED_EDGE('',*,*,#322,.F.) ;
#356=ORIENTED_EDGE('',*,*,#351,.T.) ;
#370=ORIENTED_EDGE('',*,*,#89,.T.) ;
#371=ORIENTED_EDGE('',*,*,#351,.F.) ;
#372=ORIENTED_EDGE('',*,*,#317,.F.) ;
#373=ORIENTED_EDGE('',*,*,#368,.T.) ;
#387=ORIENTED_EDGE('',*,*,#96,.T.) ;
#388=ORIENTED_EDGE('',*,*,#368,.F.) ;
#389=ORIENTED_EDGE('',*,*,#310,.F.) ;
#390=ORIENTED_EDGE('',*,*,#385,.T.) ;
#404=ORIENTED_EDGE('',*,*,#103,.T.) ;
#405=ORIENTED_EDGE('',*,*,#385,.F.) ;
#406=ORIENTED_EDGE('',*,*,#303,.F.) ;
#407=ORIENTED_EDGE('',*,*,#402,.T.) ;
#421=ORIENTED_EDGE('',*,*,#110,.T.) ;
#422=ORIENTED_EDGE('',*,*,#402,.F.) ;
#423=ORIENTED_EDGE('',*,*,#296,.F.) ;
#424=ORIENTED_EDGE('',*,*,#419,.T.) ;
#438=ORIENTED_EDGE('',*,*,#117,.T.) ;
#439=ORIENTED_EDGE('',*,*,#419,.F.) ;
#440=ORIENTED_EDGE('',*,*,#289,.F.) ;
#441=ORIENTED_EDGE('',*,*,#436,.T.) ;
#455=ORIENTED_EDGE('',*,*,#124,.T.) ;
#456=ORIENTED_EDGE('',*,*,#436,.F.) ;
#457=ORIENTED_EDGE('',*,*,#282,.F.) ;
#458=ORIENTED_EDGE('',*,*,#453,.T.) ;
#472=ORIENTED_EDGE('',*,*,#131,.T.) ;
#473=ORIENTED_EDGE('',*,*,#453,.F.) ;
#474=ORIENTED_EDGE('',*,*,#275,.F.) ;
#475=ORIENTED_EDGE('',*,*,#470,.T.) ;
#484=ORIENTED_EDGE('',*,*,#138,.T.) ;
#485=ORIENTED_EDGE('',*,*,#470,.F.) ;
#486=ORIENTED_EDGE('',*,*,#268,.F.) ;
#487=ORIENTED_EDGE('',*,*,#482,.T.) ;
#501=ORIENTED_EDGE('',*,*,#145,.T.) ;
#502=ORIENTED_EDGE('',*,*,#482,.F.) ;
#503=ORIENTED_EDGE('',*,*,#261,.F.) ;
#504=ORIENTED_EDGE('',*,*,#499,.T.) ;
#518=ORIENTED_EDGE('',*,*,#152,.T.) ;
#519=ORIENTED_EDGE('',*,*,#499,.F.) ;
#520=ORIENTED_EDGE('',*,*,#254,.F.) ;
#521=ORIENTED_EDGE('',*,*,#516,.T.) ;
#535=ORIENTED_EDGE('',*,*,#159,.T.) ;
#536=ORIENTED_EDGE('',*,*,#516,.F.) ;
#537=ORIENTED_EDGE('',*,*,#247,.F.) ;
#538=ORIENTED_EDGE('',*,*,#533,.T.) ;
#552=ORIENTED_EDGE('',*,*,#166,.T.) ;
#553=ORIENTED_EDGE('',*,*,#533,.F.) ;
#554=ORIENTED_EDGE('',*,*,#240,.F.) ;
#555=ORIENTED_EDGE('',*,*,#550,.T.) ;
#564=ORIENTED_EDGE('',*,*,#173,.T.) ;
#565=ORIENTED_EDGE('',*,*,#550,.F.) ;
#566=ORIENTED_EDGE('',*,*,#233,.F.) ;
#567=ORIENTED_EDGE('',*,*,#209,.T.) ;
#30=CLOSED_SHELL('Closed Shell',(#70,#197,#221,#341,#358,#375,#392,#409,#426,#443,#460,#477,#489,#506,#523,#540,#557,#569)) ;
#570=ADVANCED_BREP_SHAPE_REPRESENTATION('NONE',(#21),#16) ;
#70=ADVANCED_FACE('S3D gedreht',(#69),#35,.T.) ;
#197=ADVANCED_FACE('S3D gedreht',(#196),#75,.T.) ;
#221=ADVANCED_FACE('S3D gedreht',(#220),#202,.F.) ;
#341=ADVANCED_FACE('S3D gedreht',(#340),#226,.F.) ;
#358=ADVANCED_FACE('S3D gedreht',(#357),#346,.F.) ;
#375=ADVANCED_FACE('S3D gedreht',(#374),#363,.T.) ;
#392=ADVANCED_FACE('S3D gedreht',(#391),#380,.F.) ;
#409=ADVANCED_FACE('S3D gedreht',(#408),#397,.T.) ;
#426=ADVANCED_FACE('S3D gedreht',(#425),#414,.F.) ;
#443=ADVANCED_FACE('S3D gedreht',(#442),#431,.T.) ;
#460=ADVANCED_FACE('S3D gedreht',(#459),#448,.T.) ;
#477=ADVANCED_FACE('S3D gedreht',(#476),#465,.F.) ;
#489=ADVANCED_FACE('S3D gedreht',(#488),#414,.F.) ;
#506=ADVANCED_FACE('S3D gedreht',(#505),#494,.F.) ;
#523=ADVANCED_FACE('S3D gedreht',(#522),#511,.F.) ;
#540=ADVANCED_FACE('S3D gedreht',(#539),#528,.F.) ;
#557=ADVANCED_FACE('S3D gedreht',(#556),#545,.F.) ;
#569=ADVANCED_FACE('S3D gedreht',(#568),#562,.T.) ;
#4=APPLICATION_PROTOCOL_DEFINITION('international standard','automotive_design',2001,#1) ;
#21=MANIFOLD_SOLID_BREP('S3D gedreht',#30) ;
#22=DRAUGHTING_PRE_DEFINED_COLOUR('white') ;
#44=EDGE_CURVE('',#41,#43,#39,.F.) ;
#51=EDGE_CURVE('',#50,#43,#48,.T.) ;
#58=EDGE_CURVE('',#57,#50,#55,.F.) ;
#63=EDGE_CURVE('',#57,#41,#62,.T.) ;
#82=EDGE_CURVE('',#81,#41,#79,.T.) ;
#89=EDGE_CURVE('',#88,#81,#86,.F.) ;
#96=EDGE_CURVE('',#95,#88,#93,.T.) ;
#103=EDGE_CURVE('',#102,#95,#100,.F.) ;
#110=EDGE_CURVE('',#109,#102,#107,.F.) ;
#117=EDGE_CURVE('',#116,#109,#114,.F.) ;
#124=EDGE_CURVE('',#123,#116,#121,.F.) ;
#131=EDGE_CURVE('',#130,#123,#128,.T.) ;
#138=EDGE_CURVE('',#137,#130,#135,.T.) ;
#145=EDGE_CURVE('',#144,#137,#142,.T.) ;
#152=EDGE_CURVE('',#151,#144,#149,.T.) ;
#159=EDGE_CURVE('',#158,#151,#156,.T.) ;
#166=EDGE_CURVE('',#165,#158,#163,.T.) ;
#173=EDGE_CURVE('',#172,#165,#170,.F.) ;
#178=EDGE_CURVE('',#43,#172,#177,.T.) ;
#209=EDGE_CURVE('',#208,#172,#206,.T.) ;
#214=EDGE_CURVE('',#50,#208,#213,.T.) ;
#233=EDGE_CURVE('',#208,#232,#230,.F.) ;
#240=EDGE_CURVE('',#232,#239,#237,.T.) ;
#247=EDGE_CURVE('',#239,#246,#244,.T.) ;
#254=EDGE_CURVE('',#246,#253,#251,.T.) ;
#261=EDGE_CURVE('',#253,#260,#258,.T.) ;
#268=EDGE_CURVE('',#260,#267,#265,.T.) ;
#275=EDGE_CURVE('',#267,#274,#272,.T.) ;
#282=EDGE_CURVE('',#274,#281,#279,.F.) ;
#289=EDGE_CURVE('',#281,#288,#286,.F.) ;
#296=EDGE_CURVE('',#288,#295,#293,.F.) ;
#303=EDGE_CURVE('',#295,#302,#300,.F.) ;
#310=EDGE_CURVE('',#302,#309,#307,.T.) ;
#317=EDGE_CURVE('',#309,#316,#314,.F.) ;
#322=EDGE_CURVE('',#316,#57,#321,.T.) ;
#351=EDGE_CURVE('',#316,#81,#350,.T.) ;
#368=EDGE_CURVE('',#309,#88,#367,.T.) ;
#385=EDGE_CURVE('',#302,#95,#384,.T.) ;
#402=EDGE_CURVE('',#295,#102,#401,.T.) ;
#419=EDGE_CURVE('',#288,#109,#418,.T.) ;
#436=EDGE_CURVE('',#281,#116,#435,.T.) ;
#453=EDGE_CURVE('',#274,#123,#452,.T.) ;
#470=EDGE_CURVE('',#267,#130,#469,.T.) ;
#482=EDGE_CURVE('',#260,#137,#481,.T.) ;
#499=EDGE_CURVE('',#253,#144,#498,.T.) ;
#516=EDGE_CURVE('',#246,#151,#515,.T.) ;
#533=EDGE_CURVE('',#239,#158,#532,.T.) ;
#550=EDGE_CURVE('',#232,#165,#549,.T.) ;
#64=EDGE_LOOP('',(#65,#66,#67,#68)) ;
#179=EDGE_LOOP('',(#180,#181,#182,#183,#184,#185,#186,#187,#188,#189,#190,#191,#192,#193,#194,#195)) ;
#215=EDGE_LOOP('',(#216,#217,#218,#219)) ;
#323=EDGE_LOOP('',(#324,#325,#326,#327,#328,#329,#330,#331,#332,#333,#334,#335,#336,#337,#338,#339)) ;
#352=EDGE_LOOP('',(#353,#354,#355,#356)) ;
#369=EDGE_LOOP('',(#370,#371,#372,#373)) ;
#386=EDGE_LOOP('',(#387,#388,#389,#390)) ;
#403=EDGE_LOOP('',(#404,#405,#406,#407)) ;
#420=EDGE_LOOP('',(#421,#422,#423,#424)) ;
#437=EDGE_LOOP('',(#438,#439,#440,#441)) ;
#454=EDGE_LOOP('',(#455,#456,#457,#458)) ;
#471=EDGE_LOOP('',(#472,#473,#474,#475)) ;
#483=EDGE_LOOP('',(#484,#485,#486,#487)) ;
#500=EDGE_LOOP('',(#501,#502,#503,#504)) ;
#517=EDGE_LOOP('',(#518,#519,#520,#521)) ;
#534=EDGE_LOOP('',(#535,#536,#537,#538)) ;
#551=EDGE_LOOP('',(#552,#553,#554,#555)) ;
#563=EDGE_LOOP('',(#564,#565,#566,#567)) ;
#69=FACE_OUTER_BOUND('',#64,.T.) ;
#196=FACE_OUTER_BOUND('',#179,.T.) ;
#220=FACE_OUTER_BOUND('',#215,.T.) ;
#340=FACE_OUTER_BOUND('',#323,.T.) ;
#357=FACE_OUTER_BOUND('',#352,.T.) ;
#374=FACE_OUTER_BOUND('',#369,.T.) ;
#391=FACE_OUTER_BOUND('',#386,.T.) ;
#408=FACE_OUTER_BOUND('',#403,.T.) ;
#425=FACE_OUTER_BOUND('',#420,.T.) ;
#442=FACE_OUTER_BOUND('',#437,.T.) ;
#459=FACE_OUTER_BOUND('',#454,.T.) ;
#476=FACE_OUTER_BOUND('',#471,.T.) ;
#488=FACE_OUTER_BOUND('',#483,.T.) ;
#505=FACE_OUTER_BOUND('',#500,.T.) ;
#522=FACE_OUTER_BOUND('',#517,.T.) ;
#539=FACE_OUTER_BOUND('',#534,.T.) ;
#556=FACE_OUTER_BOUND('',#551,.T.) ;
#568=FACE_OUTER_BOUND('',#563,.T.) ;
#39=LINE('Line',#36,#38) ;
#48=LINE('Line',#45,#47) ;
#55=LINE('Line',#52,#54) ;
#62=LINE('Line',#59,#61) ;
#79=LINE('Line',#76,#78) ;
#86=LINE('Line',#83,#85) ;
#93=LINE('Line',#90,#92) ;
#100=LINE('Line',#97,#99) ;
#107=LINE('Line',#104,#106) ;
#114=LINE('Line',#111,#113) ;
#121=LINE('Line',#118,#120) ;
#128=LINE('Line',#125,#127) ;
#135=LINE('Line',#132,#134) ;
#142=LINE('Line',#139,#141) ;
#149=LINE('Line',#146,#148) ;
#156=LINE('Line',#153,#155) ;
#163=LINE('Line',#160,#162) ;
#170=LINE('Line',#167,#169) ;
#177=LINE('Line',#174,#176) ;
#206=LINE('Line',#203,#205) ;
#213=LINE('Line',#210,#212) ;
#230=LINE('Line',#227,#229) ;
#237=LINE('Line',#234,#236) ;
#244=LINE('Line',#241,#243) ;
#251=LINE('Line',#248,#250) ;
#258=LINE('Line',#255,#257) ;
#265=LINE('Line',#262,#264) ;
#272=LINE('Line',#269,#271) ;
#279=LINE('Line',#276,#278) ;
#286=LINE('Line',#283,#285) ;
#293=LINE('Line',#290,#292) ;
#300=LINE('Line',#297,#299) ;
#307=LINE('Line',#304,#306) ;
#314=LINE('Line',#311,#313) ;
#321=LINE('Line',#318,#320) ;
#350=LINE('Line',#347,#349) ;
#367=LINE('Line',#364,#366) ;
#384=LINE('Line',#381,#383) ;
#401=LINE('Line',#398,#400) ;
#418=LINE('Line',#415,#417) ;
#435=LINE('Line',#432,#434) ;
#452=LINE('Line',#449,#451) ;
#469=LINE('Line',#466,#468) ;
#481=LINE('Line',#478,#480) ;
#498=LINE('Line',#495,#497) ;
#515=LINE('Line',#512,#514) ;
#532=LINE('Line',#529,#531) ;
#549=LINE('Line',#546,#548) ;
#35=PLANE('',#34) ;
#75=PLANE('',#74) ;
#202=PLANE('',#201) ;
#226=PLANE('',#225) ;
#346=PLANE('',#345) ;
#363=PLANE('',#362) ;
#380=PLANE('',#379) ;
#397=PLANE('',#396) ;
#414=PLANE('',#413) ;
#431=PLANE('',#430) ;
#448=PLANE('',#447) ;
#465=PLANE('',#464) ;
#494=PLANE('',#493) ;
#511=PLANE('',#510) ;
#528=PLANE('',#527) ;
#545=PLANE('',#544) ;
#562=PLANE('',#561) ;
#9=PRODUCT_CATEGORY_RELATIONSHIP(' ',' ',#7,#8) ;
#6=PRODUCT_DEFINITION_FORMATION_WITH_SPECIFIED_SOURCE('',' ',#5,.NOT_KNOWN.) ;
#20=SHAPE_DEFINITION_REPRESENTATION(#11,#19) ;
#41=VERTEX_POINT('',#40) ;
#43=VERTEX_POINT('',#42) ;
#50=VERTEX_POINT('',#49) ;
#57=VERTEX_POINT('',#56) ;
#81=VERTEX_POINT('',#80) ;
#88=VERTEX_POINT('',#87) ;
#95=VERTEX_POINT('',#94) ;
#102=VERTEX_POINT('',#101) ;
#109=VERTEX_POINT('',#108) ;
#116=VERTEX_POINT('',#115) ;
#123=VERTEX_POINT('',#122) ;
#130=VERTEX_POINT('',#129) ;
#137=VERTEX_POINT('',#136) ;
#144=VERTEX_POINT('',#143) ;
#151=VERTEX_POINT('',#150) ;
#158=VERTEX_POINT('',#157) ;
#165=VERTEX_POINT('',#164) ;
#172=VERTEX_POINT('',#171) ;
#208=VERTEX_POINT('',#207) ;
#232=VERTEX_POINT('',#231) ;
#239=VERTEX_POINT('',#238) ;
#246=VERTEX_POINT('',#245) ;
#253=VERTEX_POINT('',#252) ;
#260=VERTEX_POINT('',#259) ;
#267=VERTEX_POINT('',#266) ;
#274=VERTEX_POINT('',#273) ;
#281=VERTEX_POINT('',#280) ;
#288=VERTEX_POINT('',#287) ;
#295=VERTEX_POINT('',#294) ;
#302=VERTEX_POINT('',#301) ;
#309=VERTEX_POINT('',#308) ;
#316=VERTEX_POINT('',#315) ;
#12=(LENGTH_UNIT()NAMED_UNIT(*)SI_UNIT(.MILLI.,.METRE.)) ;
#13=(NAMED_UNIT(*)PLANE_ANGLE_UNIT()SI_UNIT($,.RADIAN.)) ;
#14=(NAMED_UNIT(*)SI_UNIT($,.STERADIAN.)SOLID_ANGLE_UNIT()) ;
#16=(GEOMETRIC_REPRESENTATION_CONTEXT(3)GLOBAL_UNCERTAINTY_ASSIGNED_CONTEXT((#15))GLOBAL_UNIT_ASSIGNED_CONTEXT((#12,#13,#14))REPRESENTATION_CONTEXT(' ',' ')) ;
ENDSEC;
END-ISO-10303-21;
