ISO-10303-21;
HEADER;
FILE_DESCRIPTION(('CATIA V5R24 STEP','CAx-IF Rec.Pracs.--- Model Styling and Organization---1.2---2011-12-15'),'2;1');

FILE_NAME ('D1464875_0_9502550000_9502550000.stp','2016-08-10T11:18:11+00:00',('none'),('Weidmueller'),'CATIA Version 5-6 Release 2014 SP4','CATIA V5 STEP AP214','none');

FILE_SCHEMA(('AUTOMOTIVE_DESIGN { 1 0 10303 214 1 1 1 1 }'));

ENDSEC;
DATA;
#5=PRODUCT('v5-standard_part','','',(#2)) ;
#2=PRODUCT_CONTEXT(' ',#1,'mechanical') ;
#1=APPLICATION_CONTEXT('automotive design') ;
#10=PRODUCT_DEFINITION('',' ',#6,#3) ;
#3=PRODUCT_DEFINITION_CONTEXT('part definition',#1,' ') ;
#11=PRODUCT_DEFINITION_SHAPE(' ',' ',#10) ;
#587=MECHANICAL_DESIGN_GEOMETRIC_PRESENTATION_REPRESENTATION(' ',(#46),#16) ;
#19=SHAPE_REPRESENTATION(' ',(#18),#16) ;
#18=AXIS2_PLACEMENT_3D(' ',#17,$,$) ;
#24=AXIS2_PLACEMENT_3D('Plane Axis2P3D',#21,#22,#23) ;
#31=AXIS2_PLACEMENT_3D('Plane Axis2P3D',#28,#29,#30) ;
#36=AXIS2_PLACEMENT_3D('Plane Axis2P3D',#33,#34,#35) ;
#52=AXIS2_PLACEMENT_3D('Plane Axis2P3D',#49,#50,#51) ;
#92=AXIS2_PLACEMENT_3D('Plane Axis2P3D',#89,#90,#91) ;
#123=AXIS2_PLACEMENT_3D('Plane Axis2P3D',#120,#121,#122) ;
#154=AXIS2_PLACEMENT_3D('Plane Axis2P3D',#151,#152,#153) ;
#176=AXIS2_PLACEMENT_3D('Plane Axis2P3D',#173,#174,#175) ;
#216=AXIS2_PLACEMENT_3D('Cylinder Axis2P3D',#213,#214,#215) ;
#220=AXIS2_PLACEMENT_3D('Circle Axis2P3D',#218,#219,$) ;
#227=AXIS2_PLACEMENT_3D('Circle Axis2P3D',#225,#226,$) ;
#247=AXIS2_PLACEMENT_3D('Plane Axis2P3D',#244,#245,#246) ;
#278=AXIS2_PLACEMENT_3D('Cylinder Axis2P3D',#275,#276,#277) ;
#282=AXIS2_PLACEMENT_3D('Circle Axis2P3D',#280,#281,$) ;
#287=AXIS2_PLACEMENT_3D('Circle Axis2P3D',#285,#286,$) ;
#335=AXIS2_PLACEMENT_3D('Cylinder Axis2P3D',#332,#333,#334) ;
#339=AXIS2_PLACEMENT_3D('Circle Axis2P3D',#337,#338,$) ;
#346=AXIS2_PLACEMENT_3D('Circle Axis2P3D',#344,#345,$) ;
#392=AXIS2_PLACEMENT_3D('Cylinder Axis2P3D',#389,#390,#391) ;
#396=AXIS2_PLACEMENT_3D('Circle Axis2P3D',#394,#395,$) ;
#401=AXIS2_PLACEMENT_3D('Circle Axis2P3D',#399,#400,$) ;
#449=AXIS2_PLACEMENT_3D('Cylinder Axis2P3D',#446,#447,#448) ;
#453=AXIS2_PLACEMENT_3D('Circle Axis2P3D',#451,#452,$) ;
#460=AXIS2_PLACEMENT_3D('Circle Axis2P3D',#458,#459,$) ;
#506=AXIS2_PLACEMENT_3D('Cylinder Axis2P3D',#503,#504,#505) ;
#510=AXIS2_PLACEMENT_3D('Circle Axis2P3D',#508,#509,$) ;
#515=AXIS2_PLACEMENT_3D('Circle Axis2P3D',#513,#514,$) ;
#528=AXIS2_PLACEMENT_3D('Plane Axis2P3D',#525,#526,#527) ;
#558=AXIS2_PLACEMENT_3D('Plane Axis2P3D',#555,#556,#557) ;
#17=CARTESIAN_POINT(' ',(0.,0.,0.)) ;
#21=CARTESIAN_POINT('Axis2P3D Location',(0.,0.,0.)) ;
#28=CARTESIAN_POINT('Axis2P3D Location',(0.,0.,0.)) ;
#33=CARTESIAN_POINT('Axis2P3D Location',(0.,0.,0.)) ;
#49=CARTESIAN_POINT('Axis2P3D Location',(1.7763568394E-015,0.,0.)) ;
#54=CARTESIAN_POINT('Line Origine',(1.7763568394E-015,0.,0.5)) ;
#58=CARTESIAN_POINT('Vertex',(1.7763568394E-015,0.,0.)) ;
#60=CARTESIAN_POINT('Vertex',(1.7763568394E-015,0.,1.)) ;
#63=CARTESIAN_POINT('Line Origine',(10.9,-2.00229751661E-015,0.)) ;
#67=CARTESIAN_POINT('Vertex',(21.8,-4.00459503321E-015,0.)) ;
#70=CARTESIAN_POINT('Line Origine',(21.8,-4.00459503321E-015,0.5)) ;
#74=CARTESIAN_POINT('Vertex',(21.8,-4.00459503321E-015,1.)) ;
#77=CARTESIAN_POINT('Line Origine',(10.9,-2.00229751661E-015,1.)) ;
#89=CARTESIAN_POINT('Axis2P3D Location',(21.8,-4.00459503321E-015,0.)) ;
#94=CARTESIAN_POINT('Line Origine',(21.8,3.,0.)) ;
#98=CARTESIAN_POINT('Vertex',(21.8,6.,0.)) ;
#101=CARTESIAN_POINT('Line Origine',(21.8,6.,0.5)) ;
#105=CARTESIAN_POINT('Vertex',(21.8,6.,1.)) ;
#108=CARTESIAN_POINT('Line Origine',(21.8,3.,1.)) ;
#120=CARTESIAN_POINT('Axis2P3D Location',(21.8,6.,0.)) ;
#125=CARTESIAN_POINT('Line Origine',(10.9,6.,0.)) ;
#129=CARTESIAN_POINT('Vertex',(0.,6.,0.)) ;
#132=CARTESIAN_POINT('Line Origine',(0.,6.,0.5)) ;
#136=CARTESIAN_POINT('Vertex',(0.,6.,1.)) ;
#139=CARTESIAN_POINT('Line Origine',(10.9,6.,1.)) ;
#151=CARTESIAN_POINT('Axis2P3D Location',(1.10218211923E-015,6.,0.)) ;
#156=CARTESIAN_POINT('Line Origine',(5.51091059616E-016,3.,0.)) ;
#161=CARTESIAN_POINT('Line Origine',(5.51091059616E-016,3.,1.)) ;
#173=CARTESIAN_POINT('Axis2P3D Location',(1.5562635282,1.475,0.)) ;
#178=CARTESIAN_POINT('Line Origine',(3.,1.475,1.)) ;
#182=CARTESIAN_POINT('Vertex',(1.5562635282,1.475,1.)) ;
#184=CARTESIAN_POINT('Vertex',(4.4437364718,1.475,1.)) ;
#187=CARTESIAN_POINT('Line Origine',(4.4437364718,1.475,0.5)) ;
#191=CARTESIAN_POINT('Vertex',(4.4437364718,1.475,0.)) ;
#194=CARTESIAN_POINT('Line Origine',(3.,1.475,0.)) ;
#198=CARTESIAN_POINT('Vertex',(1.5562635282,1.475,0.)) ;
#201=CARTESIAN_POINT('Line Origine',(1.5562635282,1.475,0.5)) ;
#213=CARTESIAN_POINT('Axis2P3D Location',(3.,3.,0.5)) ;
#218=CARTESIAN_POINT('Axis2P3D Location',(3.,3.,1.)) ;
#222=CARTESIAN_POINT('Vertex',(1.5562635282,4.525,1.)) ;
#225=CARTESIAN_POINT('Axis2P3D Location',(3.,3.,0.)) ;
#229=CARTESIAN_POINT('Vertex',(1.5562635282,4.525,0.)) ;
#232=CARTESIAN_POINT('Line Origine',(1.5562635282,4.525,0.5)) ;
#244=CARTESIAN_POINT('Axis2P3D Location',(1.5562635282,4.525,0.)) ;
#249=CARTESIAN_POINT('Line Origine',(3.,4.525,1.)) ;
#253=CARTESIAN_POINT('Vertex',(4.4437364718,4.525,1.)) ;
#256=CARTESIAN_POINT('Line Origine',(3.,4.525,0.)) ;
#260=CARTESIAN_POINT('Vertex',(4.4437364718,4.525,0.)) ;
#263=CARTESIAN_POINT('Line Origine',(4.4437364718,4.525,0.5)) ;
#275=CARTESIAN_POINT('Axis2P3D Location',(3.,3.,0.5)) ;
#280=CARTESIAN_POINT('Axis2P3D Location',(3.,3.,1.)) ;
#285=CARTESIAN_POINT('Axis2P3D Location',(3.,3.,0.)) ;
#297=CARTESIAN_POINT('Line Origine',(10.9,1.475,1.)) ;
#301=CARTESIAN_POINT('Vertex',(9.4562635282,1.475,1.)) ;
#303=CARTESIAN_POINT('Vertex',(12.3437364718,1.475,1.)) ;
#306=CARTESIAN_POINT('Line Origine',(12.3437364718,1.475,0.5)) ;
#310=CARTESIAN_POINT('Vertex',(12.3437364718,1.475,0.)) ;
#313=CARTESIAN_POINT('Line Origine',(10.9,1.475,0.)) ;
#317=CARTESIAN_POINT('Vertex',(9.4562635282,1.475,0.)) ;
#320=CARTESIAN_POINT('Line Origine',(9.4562635282,1.475,0.5)) ;
#332=CARTESIAN_POINT('Axis2P3D Location',(10.9,3.,0.5)) ;
#337=CARTESIAN_POINT('Axis2P3D Location',(10.9,3.,1.)) ;
#341=CARTESIAN_POINT('Vertex',(9.4562635282,4.525,1.)) ;
#344=CARTESIAN_POINT('Axis2P3D Location',(10.9,3.,0.)) ;
#348=CARTESIAN_POINT('Vertex',(9.4562635282,4.525,0.)) ;
#351=CARTESIAN_POINT('Line Origine',(9.4562635282,4.525,0.5)) ;
#363=CARTESIAN_POINT('Line Origine',(10.9,4.525,1.)) ;
#367=CARTESIAN_POINT('Vertex',(12.3437364718,4.525,1.)) ;
#370=CARTESIAN_POINT('Line Origine',(10.9,4.525,0.)) ;
#374=CARTESIAN_POINT('Vertex',(12.3437364718,4.525,0.)) ;
#377=CARTESIAN_POINT('Line Origine',(12.3437364718,4.525,0.5)) ;
#389=CARTESIAN_POINT('Axis2P3D Location',(10.9,3.,0.5)) ;
#394=CARTESIAN_POINT('Axis2P3D Location',(10.9,3.,1.)) ;
#399=CARTESIAN_POINT('Axis2P3D Location',(10.9,3.,0.)) ;
#411=CARTESIAN_POINT('Line Origine',(18.8,1.475,1.)) ;
#415=CARTESIAN_POINT('Vertex',(17.3562635282,1.475,1.)) ;
#417=CARTESIAN_POINT('Vertex',(20.2437364718,1.475,1.)) ;
#420=CARTESIAN_POINT('Line Origine',(20.2437364718,1.475,0.5)) ;
#424=CARTESIAN_POINT('Vertex',(20.2437364718,1.475,0.)) ;
#427=CARTESIAN_POINT('Line Origine',(18.8,1.475,0.)) ;
#431=CARTESIAN_POINT('Vertex',(17.3562635282,1.475,0.)) ;
#434=CARTESIAN_POINT('Line Origine',(17.3562635282,1.475,0.5)) ;
#446=CARTESIAN_POINT('Axis2P3D Location',(18.8,3.,0.5)) ;
#451=CARTESIAN_POINT('Axis2P3D Location',(18.8,3.,1.)) ;
#455=CARTESIAN_POINT('Vertex',(17.3562635282,4.525,1.)) ;
#458=CARTESIAN_POINT('Axis2P3D Location',(18.8,3.,0.)) ;
#462=CARTESIAN_POINT('Vertex',(17.3562635282,4.525,0.)) ;
#465=CARTESIAN_POINT('Line Origine',(17.3562635282,4.525,0.5)) ;
#477=CARTESIAN_POINT('Line Origine',(18.8,4.525,1.)) ;
#481=CARTESIAN_POINT('Vertex',(20.2437364718,4.525,1.)) ;
#484=CARTESIAN_POINT('Line Origine',(18.8,4.525,0.)) ;
#488=CARTESIAN_POINT('Vertex',(20.2437364718,4.525,0.)) ;
#491=CARTESIAN_POINT('Line Origine',(20.2437364718,4.525,0.5)) ;
#503=CARTESIAN_POINT('Axis2P3D Location',(18.8,3.,0.5)) ;
#508=CARTESIAN_POINT('Axis2P3D Location',(18.8,3.,1.)) ;
#513=CARTESIAN_POINT('Axis2P3D Location',(18.8,3.,0.)) ;
#525=CARTESIAN_POINT('Axis2P3D Location',(0.,0.,0.)) ;
#555=CARTESIAN_POINT('Axis2P3D Location',(0.,0.,1.)) ;
#22=DIRECTION('Axis2P3D Direction',(0.,0.,1.)) ;
#23=DIRECTION('Axis2P3D XDirection',(1.,0.,0.)) ;
#29=DIRECTION('Axis2P3D Direction',(1.,0.,0.)) ;
#30=DIRECTION('Axis2P3D XDirection',(0.,1.,0.)) ;
#34=DIRECTION('Axis2P3D Direction',(0.,1.,0.)) ;
#35=DIRECTION('Axis2P3D XDirection',(0.,0.,1.)) ;
#50=DIRECTION('Axis2P3D Direction',(-1.83697019872E-016,-1.,0.)) ;
#51=DIRECTION('Axis2P3D XDirection',(1.,-1.83697019872E-016,-0.)) ;
#55=DIRECTION('Vector Direction',(0.,0.,1.)) ;
#64=DIRECTION('Vector Direction',(1.,-1.83697019872E-016,0.)) ;
#71=DIRECTION('Vector Direction',(0.,0.,1.)) ;
#78=DIRECTION('Vector Direction',(1.,-1.83697019872E-016,0.)) ;
#90=DIRECTION('Axis2P3D Direction',(1.,0.,0.)) ;
#91=DIRECTION('Axis2P3D XDirection',(0.,1.,0.)) ;
#95=DIRECTION('Vector Direction',(0.,1.,0.)) ;
#102=DIRECTION('Vector Direction',(0.,0.,1.)) ;
#109=DIRECTION('Vector Direction',(0.,1.,0.)) ;
#121=DIRECTION('Axis2P3D Direction',(0.,1.,-0.)) ;
#122=DIRECTION('Axis2P3D XDirection',(-1.,0.,0.)) ;
#126=DIRECTION('Vector Direction',(-1.,0.,0.)) ;
#133=DIRECTION('Vector Direction',(0.,0.,1.)) ;
#140=DIRECTION('Vector Direction',(-1.,0.,0.)) ;
#152=DIRECTION('Axis2P3D Direction',(-1.,1.83697019872E-016,0.)) ;
#153=DIRECTION('Axis2P3D XDirection',(-1.83697019872E-016,-1.,0.)) ;
#157=DIRECTION('Vector Direction',(-1.83697019872E-016,-1.,0.)) ;
#162=DIRECTION('Vector Direction',(-1.83697019872E-016,-1.,0.)) ;
#174=DIRECTION('Axis2P3D Direction',(-2.3069785511E-016,-1.,0.)) ;
#175=DIRECTION('Axis2P3D XDirection',(1.,-2.3069785511E-016,-0.)) ;
#179=DIRECTION('Vector Direction',(1.,-2.3069785511E-016,0.)) ;
#188=DIRECTION('Vector Direction',(0.,0.,1.)) ;
#195=DIRECTION('Vector Direction',(1.,-2.3069785511E-016,0.)) ;
#202=DIRECTION('Vector Direction',(0.,0.,1.)) ;
#214=DIRECTION('Axis2P3D Direction',(0.,-0.,1.)) ;
#215=DIRECTION('Axis2P3D XDirection',(-0.687493557999,0.72619047619,0.)) ;
#219=DIRECTION('Axis2P3D Direction',(0.,-0.,1.)) ;
#226=DIRECTION('Axis2P3D Direction',(0.,-0.,1.)) ;
#233=DIRECTION('Vector Direction',(0.,0.,1.)) ;
#245=DIRECTION('Axis2P3D Direction',(-3.07597140146E-016,-1.,0.)) ;
#246=DIRECTION('Axis2P3D XDirection',(1.,-3.07597140146E-016,-0.)) ;
#250=DIRECTION('Vector Direction',(1.,-3.07597140146E-016,0.)) ;
#257=DIRECTION('Vector Direction',(1.,-3.07597140146E-016,0.)) ;
#264=DIRECTION('Vector Direction',(0.,0.,1.)) ;
#276=DIRECTION('Axis2P3D Direction',(0.,-0.,1.)) ;
#277=DIRECTION('Axis2P3D XDirection',(0.687493557999,-0.72619047619,-0.)) ;
#281=DIRECTION('Axis2P3D Direction',(0.,-0.,1.)) ;
#286=DIRECTION('Axis2P3D Direction',(0.,-0.,1.)) ;
#298=DIRECTION('Vector Direction',(1.,-2.3069785511E-016,0.)) ;
#307=DIRECTION('Vector Direction',(0.,0.,1.)) ;
#314=DIRECTION('Vector Direction',(1.,-2.3069785511E-016,0.)) ;
#321=DIRECTION('Vector Direction',(0.,0.,1.)) ;
#333=DIRECTION('Axis2P3D Direction',(0.,-0.,1.)) ;
#334=DIRECTION('Axis2P3D XDirection',(-0.687493557999,0.72619047619,0.)) ;
#338=DIRECTION('Axis2P3D Direction',(0.,-0.,1.)) ;
#345=DIRECTION('Axis2P3D Direction',(0.,-0.,1.)) ;
#352=DIRECTION('Vector Direction',(0.,0.,1.)) ;
#364=DIRECTION('Vector Direction',(1.,-3.07597140146E-016,0.)) ;
#371=DIRECTION('Vector Direction',(1.,-3.07597140146E-016,0.)) ;
#378=DIRECTION('Vector Direction',(0.,0.,1.)) ;
#390=DIRECTION('Axis2P3D Direction',(0.,-0.,1.)) ;
#391=DIRECTION('Axis2P3D XDirection',(0.687493557999,-0.72619047619,-0.)) ;
#395=DIRECTION('Axis2P3D Direction',(0.,-0.,1.)) ;
#400=DIRECTION('Axis2P3D Direction',(0.,-0.,1.)) ;
#412=DIRECTION('Vector Direction',(1.,-2.3069785511E-016,0.)) ;
#421=DIRECTION('Vector Direction',(0.,0.,1.)) ;
#428=DIRECTION('Vector Direction',(1.,-2.3069785511E-016,0.)) ;
#435=DIRECTION('Vector Direction',(0.,0.,1.)) ;
#447=DIRECTION('Axis2P3D Direction',(0.,-0.,1.)) ;
#448=DIRECTION('Axis2P3D XDirection',(-0.687493557999,0.72619047619,0.)) ;
#452=DIRECTION('Axis2P3D Direction',(0.,-0.,1.)) ;
#459=DIRECTION('Axis2P3D Direction',(0.,-0.,1.)) ;
#466=DIRECTION('Vector Direction',(0.,0.,1.)) ;
#478=DIRECTION('Vector Direction',(1.,-3.07597140146E-016,0.)) ;
#485=DIRECTION('Vector Direction',(1.,-3.07597140146E-016,0.)) ;
#492=DIRECTION('Vector Direction',(0.,0.,1.)) ;
#504=DIRECTION('Axis2P3D Direction',(0.,-0.,1.)) ;
#505=DIRECTION('Axis2P3D XDirection',(0.687493557999,-0.72619047619,-0.)) ;
#509=DIRECTION('Axis2P3D Direction',(0.,-0.,1.)) ;
#514=DIRECTION('Axis2P3D Direction',(0.,-0.,1.)) ;
#526=DIRECTION('Axis2P3D Direction',(0.,-0.,1.)) ;
#527=DIRECTION('Axis2P3D XDirection',(0.,1.,0.)) ;
#556=DIRECTION('Axis2P3D Direction',(0.,-0.,1.)) ;
#557=DIRECTION('Axis2P3D XDirection',(0.,1.,0.)) ;
#47=PRESENTATION_LAYER_ASSIGNMENT('1',' ',(#38)) ;
#8=PRODUCT_RELATED_PRODUCT_CATEGORY('part',$,(#5)) ;
#7=PRODUCT_CATEGORY('part','specification') ;
#46=STYLED_ITEM(' ',(#45),#38) ;
#45=PRESENTATION_STYLE_ASSIGNMENT((#44)) ;
#44=SURFACE_STYLE_USAGE(.BOTH.,#43) ;
#43=SURFACE_SIDE_STYLE(' ',(#42)) ;
#42=SURFACE_STYLE_FILL_AREA(#41) ;
#41=FILL_AREA_STYLE(' ',(#40)) ;
#40=FILL_AREA_STYLE_COLOUR(' ',#39) ;
#56=VECTOR('Line Direction',#55,1.) ;
#65=VECTOR('Line Direction',#64,1.) ;
#72=VECTOR('Line Direction',#71,1.) ;
#79=VECTOR('Line Direction',#78,1.) ;
#96=VECTOR('Line Direction',#95,1.) ;
#103=VECTOR('Line Direction',#102,1.) ;
#110=VECTOR('Line Direction',#109,1.) ;
#127=VECTOR('Line Direction',#126,1.) ;
#134=VECTOR('Line Direction',#133,1.) ;
#141=VECTOR('Line Direction',#140,1.) ;
#158=VECTOR('Line Direction',#157,1.) ;
#163=VECTOR('Line Direction',#162,1.) ;
#180=VECTOR('Line Direction',#179,1.) ;
#189=VECTOR('Line Direction',#188,1.) ;
#196=VECTOR('Line Direction',#195,1.) ;
#203=VECTOR('Line Direction',#202,1.) ;
#234=VECTOR('Line Direction',#233,1.) ;
#251=VECTOR('Line Direction',#250,1.) ;
#258=VECTOR('Line Direction',#257,1.) ;
#265=VECTOR('Line Direction',#264,1.) ;
#299=VECTOR('Line Direction',#298,1.) ;
#308=VECTOR('Line Direction',#307,1.) ;
#315=VECTOR('Line Direction',#314,1.) ;
#322=VECTOR('Line Direction',#321,1.) ;
#353=VECTOR('Line Direction',#352,1.) ;
#365=VECTOR('Line Direction',#364,1.) ;
#372=VECTOR('Line Direction',#371,1.) ;
#379=VECTOR('Line Direction',#378,1.) ;
#413=VECTOR('Line Direction',#412,1.) ;
#422=VECTOR('Line Direction',#421,1.) ;
#429=VECTOR('Line Direction',#428,1.) ;
#436=VECTOR('Line Direction',#435,1.) ;
#467=VECTOR('Line Direction',#466,1.) ;
#479=VECTOR('Line Direction',#478,1.) ;
#486=VECTOR('Line Direction',#485,1.) ;
#493=VECTOR('Line Direction',#492,1.) ;
#15=UNCERTAINTY_MEASURE_WITH_UNIT(LENGTH_MEASURE(0.005),#12,'distance_accuracy_value','CONFUSED CURVE UNCERTAINTY') ;
#586=SHAPE_REPRESENTATION_RELATIONSHIP(' ',' ',#19,#585) ;
#83=ORIENTED_EDGE('',*,*,#62,.F.) ;
#84=ORIENTED_EDGE('',*,*,#69,.T.) ;
#85=ORIENTED_EDGE('',*,*,#76,.T.) ;
#86=ORIENTED_EDGE('',*,*,#81,.F.) ;
#114=ORIENTED_EDGE('',*,*,#76,.F.) ;
#115=ORIENTED_EDGE('',*,*,#100,.T.) ;
#116=ORIENTED_EDGE('',*,*,#107,.T.) ;
#117=ORIENTED_EDGE('',*,*,#112,.F.) ;
#145=ORIENTED_EDGE('',*,*,#107,.F.) ;
#146=ORIENTED_EDGE('',*,*,#131,.T.) ;
#147=ORIENTED_EDGE('',*,*,#138,.T.) ;
#148=ORIENTED_EDGE('',*,*,#143,.F.) ;
#167=ORIENTED_EDGE('',*,*,#138,.F.) ;
#168=ORIENTED_EDGE('',*,*,#160,.T.) ;
#169=ORIENTED_EDGE('',*,*,#62,.T.) ;
#170=ORIENTED_EDGE('',*,*,#165,.F.) ;
#207=ORIENTED_EDGE('',*,*,#186,.T.) ;
#208=ORIENTED_EDGE('',*,*,#193,.F.) ;
#209=ORIENTED_EDGE('',*,*,#200,.F.) ;
#210=ORIENTED_EDGE('',*,*,#205,.T.) ;
#238=ORIENTED_EDGE('',*,*,#224,.T.) ;
#239=ORIENTED_EDGE('',*,*,#205,.F.) ;
#240=ORIENTED_EDGE('',*,*,#231,.F.) ;
#241=ORIENTED_EDGE('',*,*,#236,.T.) ;
#269=ORIENTED_EDGE('',*,*,#255,.T.) ;
#270=ORIENTED_EDGE('',*,*,#236,.F.) ;
#271=ORIENTED_EDGE('',*,*,#262,.F.) ;
#272=ORIENTED_EDGE('',*,*,#267,.T.) ;
#291=ORIENTED_EDGE('',*,*,#284,.T.) ;
#292=ORIENTED_EDGE('',*,*,#267,.F.) ;
#293=ORIENTED_EDGE('',*,*,#289,.F.) ;
#294=ORIENTED_EDGE('',*,*,#193,.T.) ;
#326=ORIENTED_EDGE('',*,*,#305,.T.) ;
#327=ORIENTED_EDGE('',*,*,#312,.F.) ;
#328=ORIENTED_EDGE('',*,*,#319,.F.) ;
#329=ORIENTED_EDGE('',*,*,#324,.T.) ;
#357=ORIENTED_EDGE('',*,*,#343,.T.) ;
#358=ORIENTED_EDGE('',*,*,#324,.F.) ;
#359=ORIENTED_EDGE('',*,*,#350,.F.) ;
#360=ORIENTED_EDGE('',*,*,#355,.T.) ;
#383=ORIENTED_EDGE('',*,*,#369,.T.) ;
#384=ORIENTED_EDGE('',*,*,#355,.F.) ;
#385=ORIENTED_EDGE('',*,*,#376,.F.) ;
#386=ORIENTED_EDGE('',*,*,#381,.T.) ;
#405=ORIENTED_EDGE('',*,*,#398,.T.) ;
#406=ORIENTED_EDGE('',*,*,#381,.F.) ;
#407=ORIENTED_EDGE('',*,*,#403,.F.) ;
#408=ORIENTED_EDGE('',*,*,#312,.T.) ;
#440=ORIENTED_EDGE('',*,*,#419,.T.) ;
#441=ORIENTED_EDGE('',*,*,#426,.F.) ;
#442=ORIENTED_EDGE('',*,*,#433,.F.) ;
#443=ORIENTED_EDGE('',*,*,#438,.T.) ;
#471=ORIENTED_EDGE('',*,*,#457,.T.) ;
#472=ORIENTED_EDGE('',*,*,#438,.F.) ;
#473=ORIENTED_EDGE('',*,*,#464,.F.) ;
#474=ORIENTED_EDGE('',*,*,#469,.T.) ;
#497=ORIENTED_EDGE('',*,*,#483,.T.) ;
#498=ORIENTED_EDGE('',*,*,#469,.F.) ;
#499=ORIENTED_EDGE('',*,*,#490,.F.) ;
#500=ORIENTED_EDGE('',*,*,#495,.T.) ;
#519=ORIENTED_EDGE('',*,*,#512,.T.) ;
#520=ORIENTED_EDGE('',*,*,#495,.F.) ;
#521=ORIENTED_EDGE('',*,*,#517,.F.) ;
#522=ORIENTED_EDGE('',*,*,#426,.T.) ;
#531=ORIENTED_EDGE('',*,*,#160,.F.) ;
#532=ORIENTED_EDGE('',*,*,#131,.F.) ;
#533=ORIENTED_EDGE('',*,*,#100,.F.) ;
#534=ORIENTED_EDGE('',*,*,#69,.F.) ;
#537=ORIENTED_EDGE('',*,*,#289,.T.) ;
#538=ORIENTED_EDGE('',*,*,#262,.T.) ;
#539=ORIENTED_EDGE('',*,*,#231,.T.) ;
#540=ORIENTED_EDGE('',*,*,#200,.T.) ;
#543=ORIENTED_EDGE('',*,*,#403,.T.) ;
#544=ORIENTED_EDGE('',*,*,#376,.T.) ;
#545=ORIENTED_EDGE('',*,*,#350,.T.) ;
#546=ORIENTED_EDGE('',*,*,#319,.T.) ;
#549=ORIENTED_EDGE('',*,*,#517,.T.) ;
#550=ORIENTED_EDGE('',*,*,#490,.T.) ;
#551=ORIENTED_EDGE('',*,*,#464,.T.) ;
#552=ORIENTED_EDGE('',*,*,#433,.T.) ;
#561=ORIENTED_EDGE('',*,*,#81,.T.) ;
#562=ORIENTED_EDGE('',*,*,#112,.T.) ;
#563=ORIENTED_EDGE('',*,*,#143,.T.) ;
#564=ORIENTED_EDGE('',*,*,#165,.T.) ;
#567=ORIENTED_EDGE('',*,*,#186,.F.) ;
#568=ORIENTED_EDGE('',*,*,#224,.F.) ;
#569=ORIENTED_EDGE('',*,*,#255,.F.) ;
#570=ORIENTED_EDGE('',*,*,#284,.F.) ;
#573=ORIENTED_EDGE('',*,*,#305,.F.) ;
#574=ORIENTED_EDGE('',*,*,#343,.F.) ;
#575=ORIENTED_EDGE('',*,*,#369,.F.) ;
#576=ORIENTED_EDGE('',*,*,#398,.F.) ;
#579=ORIENTED_EDGE('',*,*,#419,.F.) ;
#580=ORIENTED_EDGE('',*,*,#457,.F.) ;
#581=ORIENTED_EDGE('',*,*,#483,.F.) ;
#582=ORIENTED_EDGE('',*,*,#512,.F.) ;
#541=FACE_BOUND('',#536,.T.) ;
#547=FACE_BOUND('',#542,.T.) ;
#553=FACE_BOUND('',#548,.T.) ;
#571=FACE_BOUND('',#566,.T.) ;
#577=FACE_BOUND('',#572,.T.) ;
#583=FACE_BOUND('',#578,.T.) ;
#48=CLOSED_SHELL('Closed Shell',(#88,#119,#150,#172,#212,#243,#274,#296,#331,#362,#388,#410,#445,#476,#502,#524,#554,#584)) ;
#585=ADVANCED_BREP_SHAPE_REPRESENTATION('NONE',(#38),#16) ;
#88=ADVANCED_FACE('Koerper.2',(#87),#53,.T.) ;
#119=ADVANCED_FACE('Koerper.2',(#118),#93,.T.) ;
#150=ADVANCED_FACE('Koerper.2',(#149),#124,.T.) ;
#172=ADVANCED_FACE('Koerper.2',(#171),#155,.T.) ;
#212=ADVANCED_FACE('Koerper.2',(#211),#177,.F.) ;
#243=ADVANCED_FACE('Koerper.2',(#242),#217,.F.) ;
#274=ADVANCED_FACE('Koerper.2',(#273),#248,.T.) ;
#296=ADVANCED_FACE('Koerper.2',(#295),#279,.F.) ;
#331=ADVANCED_FACE('Koerper.2',(#330),#177,.F.) ;
#362=ADVANCED_FACE('Koerper.2',(#361),#336,.F.) ;
#388=ADVANCED_FACE('Koerper.2',(#387),#248,.T.) ;
#410=ADVANCED_FACE('Koerper.2',(#409),#393,.F.) ;
#445=ADVANCED_FACE('Koerper.2',(#444),#177,.F.) ;
#476=ADVANCED_FACE('Koerper.2',(#475),#450,.F.) ;
#502=ADVANCED_FACE('Koerper.2',(#501),#248,.T.) ;
#524=ADVANCED_FACE('Koerper.2',(#523),#507,.F.) ;
#554=ADVANCED_FACE('Koerper.2',(#535,#541,#547,#553),#529,.F.) ;
#584=ADVANCED_FACE('Koerper.2',(#565,#571,#577,#583),#559,.T.) ;
#4=APPLICATION_PROTOCOL_DEFINITION('international standard','automotive_design',2001,#1) ;
#38=MANIFOLD_SOLID_BREP('Koerper.2',#48) ;
#221=CIRCLE('generated circle',#220,2.1) ;
#228=CIRCLE('generated circle',#227,2.1) ;
#283=CIRCLE('generated circle',#282,2.1) ;
#288=CIRCLE('generated circle',#287,2.1) ;
#340=CIRCLE('generated circle',#339,2.1) ;
#347=CIRCLE('generated circle',#346,2.1) ;
#397=CIRCLE('generated circle',#396,2.1) ;
#402=CIRCLE('generated circle',#401,2.1) ;
#454=CIRCLE('generated circle',#453,2.1) ;
#461=CIRCLE('generated circle',#460,2.1) ;
#511=CIRCLE('generated circle',#510,2.1) ;
#516=CIRCLE('generated circle',#515,2.1) ;
#39=COLOUR_RGB('Colour',0.823529411765,0.823529411765,1.) ;
#26=CONSTRUCTIVE_GEOMETRY_REPRESENTATION('supplemental geometry',(#25,#32,#37),#16) ;
#27=CONSTRUCTIVE_GEOMETRY_REPRESENTATION_RELATIONSHIP('supplemental geometry','',#19,#26) ;
#217=CYLINDRICAL_SURFACE('generated cylinder',#216,2.1) ;
#279=CYLINDRICAL_SURFACE('generated cylinder',#278,2.1) ;
#336=CYLINDRICAL_SURFACE('generated cylinder',#335,2.1) ;
#393=CYLINDRICAL_SURFACE('generated cylinder',#392,2.1) ;
#450=CYLINDRICAL_SURFACE('generated cylinder',#449,2.1) ;
#507=CYLINDRICAL_SURFACE('generated cylinder',#506,2.1) ;
#62=EDGE_CURVE('',#59,#61,#57,.T.) ;
#69=EDGE_CURVE('',#59,#68,#66,.T.) ;
#76=EDGE_CURVE('',#68,#75,#73,.T.) ;
#81=EDGE_CURVE('',#61,#75,#80,.T.) ;
#100=EDGE_CURVE('',#68,#99,#97,.T.) ;
#107=EDGE_CURVE('',#99,#106,#104,.T.) ;
#112=EDGE_CURVE('',#75,#106,#111,.T.) ;
#131=EDGE_CURVE('',#99,#130,#128,.T.) ;
#138=EDGE_CURVE('',#130,#137,#135,.T.) ;
#143=EDGE_CURVE('',#106,#137,#142,.T.) ;
#160=EDGE_CURVE('',#130,#59,#159,.T.) ;
#165=EDGE_CURVE('',#137,#61,#164,.T.) ;
#186=EDGE_CURVE('',#183,#185,#181,.T.) ;
#193=EDGE_CURVE('',#192,#185,#190,.T.) ;
#200=EDGE_CURVE('',#199,#192,#197,.T.) ;
#205=EDGE_CURVE('',#199,#183,#204,.T.) ;
#224=EDGE_CURVE('',#223,#183,#221,.T.) ;
#231=EDGE_CURVE('',#230,#199,#228,.T.) ;
#236=EDGE_CURVE('',#230,#223,#235,.T.) ;
#255=EDGE_CURVE('',#254,#223,#252,.F.) ;
#262=EDGE_CURVE('',#261,#230,#259,.F.) ;
#267=EDGE_CURVE('',#261,#254,#266,.T.) ;
#284=EDGE_CURVE('',#185,#254,#283,.T.) ;
#289=EDGE_CURVE('',#192,#261,#288,.T.) ;
#305=EDGE_CURVE('',#302,#304,#300,.T.) ;
#312=EDGE_CURVE('',#311,#304,#309,.T.) ;
#319=EDGE_CURVE('',#318,#311,#316,.T.) ;
#324=EDGE_CURVE('',#318,#302,#323,.T.) ;
#343=EDGE_CURVE('',#342,#302,#340,.T.) ;
#350=EDGE_CURVE('',#349,#318,#347,.T.) ;
#355=EDGE_CURVE('',#349,#342,#354,.T.) ;
#369=EDGE_CURVE('',#368,#342,#366,.F.) ;
#376=EDGE_CURVE('',#375,#349,#373,.F.) ;
#381=EDGE_CURVE('',#375,#368,#380,.T.) ;
#398=EDGE_CURVE('',#304,#368,#397,.T.) ;
#403=EDGE_CURVE('',#311,#375,#402,.T.) ;
#419=EDGE_CURVE('',#416,#418,#414,.T.) ;
#426=EDGE_CURVE('',#425,#418,#423,.T.) ;
#433=EDGE_CURVE('',#432,#425,#430,.T.) ;
#438=EDGE_CURVE('',#432,#416,#437,.T.) ;
#457=EDGE_CURVE('',#456,#416,#454,.T.) ;
#464=EDGE_CURVE('',#463,#432,#461,.T.) ;
#469=EDGE_CURVE('',#463,#456,#468,.T.) ;
#483=EDGE_CURVE('',#482,#456,#480,.F.) ;
#490=EDGE_CURVE('',#489,#463,#487,.F.) ;
#495=EDGE_CURVE('',#489,#482,#494,.T.) ;
#512=EDGE_CURVE('',#418,#482,#511,.T.) ;
#517=EDGE_CURVE('',#425,#489,#516,.T.) ;
#82=EDGE_LOOP('',(#83,#84,#85,#86)) ;
#113=EDGE_LOOP('',(#114,#115,#116,#117)) ;
#144=EDGE_LOOP('',(#145,#146,#147,#148)) ;
#166=EDGE_LOOP('',(#167,#168,#169,#170)) ;
#206=EDGE_LOOP('',(#207,#208,#209,#210)) ;
#237=EDGE_LOOP('',(#238,#239,#240,#241)) ;
#268=EDGE_LOOP('',(#269,#270,#271,#272)) ;
#290=EDGE_LOOP('',(#291,#292,#293,#294)) ;
#325=EDGE_LOOP('',(#326,#327,#328,#329)) ;
#356=EDGE_LOOP('',(#357,#358,#359,#360)) ;
#382=EDGE_LOOP('',(#383,#384,#385,#386)) ;
#404=EDGE_LOOP('',(#405,#406,#407,#408)) ;
#439=EDGE_LOOP('',(#440,#441,#442,#443)) ;
#470=EDGE_LOOP('',(#471,#472,#473,#474)) ;
#496=EDGE_LOOP('',(#497,#498,#499,#500)) ;
#518=EDGE_LOOP('',(#519,#520,#521,#522)) ;
#530=EDGE_LOOP('',(#531,#532,#533,#534)) ;
#536=EDGE_LOOP('',(#537,#538,#539,#540)) ;
#542=EDGE_LOOP('',(#543,#544,#545,#546)) ;
#548=EDGE_LOOP('',(#549,#550,#551,#552)) ;
#560=EDGE_LOOP('',(#561,#562,#563,#564)) ;
#566=EDGE_LOOP('',(#567,#568,#569,#570)) ;
#572=EDGE_LOOP('',(#573,#574,#575,#576)) ;
#578=EDGE_LOOP('',(#579,#580,#581,#582)) ;
#87=FACE_OUTER_BOUND('',#82,.T.) ;
#118=FACE_OUTER_BOUND('',#113,.T.) ;
#149=FACE_OUTER_BOUND('',#144,.T.) ;
#171=FACE_OUTER_BOUND('',#166,.T.) ;
#211=FACE_OUTER_BOUND('',#206,.T.) ;
#242=FACE_OUTER_BOUND('',#237,.T.) ;
#273=FACE_OUTER_BOUND('',#268,.T.) ;
#295=FACE_OUTER_BOUND('',#290,.T.) ;
#330=FACE_OUTER_BOUND('',#325,.T.) ;
#361=FACE_OUTER_BOUND('',#356,.T.) ;
#387=FACE_OUTER_BOUND('',#382,.T.) ;
#409=FACE_OUTER_BOUND('',#404,.T.) ;
#444=FACE_OUTER_BOUND('',#439,.T.) ;
#475=FACE_OUTER_BOUND('',#470,.T.) ;
#501=FACE_OUTER_BOUND('',#496,.T.) ;
#523=FACE_OUTER_BOUND('',#518,.T.) ;
#535=FACE_OUTER_BOUND('',#530,.T.) ;
#565=FACE_OUTER_BOUND('',#560,.T.) ;
#57=LINE('Line',#54,#56) ;
#66=LINE('Line',#63,#65) ;
#73=LINE('Line',#70,#72) ;
#80=LINE('Line',#77,#79) ;
#97=LINE('Line',#94,#96) ;
#104=LINE('Line',#101,#103) ;
#111=LINE('Line',#108,#110) ;
#128=LINE('Line',#125,#127) ;
#135=LINE('Line',#132,#134) ;
#142=LINE('Line',#139,#141) ;
#159=LINE('Line',#156,#158) ;
#164=LINE('Line',#161,#163) ;
#181=LINE('Line',#178,#180) ;
#190=LINE('Line',#187,#189) ;
#197=LINE('Line',#194,#196) ;
#204=LINE('Line',#201,#203) ;
#235=LINE('Line',#232,#234) ;
#252=LINE('Line',#249,#251) ;
#259=LINE('Line',#256,#258) ;
#266=LINE('Line',#263,#265) ;
#300=LINE('Line',#297,#299) ;
#309=LINE('Line',#306,#308) ;
#316=LINE('Line',#313,#315) ;
#323=LINE('Line',#320,#322) ;
#354=LINE('Line',#351,#353) ;
#366=LINE('Line',#363,#365) ;
#373=LINE('Line',#370,#372) ;
#380=LINE('Line',#377,#379) ;
#414=LINE('Line',#411,#413) ;
#423=LINE('Line',#420,#422) ;
#430=LINE('Line',#427,#429) ;
#437=LINE('Line',#434,#436) ;
#468=LINE('Line',#465,#467) ;
#480=LINE('Line',#477,#479) ;
#487=LINE('Line',#484,#486) ;
#494=LINE('Line',#491,#493) ;
#25=PLANE('Referenz_xy',#24) ;
#32=PLANE('Referenz_yz',#31) ;
#37=PLANE('Referenz_xz',#36) ;
#53=PLANE('',#52) ;
#93=PLANE('',#92) ;
#124=PLANE('',#123) ;
#155=PLANE('',#154) ;
#177=PLANE('',#176) ;
#248=PLANE('',#247) ;
#529=PLANE('',#528) ;
#559=PLANE('',#558) ;
#9=PRODUCT_CATEGORY_RELATIONSHIP(' ',' ',#7,#8) ;
#6=PRODUCT_DEFINITION_FORMATION_WITH_SPECIFIED_SOURCE('',' ',#5,.NOT_KNOWN.) ;
#20=SHAPE_DEFINITION_REPRESENTATION(#11,#19) ;
#59=VERTEX_POINT('',#58) ;
#61=VERTEX_POINT('',#60) ;
#68=VERTEX_POINT('',#67) ;
#75=VERTEX_POINT('',#74) ;
#99=VERTEX_POINT('',#98) ;
#106=VERTEX_POINT('',#105) ;
#130=VERTEX_POINT('',#129) ;
#137=VERTEX_POINT('',#136) ;
#183=VERTEX_POINT('',#182) ;
#185=VERTEX_POINT('',#184) ;
#192=VERTEX_POINT('',#191) ;
#199=VERTEX_POINT('',#198) ;
#223=VERTEX_POINT('',#222) ;
#230=VERTEX_POINT('',#229) ;
#254=VERTEX_POINT('',#253) ;
#261=VERTEX_POINT('',#260) ;
#302=VERTEX_POINT('',#301) ;
#304=VERTEX_POINT('',#303) ;
#311=VERTEX_POINT('',#310) ;
#318=VERTEX_POINT('',#317) ;
#342=VERTEX_POINT('',#341) ;
#349=VERTEX_POINT('',#348) ;
#368=VERTEX_POINT('',#367) ;
#375=VERTEX_POINT('',#374) ;
#416=VERTEX_POINT('',#415) ;
#418=VERTEX_POINT('',#417) ;
#425=VERTEX_POINT('',#424) ;
#432=VERTEX_POINT('',#431) ;
#456=VERTEX_POINT('',#455) ;
#463=VERTEX_POINT('',#462) ;
#482=VERTEX_POINT('',#481) ;
#489=VERTEX_POINT('',#488) ;
#12=(LENGTH_UNIT()NAMED_UNIT(*)SI_UNIT(.MILLI.,.METRE.)) ;
#13=(NAMED_UNIT(*)PLANE_ANGLE_UNIT()SI_UNIT($,.RADIAN.)) ;
#14=(NAMED_UNIT(*)SI_UNIT($,.STERADIAN.)SOLID_ANGLE_UNIT()) ;
#16=(GEOMETRIC_REPRESENTATION_CONTEXT(3)GLOBAL_UNCERTAINTY_ASSIGNED_CONTEXT((#15))GLOBAL_UNIT_ASSIGNED_CONTEXT((#12,#13,#14))REPRESENTATION_CONTEXT(' ',' ')) ;
ENDSEC;
END-ISO-10303-21;
