ISO-10303-21;
HEADER;
FILE_DESCRIPTION(('CATIA V5R19 STEP'),'2;1');

FILE_NAME ('D1450229_0', '2015-02-18T08:03:14+00:00', ('Weidmueller Interface'), ('Weidmueller'), 'CATIA Version 5 Release 20 SP 5 (IN-10)', 'CATIA V5 STEP AP214', 'none');

FILE_SCHEMA(('AUTOMOTIVE_DESIGN { 1 0 10303 214 1 1 1 1 }'));

ENDSEC;
/* file written by CATIA V5R20 */
DATA;
#5=PRODUCT('C CC 85/54 O4MM','','<Q-CHECKER_SEAL> Q-Checker Version 2.14.8  \X2\000A\X0\CATIA-Version         : Catia V5 R20 SP5 Build Date 01-06-2014.17.15\X2\000A\X0\Model size (in KByte) : 0\X2\000A\X0\Checking date         : 2014-10-20 11:28:31\X2\000A\X0\Checking profile      : ADMIN / Release_2D-3D - sav20121130 [CATPart]\X2\000A\X0\Model assessment      : In Ordnung (IO)\X2\000A\X0\Total weight sum      : 0\X2\000A\X0\<CROSS_CHECK_SUM>\X2\000A\X0\  <CHKSUM_DATE> 179390113 </CHKSUM_DATE>\X2\000A\X0\  <CHKSUM_ENTITIES> -1842404067 </CHKSUM_ENTITIES>\X2\000A\X0\  <CHKSUM_PROFILE> 1594213346 </CHKSUM_PROFILE>\X2\000A\X0\  <CHKSUM_DIMENSION> -186917087 </CHKSUM_DIMENSION>\X2\000A\X0\  <CHKSUM_PROJINTERSEC> -896974048 </CHKSUM_PROJINTERSEC>\X2\000A\X0\  <CHKSUM_IDENTCRV> -896974048 </CHKSUM_IDENTCRV>\X2\000A\X0\  <CHKSUM_INFINITY> 138018827 </CHKSUM_INFINITY>\X2\000A\X0\</CROSS_CHECK_SUM>\X2\000A\X0\</Q-CHECKER_SEAL> \X2\000A\X0\ \X2\000A\X0\ \X2\000A\X0\ \X2\000A\X0\ \X2\000A\X0\ \X2\000A\X0\ \X2\000A\X0\ \X2\000A\X0\ \X2\000A\X0\ \X2\000A\X0\ \X2\000A\X0\ \X2\000A\X0\ \X2\000A\X0\',(#2)) ;
#2=PRODUCT_CONTEXT(' ',#1,'mechanical') ;
#1=APPLICATION_CONTEXT('automotive design') ;
#10=PRODUCT_DEFINITION('',' ',#6,#3) ;
#3=PRODUCT_DEFINITION_CONTEXT('part definition',#1,' ') ;
#11=PRODUCT_DEFINITION_SHAPE(' ',' ',#10) ;
#463=MECHANICAL_DESIGN_GEOMETRIC_PRESENTATION_REPRESENTATION(' ',(#30),#17) ;
#20=SHAPE_REPRESENTATION(' ',(#19),#17) ;
#19=AXIS2_PLACEMENT_3D(' ',#18,$,$) ;
#36=AXIS2_PLACEMENT_3D('Plane Axis2P3D',#33,#34,#35) ;
#76=AXIS2_PLACEMENT_3D('Plane Axis2P3D',#73,#74,#75) ;
#105=AXIS2_PLACEMENT_3D('Circle Axis2P3D',#103,#104,$) ;
#114=AXIS2_PLACEMENT_3D('Circle Axis2P3D',#112,#113,$) ;
#123=AXIS2_PLACEMENT_3D('Circle Axis2P3D',#121,#122,$) ;
#132=AXIS2_PLACEMENT_3D('Circle Axis2P3D',#130,#131,$) ;
#141=AXIS2_PLACEMENT_3D('Circle Axis2P3D',#139,#140,$) ;
#150=AXIS2_PLACEMENT_3D('Circle Axis2P3D',#148,#149,$) ;
#159=AXIS2_PLACEMENT_3D('Circle Axis2P3D',#157,#158,$) ;
#168=AXIS2_PLACEMENT_3D('Circle Axis2P3D',#166,#167,$) ;
#179=AXIS2_PLACEMENT_3D('Plane Axis2P3D',#176,#177,#178) ;
#203=AXIS2_PLACEMENT_3D('Plane Axis2P3D',#200,#201,#202) ;
#225=AXIS2_PLACEMENT_3D('Circle Axis2P3D',#223,#224,$) ;
#234=AXIS2_PLACEMENT_3D('Circle Axis2P3D',#232,#233,$) ;
#243=AXIS2_PLACEMENT_3D('Circle Axis2P3D',#241,#242,$) ;
#252=AXIS2_PLACEMENT_3D('Circle Axis2P3D',#250,#251,$) ;
#261=AXIS2_PLACEMENT_3D('Circle Axis2P3D',#259,#260,$) ;
#270=AXIS2_PLACEMENT_3D('Circle Axis2P3D',#268,#269,$) ;
#279=AXIS2_PLACEMENT_3D('Circle Axis2P3D',#277,#278,$) ;
#288=AXIS2_PLACEMENT_3D('Circle Axis2P3D',#286,#287,$) ;
#299=AXIS2_PLACEMENT_3D('Plane Axis2P3D',#296,#297,#298) ;
#316=AXIS2_PLACEMENT_3D('Plane Axis2P3D',#313,#314,#315) ;
#328=AXIS2_PLACEMENT_3D('Cylinder Axis2P3D',#325,#326,#327) ;
#350=AXIS2_PLACEMENT_3D('Cylinder Axis2P3D',#347,#348,#349) ;
#362=AXIS2_PLACEMENT_3D('Cylinder Axis2P3D',#359,#360,#361) ;
#384=AXIS2_PLACEMENT_3D('Cylinder Axis2P3D',#381,#382,#383) ;
#396=AXIS2_PLACEMENT_3D('Cylinder Axis2P3D',#393,#394,#395) ;
#418=AXIS2_PLACEMENT_3D('Cylinder Axis2P3D',#415,#416,#417) ;
#430=AXIS2_PLACEMENT_3D('Cylinder Axis2P3D',#427,#428,#429) ;
#452=AXIS2_PLACEMENT_3D('Cylinder Axis2P3D',#449,#450,#451) ;
#18=CARTESIAN_POINT(' ',(0.,0.,0.)) ;
#33=CARTESIAN_POINT('Axis2P3D Location',(85.4,54.,0.8)) ;
#38=CARTESIAN_POINT('Line Origine',(42.6999999998,54.,-7.45060624308E-010)) ;
#42=CARTESIAN_POINT('Vertex',(85.4,54.,-7.45058015283E-010)) ;
#44=CARTESIAN_POINT('Vertex',(-3.72523296518E-010,54.,-7.45063233332E-010)) ;
#47=CARTESIAN_POINT('Line Origine',(-3.72523321011E-010,54.,0.399999999627)) ;
#51=CARTESIAN_POINT('Vertex',(-3.72523345504E-010,54.,0.8)) ;
#54=CARTESIAN_POINT('Line Origine',(42.6999999998,54.,0.8)) ;
#58=CARTESIAN_POINT('Vertex',(85.4,54.,0.8)) ;
#61=CARTESIAN_POINT('Line Origine',(85.4,54.,0.399999999627)) ;
#73=CARTESIAN_POINT('Axis2P3D Location',(42.7,27.,0.)) ;
#78=CARTESIAN_POINT('Line Origine',(85.3999999993,27.,2.61462091614E-015)) ;
#82=CARTESIAN_POINT('Vertex',(85.4000000004,-1.67652815358E-015,-7.45052797235E-010)) ;
#85=CARTESIAN_POINT('Line Origine',(42.7,0.,0.)) ;
#89=CARTESIAN_POINT('Vertex',(4.89858720115E-017,3.5527136788E-015,-7.45058015283E-010)) ;
#92=CARTESIAN_POINT('Line Origine',(7.45060901863E-010,27.,-2.61462091614E-015)) ;
#103=CARTESIAN_POINT('Axis2P3D Location',(5.2,5.,-2.2962127484E-015)) ;
#107=CARTESIAN_POINT('Vertex',(5.2,7.09999999963,-2.2962127484E-015)) ;
#109=CARTESIAN_POINT('Vertex',(5.2,2.90000000037,-2.2962127484E-015)) ;
#112=CARTESIAN_POINT('Axis2P3D Location',(5.2,5.,-2.2962127484E-015)) ;
#121=CARTESIAN_POINT('Axis2P3D Location',(5.2,49.,-2.2962127484E-015)) ;
#125=CARTESIAN_POINT('Vertex',(5.2,51.0999999996,-2.2962127484E-015)) ;
#127=CARTESIAN_POINT('Vertex',(5.2,46.9000000004,-2.2962127484E-015)) ;
#130=CARTESIAN_POINT('Axis2P3D Location',(5.2,49.,-2.2962127484E-015)) ;
#139=CARTESIAN_POINT('Axis2P3D Location',(80.2,5.,2.2962127484E-015)) ;
#143=CARTESIAN_POINT('Vertex',(80.2,7.09999999963,2.2962127484E-015)) ;
#145=CARTESIAN_POINT('Vertex',(80.2,2.90000000037,2.2962127484E-015)) ;
#148=CARTESIAN_POINT('Axis2P3D Location',(80.2,5.,2.2962127484E-015)) ;
#157=CARTESIAN_POINT('Axis2P3D Location',(80.2,49.,2.2962127484E-015)) ;
#161=CARTESIAN_POINT('Vertex',(80.2,51.0999999996,2.2962127484E-015)) ;
#163=CARTESIAN_POINT('Vertex',(80.2,46.9000000004,2.2962127484E-015)) ;
#166=CARTESIAN_POINT('Axis2P3D Location',(80.2,49.,2.2962127484E-015)) ;
#176=CARTESIAN_POINT('Axis2P3D Location',(0.,3.5527136788E-015,0.8)) ;
#181=CARTESIAN_POINT('Line Origine',(2.44929360058E-017,3.5527136788E-015,0.399999999627)) ;
#185=CARTESIAN_POINT('Vertex',(0.,3.5527136788E-015,0.8)) ;
#188=CARTESIAN_POINT('Line Origine',(1.65327317885E-015,27.,0.8)) ;
#200=CARTESIAN_POINT('Axis2P3D Location',(42.7,27.,0.8)) ;
#205=CARTESIAN_POINT('Line Origine',(42.7,0.,0.8)) ;
#209=CARTESIAN_POINT('Vertex',(85.4000000004,-1.67652815358E-015,0.8)) ;
#212=CARTESIAN_POINT('Line Origine',(85.3999999993,27.,0.8)) ;
#223=CARTESIAN_POINT('Axis2P3D Location',(5.2,5.,0.8)) ;
#227=CARTESIAN_POINT('Vertex',(5.2,2.90000000037,0.8)) ;
#229=CARTESIAN_POINT('Vertex',(5.2,7.09999999963,0.8)) ;
#232=CARTESIAN_POINT('Axis2P3D Location',(5.2,5.,0.8)) ;
#241=CARTESIAN_POINT('Axis2P3D Location',(5.2,49.,0.8)) ;
#245=CARTESIAN_POINT('Vertex',(5.2,46.9000000004,0.8)) ;
#247=CARTESIAN_POINT('Vertex',(5.2,51.0999999996,0.8)) ;
#250=CARTESIAN_POINT('Axis2P3D Location',(5.2,49.,0.8)) ;
#259=CARTESIAN_POINT('Axis2P3D Location',(80.2,5.,0.8)) ;
#263=CARTESIAN_POINT('Vertex',(80.2,2.90000000037,0.8)) ;
#265=CARTESIAN_POINT('Vertex',(80.2,7.09999999963,0.8)) ;
#268=CARTESIAN_POINT('Axis2P3D Location',(80.2,5.,0.8)) ;
#277=CARTESIAN_POINT('Axis2P3D Location',(80.2,49.,0.8)) ;
#281=CARTESIAN_POINT('Vertex',(80.2,46.9000000004,0.8)) ;
#283=CARTESIAN_POINT('Vertex',(80.2,51.0999999996,0.8)) ;
#286=CARTESIAN_POINT('Axis2P3D Location',(80.2,49.,0.8)) ;
#296=CARTESIAN_POINT('Axis2P3D Location',(85.4,54.,0.8)) ;
#301=CARTESIAN_POINT('Line Origine',(85.4,-1.49975978406E-033,0.399999999627)) ;
#313=CARTESIAN_POINT('Axis2P3D Location',(0.,3.5527136788E-015,0.8)) ;
#325=CARTESIAN_POINT('Axis2P3D Location',(5.2,5.,-0.2)) ;
#330=CARTESIAN_POINT('Line Origine',(5.2,7.1,-0.199999999255)) ;
#335=CARTESIAN_POINT('Line Origine',(5.2,2.9,-0.199999999255)) ;
#347=CARTESIAN_POINT('Axis2P3D Location',(5.2,5.,-0.2)) ;
#359=CARTESIAN_POINT('Axis2P3D Location',(5.2,49.,-0.2)) ;
#364=CARTESIAN_POINT('Line Origine',(5.2,51.1,-0.199999999255)) ;
#369=CARTESIAN_POINT('Line Origine',(5.2,46.9,-0.199999999255)) ;
#381=CARTESIAN_POINT('Axis2P3D Location',(5.2,49.,-0.2)) ;
#393=CARTESIAN_POINT('Axis2P3D Location',(80.2,5.,-0.2)) ;
#398=CARTESIAN_POINT('Line Origine',(80.2,7.1,-0.199999999255)) ;
#403=CARTESIAN_POINT('Line Origine',(80.2,2.9,-0.199999999255)) ;
#415=CARTESIAN_POINT('Axis2P3D Location',(80.2,5.,-0.2)) ;
#427=CARTESIAN_POINT('Axis2P3D Location',(80.2,49.,-0.2)) ;
#432=CARTESIAN_POINT('Line Origine',(80.2,51.1,-0.199999999255)) ;
#437=CARTESIAN_POINT('Line Origine',(80.2,46.9,-0.199999999255)) ;
#449=CARTESIAN_POINT('Axis2P3D Location',(80.2,49.,-0.2)) ;
#34=DIRECTION('Axis2P3D Direction',(-6.12323399574E-017,-1.,0.)) ;
#35=DIRECTION('Axis2P3D XDirection',(-1.,6.12323399574E-017,-6.12323399574E-017)) ;
#39=DIRECTION('Vector Direction',(-1.,8.32017254985E-017,-6.11012671629E-017)) ;
#48=DIRECTION('Vector Direction',(6.12323399873E-017,0.,-1.)) ;
#55=DIRECTION('Vector Direction',(-1.,8.32017254985E-017,-6.11012671629E-017)) ;
#62=DIRECTION('Vector Direction',(0.,0.,-1.)) ;
#74=DIRECTION('Axis2P3D Direction',(-6.12323399574E-017,3.74939945666E-033,1.)) ;
#75=DIRECTION('Axis2P3D XDirection',(-6.12323399574E-017,-1.,0.)) ;
#79=DIRECTION('Vector Direction',(0.,-1.,0.)) ;
#86=DIRECTION('Vector Direction',(1.,-6.12323399574E-017,6.12323399574E-017)) ;
#93=DIRECTION('Vector Direction',(0.,1.,0.)) ;
#104=DIRECTION('Axis2P3D Direction',(-6.12323399574E-017,3.74939945666E-033,1.)) ;
#113=DIRECTION('Axis2P3D Direction',(-6.12323399574E-017,3.74939945666E-033,1.)) ;
#122=DIRECTION('Axis2P3D Direction',(-6.12323399574E-017,3.74939945666E-033,1.)) ;
#131=DIRECTION('Axis2P3D Direction',(-6.12323399574E-017,3.74939945666E-033,1.)) ;
#140=DIRECTION('Axis2P3D Direction',(-6.12323399574E-017,3.74939945666E-033,1.)) ;
#149=DIRECTION('Axis2P3D Direction',(-6.12323399574E-017,3.74939945666E-033,1.)) ;
#158=DIRECTION('Axis2P3D Direction',(-6.12323399574E-017,3.74939945666E-033,1.)) ;
#167=DIRECTION('Axis2P3D Direction',(-6.12323399574E-017,3.74939945666E-033,1.)) ;
#177=DIRECTION('Axis2P3D Direction',(-1.,6.12323399574E-017,-6.12323399574E-017)) ;
#178=DIRECTION('Axis2P3D XDirection',(6.12323399574E-017,1.,0.)) ;
#182=DIRECTION('Vector Direction',(6.12323399574E-017,0.,-1.)) ;
#189=DIRECTION('Vector Direction',(6.12323399574E-017,1.,0.)) ;
#201=DIRECTION('Axis2P3D Direction',(-6.12323399574E-017,3.74939945666E-033,1.)) ;
#202=DIRECTION('Axis2P3D XDirection',(-6.12323399574E-017,-1.,0.)) ;
#206=DIRECTION('Vector Direction',(1.,-6.12323399574E-017,6.24012941252E-017)) ;
#213=DIRECTION('Vector Direction',(0.,-1.,0.)) ;
#224=DIRECTION('Axis2P3D Direction',(-6.12323399574E-017,3.74939945666E-033,1.)) ;
#233=DIRECTION('Axis2P3D Direction',(-6.12323399574E-017,3.74939945666E-033,1.)) ;
#242=DIRECTION('Axis2P3D Direction',(-6.12323399574E-017,3.74939945666E-033,1.)) ;
#251=DIRECTION('Axis2P3D Direction',(-6.12323399574E-017,3.74939945666E-033,1.)) ;
#260=DIRECTION('Axis2P3D Direction',(-6.12323399574E-017,3.74939945666E-033,1.)) ;
#269=DIRECTION('Axis2P3D Direction',(-6.12323399574E-017,3.74939945666E-033,1.)) ;
#278=DIRECTION('Axis2P3D Direction',(-6.12323399574E-017,3.74939945666E-033,1.)) ;
#287=DIRECTION('Axis2P3D Direction',(-6.12323399574E-017,3.74939945666E-033,1.)) ;
#297=DIRECTION('Axis2P3D Direction',(1.,-6.12323399574E-017,6.12323399574E-017)) ;
#298=DIRECTION('Axis2P3D XDirection',(-6.12323399574E-017,-1.,0.)) ;
#302=DIRECTION('Vector Direction',(0.,-3.74939945666E-033,-1.)) ;
#314=DIRECTION('Axis2P3D Direction',(6.12323399574E-017,1.,0.)) ;
#315=DIRECTION('Axis2P3D XDirection',(1.,-6.12323399574E-017,6.12323399574E-017)) ;
#326=DIRECTION('Axis2P3D Direction',(-6.12323399574E-017,3.74939945666E-033,1.)) ;
#327=DIRECTION('Axis2P3D XDirection',(1.83697019872E-016,1.,7.49879891331E-033)) ;
#331=DIRECTION('Vector Direction',(-6.12323525218E-017,0.,1.)) ;
#336=DIRECTION('Vector Direction',(-6.12323525218E-017,0.,1.)) ;
#348=DIRECTION('Axis2P3D Direction',(-6.12323399574E-017,3.74939945666E-033,1.)) ;
#349=DIRECTION('Axis2P3D XDirection',(-6.12323399574E-017,-1.,0.)) ;
#360=DIRECTION('Axis2P3D Direction',(-6.12323399574E-017,3.74939945666E-033,1.)) ;
#361=DIRECTION('Axis2P3D XDirection',(1.83697019872E-016,1.,7.49879891331E-033)) ;
#365=DIRECTION('Vector Direction',(-6.12323525218E-017,0.,1.)) ;
#370=DIRECTION('Vector Direction',(-6.12323525218E-017,0.,1.)) ;
#382=DIRECTION('Axis2P3D Direction',(-6.12323399574E-017,3.74939945666E-033,1.)) ;
#383=DIRECTION('Axis2P3D XDirection',(-6.12323399574E-017,-1.,0.)) ;
#394=DIRECTION('Axis2P3D Direction',(-6.12323399574E-017,3.74939945666E-033,1.)) ;
#395=DIRECTION('Axis2P3D XDirection',(1.83697019872E-016,1.,7.49879891331E-033)) ;
#399=DIRECTION('Vector Direction',(-6.12317307969E-017,0.,1.)) ;
#404=DIRECTION('Vector Direction',(-6.12317307969E-017,0.,1.)) ;
#416=DIRECTION('Axis2P3D Direction',(-6.12323399574E-017,3.74939945666E-033,1.)) ;
#417=DIRECTION('Axis2P3D XDirection',(-6.12323399574E-017,-1.,0.)) ;
#428=DIRECTION('Axis2P3D Direction',(-6.12323399574E-017,3.74939945666E-033,1.)) ;
#429=DIRECTION('Axis2P3D XDirection',(1.83697019872E-016,1.,7.49879891331E-033)) ;
#433=DIRECTION('Vector Direction',(-6.12317307969E-017,0.,1.)) ;
#438=DIRECTION('Vector Direction',(-6.12317307969E-017,0.,1.)) ;
#450=DIRECTION('Axis2P3D Direction',(-6.12323399574E-017,3.74939945666E-033,1.)) ;
#451=DIRECTION('Axis2P3D XDirection',(-6.12323399574E-017,-1.,0.)) ;
#31=PRESENTATION_LAYER_ASSIGNMENT('1',' ',(#22)) ;
#8=PRODUCT_RELATED_PRODUCT_CATEGORY('part',$,(#5)) ;
#7=PRODUCT_CATEGORY('part','specification') ;
#30=STYLED_ITEM(' ',(#29),#22) ;
#29=PRESENTATION_STYLE_ASSIGNMENT((#28)) ;
#28=SURFACE_STYLE_USAGE(.BOTH.,#27) ;
#27=SURFACE_SIDE_STYLE(' ',(#26)) ;
#26=SURFACE_STYLE_FILL_AREA(#25) ;
#25=FILL_AREA_STYLE(' ',(#24)) ;
#24=FILL_AREA_STYLE_COLOUR(' ',#23) ;
#40=VECTOR('Line Direction',#39,1.) ;
#49=VECTOR('Line Direction',#48,1.) ;
#56=VECTOR('Line Direction',#55,1.) ;
#63=VECTOR('Line Direction',#62,1.) ;
#80=VECTOR('Line Direction',#79,1.) ;
#87=VECTOR('Line Direction',#86,1.) ;
#94=VECTOR('Line Direction',#93,1.) ;
#183=VECTOR('Line Direction',#182,1.) ;
#190=VECTOR('Line Direction',#189,1.) ;
#207=VECTOR('Line Direction',#206,1.) ;
#214=VECTOR('Line Direction',#213,1.) ;
#303=VECTOR('Line Direction',#302,1.) ;
#332=VECTOR('Line Direction',#331,1.) ;
#337=VECTOR('Line Direction',#336,1.) ;
#366=VECTOR('Line Direction',#365,1.) ;
#371=VECTOR('Line Direction',#370,1.) ;
#400=VECTOR('Line Direction',#399,1.) ;
#405=VECTOR('Line Direction',#404,1.) ;
#434=VECTOR('Line Direction',#433,1.) ;
#439=VECTOR('Line Direction',#438,1.) ;
#16=UNCERTAINTY_MEASURE_WITH_UNIT(LENGTH_MEASURE(0.005),#12,'distance_accuracy_value','CONFUSED CURVE UNCERTAINTY') ;
#462=SHAPE_REPRESENTATION_RELATIONSHIP(' ',' ',#20,#461) ;
#67=ORIENTED_EDGE('',*,*,#46,.T.) ;
#68=ORIENTED_EDGE('',*,*,#53,.F.) ;
#69=ORIENTED_EDGE('',*,*,#60,.F.) ;
#70=ORIENTED_EDGE('',*,*,#65,.T.) ;
#98=ORIENTED_EDGE('',*,*,#84,.F.) ;
#99=ORIENTED_EDGE('',*,*,#91,.F.) ;
#100=ORIENTED_EDGE('',*,*,#96,.F.) ;
#101=ORIENTED_EDGE('',*,*,#46,.F.) ;
#118=ORIENTED_EDGE('',*,*,#111,.T.) ;
#119=ORIENTED_EDGE('',*,*,#116,.T.) ;
#136=ORIENTED_EDGE('',*,*,#129,.T.) ;
#137=ORIENTED_EDGE('',*,*,#134,.T.) ;
#154=ORIENTED_EDGE('',*,*,#147,.T.) ;
#155=ORIENTED_EDGE('',*,*,#152,.T.) ;
#172=ORIENTED_EDGE('',*,*,#165,.T.) ;
#173=ORIENTED_EDGE('',*,*,#170,.T.) ;
#194=ORIENTED_EDGE('',*,*,#96,.T.) ;
#195=ORIENTED_EDGE('',*,*,#187,.F.) ;
#196=ORIENTED_EDGE('',*,*,#192,.F.) ;
#197=ORIENTED_EDGE('',*,*,#53,.T.) ;
#218=ORIENTED_EDGE('',*,*,#60,.T.) ;
#219=ORIENTED_EDGE('',*,*,#192,.T.) ;
#220=ORIENTED_EDGE('',*,*,#211,.T.) ;
#221=ORIENTED_EDGE('',*,*,#216,.T.) ;
#238=ORIENTED_EDGE('',*,*,#231,.F.) ;
#239=ORIENTED_EDGE('',*,*,#236,.F.) ;
#256=ORIENTED_EDGE('',*,*,#249,.F.) ;
#257=ORIENTED_EDGE('',*,*,#254,.F.) ;
#274=ORIENTED_EDGE('',*,*,#267,.F.) ;
#275=ORIENTED_EDGE('',*,*,#272,.F.) ;
#292=ORIENTED_EDGE('',*,*,#285,.F.) ;
#293=ORIENTED_EDGE('',*,*,#290,.F.) ;
#307=ORIENTED_EDGE('',*,*,#84,.T.) ;
#308=ORIENTED_EDGE('',*,*,#65,.F.) ;
#309=ORIENTED_EDGE('',*,*,#216,.F.) ;
#310=ORIENTED_EDGE('',*,*,#305,.T.) ;
#319=ORIENTED_EDGE('',*,*,#91,.T.) ;
#320=ORIENTED_EDGE('',*,*,#305,.F.) ;
#321=ORIENTED_EDGE('',*,*,#211,.F.) ;
#322=ORIENTED_EDGE('',*,*,#187,.T.) ;
#341=ORIENTED_EDGE('',*,*,#111,.F.) ;
#342=ORIENTED_EDGE('',*,*,#334,.F.) ;
#343=ORIENTED_EDGE('',*,*,#236,.T.) ;
#344=ORIENTED_EDGE('',*,*,#339,.T.) ;
#353=ORIENTED_EDGE('',*,*,#116,.F.) ;
#354=ORIENTED_EDGE('',*,*,#339,.F.) ;
#355=ORIENTED_EDGE('',*,*,#231,.T.) ;
#356=ORIENTED_EDGE('',*,*,#334,.T.) ;
#375=ORIENTED_EDGE('',*,*,#129,.F.) ;
#376=ORIENTED_EDGE('',*,*,#368,.F.) ;
#377=ORIENTED_EDGE('',*,*,#254,.T.) ;
#378=ORIENTED_EDGE('',*,*,#373,.T.) ;
#387=ORIENTED_EDGE('',*,*,#134,.F.) ;
#388=ORIENTED_EDGE('',*,*,#373,.F.) ;
#389=ORIENTED_EDGE('',*,*,#249,.T.) ;
#390=ORIENTED_EDGE('',*,*,#368,.T.) ;
#409=ORIENTED_EDGE('',*,*,#147,.F.) ;
#410=ORIENTED_EDGE('',*,*,#402,.F.) ;
#411=ORIENTED_EDGE('',*,*,#272,.T.) ;
#412=ORIENTED_EDGE('',*,*,#407,.T.) ;
#421=ORIENTED_EDGE('',*,*,#152,.F.) ;
#422=ORIENTED_EDGE('',*,*,#407,.F.) ;
#423=ORIENTED_EDGE('',*,*,#267,.T.) ;
#424=ORIENTED_EDGE('',*,*,#402,.T.) ;
#443=ORIENTED_EDGE('',*,*,#165,.F.) ;
#444=ORIENTED_EDGE('',*,*,#436,.F.) ;
#445=ORIENTED_EDGE('',*,*,#290,.T.) ;
#446=ORIENTED_EDGE('',*,*,#441,.T.) ;
#455=ORIENTED_EDGE('',*,*,#170,.F.) ;
#456=ORIENTED_EDGE('',*,*,#441,.F.) ;
#457=ORIENTED_EDGE('',*,*,#285,.T.) ;
#458=ORIENTED_EDGE('',*,*,#436,.T.) ;
#120=FACE_BOUND('',#117,.T.) ;
#138=FACE_BOUND('',#135,.T.) ;
#156=FACE_BOUND('',#153,.T.) ;
#174=FACE_BOUND('',#171,.T.) ;
#240=FACE_BOUND('',#237,.T.) ;
#258=FACE_BOUND('',#255,.T.) ;
#276=FACE_BOUND('',#273,.T.) ;
#294=FACE_BOUND('',#291,.T.) ;
#32=CLOSED_SHELL('Closed Shell',(#72,#175,#199,#295,#312,#324,#346,#358,#380,#392,#414,#426,#448,#460)) ;
#461=ADVANCED_BREP_SHAPE_REPRESENTATION('NONE',(#22),#17) ;
#72=ADVANCED_FACE('S3D_GEDREHT',(#71),#37,.F.) ;
#175=ADVANCED_FACE('S3D_GEDREHT',(#102,#120,#138,#156,#174),#77,.F.) ;
#199=ADVANCED_FACE('S3D_GEDREHT',(#198),#180,.T.) ;
#295=ADVANCED_FACE('S3D_GEDREHT',(#222,#240,#258,#276,#294),#204,.T.) ;
#312=ADVANCED_FACE('S3D_GEDREHT',(#311),#300,.T.) ;
#324=ADVANCED_FACE('S3D_GEDREHT',(#323),#317,.F.) ;
#346=ADVANCED_FACE('S3D_GEDREHT',(#345),#329,.F.) ;
#358=ADVANCED_FACE('S3D_GEDREHT',(#357),#351,.F.) ;
#380=ADVANCED_FACE('S3D_GEDREHT',(#379),#363,.F.) ;
#392=ADVANCED_FACE('S3D_GEDREHT',(#391),#385,.F.) ;
#414=ADVANCED_FACE('S3D_GEDREHT',(#413),#397,.F.) ;
#426=ADVANCED_FACE('S3D_GEDREHT',(#425),#419,.F.) ;
#448=ADVANCED_FACE('S3D_GEDREHT',(#447),#431,.F.) ;
#460=ADVANCED_FACE('S3D_GEDREHT',(#459),#453,.F.) ;
#4=APPLICATION_PROTOCOL_DEFINITION('international standard','automotive_design',2001,#1) ;
#22=MANIFOLD_SOLID_BREP('S3D_GEDREHT',#32) ;
#106=CIRCLE('generated circle',#105,2.09999999963) ;
#115=CIRCLE('generated circle',#114,2.09999999963) ;
#124=CIRCLE('generated circle',#123,2.09999999963) ;
#133=CIRCLE('generated circle',#132,2.09999999963) ;
#142=CIRCLE('generated circle',#141,2.09999999963) ;
#151=CIRCLE('generated circle',#150,2.09999999963) ;
#160=CIRCLE('generated circle',#159,2.09999999963) ;
#169=CIRCLE('generated circle',#168,2.09999999963) ;
#226=CIRCLE('generated circle',#225,2.09999999963) ;
#235=CIRCLE('generated circle',#234,2.09999999963) ;
#244=CIRCLE('generated circle',#243,2.09999999963) ;
#253=CIRCLE('generated circle',#252,2.09999999963) ;
#262=CIRCLE('generated circle',#261,2.09999999963) ;
#271=CIRCLE('generated circle',#270,2.09999999963) ;
#280=CIRCLE('generated circle',#279,2.09999999963) ;
#289=CIRCLE('generated circle',#288,2.09999999963) ;
#23=COLOUR_RGB('Colour',0.647058823529,0.647058823529,0.647058823529) ;
#329=CYLINDRICAL_SURFACE('generated cylinder',#328,2.1) ;
#351=CYLINDRICAL_SURFACE('generated cylinder',#350,2.1) ;
#363=CYLINDRICAL_SURFACE('generated cylinder',#362,2.1) ;
#385=CYLINDRICAL_SURFACE('generated cylinder',#384,2.1) ;
#397=CYLINDRICAL_SURFACE('generated cylinder',#396,2.1) ;
#419=CYLINDRICAL_SURFACE('generated cylinder',#418,2.1) ;
#431=CYLINDRICAL_SURFACE('generated cylinder',#430,2.1) ;
#453=CYLINDRICAL_SURFACE('generated cylinder',#452,2.1) ;
#46=EDGE_CURVE('',#43,#45,#41,.T.) ;
#53=EDGE_CURVE('',#52,#45,#50,.T.) ;
#60=EDGE_CURVE('',#59,#52,#57,.T.) ;
#65=EDGE_CURVE('',#59,#43,#64,.T.) ;
#84=EDGE_CURVE('',#83,#43,#81,.F.) ;
#91=EDGE_CURVE('',#90,#83,#88,.T.) ;
#96=EDGE_CURVE('',#45,#90,#95,.F.) ;
#111=EDGE_CURVE('',#108,#110,#106,.T.) ;
#116=EDGE_CURVE('',#110,#108,#115,.T.) ;
#129=EDGE_CURVE('',#126,#128,#124,.T.) ;
#134=EDGE_CURVE('',#128,#126,#133,.T.) ;
#147=EDGE_CURVE('',#144,#146,#142,.T.) ;
#152=EDGE_CURVE('',#146,#144,#151,.T.) ;
#165=EDGE_CURVE('',#162,#164,#160,.T.) ;
#170=EDGE_CURVE('',#164,#162,#169,.T.) ;
#187=EDGE_CURVE('',#186,#90,#184,.T.) ;
#192=EDGE_CURVE('',#52,#186,#191,.F.) ;
#211=EDGE_CURVE('',#186,#210,#208,.T.) ;
#216=EDGE_CURVE('',#210,#59,#215,.F.) ;
#231=EDGE_CURVE('',#228,#230,#226,.T.) ;
#236=EDGE_CURVE('',#230,#228,#235,.T.) ;
#249=EDGE_CURVE('',#246,#248,#244,.T.) ;
#254=EDGE_CURVE('',#248,#246,#253,.T.) ;
#267=EDGE_CURVE('',#264,#266,#262,.T.) ;
#272=EDGE_CURVE('',#266,#264,#271,.T.) ;
#285=EDGE_CURVE('',#282,#284,#280,.T.) ;
#290=EDGE_CURVE('',#284,#282,#289,.T.) ;
#305=EDGE_CURVE('',#210,#83,#304,.T.) ;
#334=EDGE_CURVE('',#230,#108,#333,.F.) ;
#339=EDGE_CURVE('',#228,#110,#338,.F.) ;
#368=EDGE_CURVE('',#248,#126,#367,.F.) ;
#373=EDGE_CURVE('',#246,#128,#372,.F.) ;
#402=EDGE_CURVE('',#266,#144,#401,.F.) ;
#407=EDGE_CURVE('',#264,#146,#406,.F.) ;
#436=EDGE_CURVE('',#284,#162,#435,.F.) ;
#441=EDGE_CURVE('',#282,#164,#440,.F.) ;
#66=EDGE_LOOP('',(#67,#68,#69,#70)) ;
#97=EDGE_LOOP('',(#98,#99,#100,#101)) ;
#117=EDGE_LOOP('',(#118,#119)) ;
#135=EDGE_LOOP('',(#136,#137)) ;
#153=EDGE_LOOP('',(#154,#155)) ;
#171=EDGE_LOOP('',(#172,#173)) ;
#193=EDGE_LOOP('',(#194,#195,#196,#197)) ;
#217=EDGE_LOOP('',(#218,#219,#220,#221)) ;
#237=EDGE_LOOP('',(#238,#239)) ;
#255=EDGE_LOOP('',(#256,#257)) ;
#273=EDGE_LOOP('',(#274,#275)) ;
#291=EDGE_LOOP('',(#292,#293)) ;
#306=EDGE_LOOP('',(#307,#308,#309,#310)) ;
#318=EDGE_LOOP('',(#319,#320,#321,#322)) ;
#340=EDGE_LOOP('',(#341,#342,#343,#344)) ;
#352=EDGE_LOOP('',(#353,#354,#355,#356)) ;
#374=EDGE_LOOP('',(#375,#376,#377,#378)) ;
#386=EDGE_LOOP('',(#387,#388,#389,#390)) ;
#408=EDGE_LOOP('',(#409,#410,#411,#412)) ;
#420=EDGE_LOOP('',(#421,#422,#423,#424)) ;
#442=EDGE_LOOP('',(#443,#444,#445,#446)) ;
#454=EDGE_LOOP('',(#455,#456,#457,#458)) ;
#71=FACE_OUTER_BOUND('',#66,.T.) ;
#102=FACE_OUTER_BOUND('',#97,.T.) ;
#198=FACE_OUTER_BOUND('',#193,.T.) ;
#222=FACE_OUTER_BOUND('',#217,.T.) ;
#311=FACE_OUTER_BOUND('',#306,.T.) ;
#323=FACE_OUTER_BOUND('',#318,.T.) ;
#345=FACE_OUTER_BOUND('',#340,.T.) ;
#357=FACE_OUTER_BOUND('',#352,.T.) ;
#379=FACE_OUTER_BOUND('',#374,.T.) ;
#391=FACE_OUTER_BOUND('',#386,.T.) ;
#413=FACE_OUTER_BOUND('',#408,.T.) ;
#425=FACE_OUTER_BOUND('',#420,.T.) ;
#447=FACE_OUTER_BOUND('',#442,.T.) ;
#459=FACE_OUTER_BOUND('',#454,.T.) ;
#41=LINE('Line',#38,#40) ;
#50=LINE('Line',#47,#49) ;
#57=LINE('Line',#54,#56) ;
#64=LINE('Line',#61,#63) ;
#81=LINE('Line',#78,#80) ;
#88=LINE('Line',#85,#87) ;
#95=LINE('Line',#92,#94) ;
#184=LINE('Line',#181,#183) ;
#191=LINE('Line',#188,#190) ;
#208=LINE('Line',#205,#207) ;
#215=LINE('Line',#212,#214) ;
#304=LINE('Line',#301,#303) ;
#333=LINE('Line',#330,#332) ;
#338=LINE('Line',#335,#337) ;
#367=LINE('Line',#364,#366) ;
#372=LINE('Line',#369,#371) ;
#401=LINE('Line',#398,#400) ;
#406=LINE('Line',#403,#405) ;
#435=LINE('Line',#432,#434) ;
#440=LINE('Line',#437,#439) ;
#37=PLANE('',#36) ;
#77=PLANE('',#76) ;
#180=PLANE('',#179) ;
#204=PLANE('',#203) ;
#300=PLANE('',#299) ;
#317=PLANE('',#316) ;
#14=PLANE_ANGLE_MEASURE_WITH_UNIT(PLANE_ANGLE_MEASURE(0.0174532925199),#13) ;
#9=PRODUCT_CATEGORY_RELATIONSHIP(' ',' ',#7,#8) ;
#6=PRODUCT_DEFINITION_FORMATION_WITH_SPECIFIED_SOURCE('',' ',#5,.NOT_KNOWN.) ;
#21=SHAPE_DEFINITION_REPRESENTATION(#11,#20) ;
#43=VERTEX_POINT('',#42) ;
#45=VERTEX_POINT('',#44) ;
#52=VERTEX_POINT('',#51) ;
#59=VERTEX_POINT('',#58) ;
#83=VERTEX_POINT('',#82) ;
#90=VERTEX_POINT('',#89) ;
#108=VERTEX_POINT('',#107) ;
#110=VERTEX_POINT('',#109) ;
#126=VERTEX_POINT('',#125) ;
#128=VERTEX_POINT('',#127) ;
#144=VERTEX_POINT('',#143) ;
#146=VERTEX_POINT('',#145) ;
#162=VERTEX_POINT('',#161) ;
#164=VERTEX_POINT('',#163) ;
#186=VERTEX_POINT('',#185) ;
#210=VERTEX_POINT('',#209) ;
#228=VERTEX_POINT('',#227) ;
#230=VERTEX_POINT('',#229) ;
#246=VERTEX_POINT('',#245) ;
#248=VERTEX_POINT('',#247) ;
#264=VERTEX_POINT('',#263) ;
#266=VERTEX_POINT('',#265) ;
#282=VERTEX_POINT('',#281) ;
#284=VERTEX_POINT('',#283) ;
#12=(LENGTH_UNIT()NAMED_UNIT(*)SI_UNIT(.MILLI.,.METRE.)) ;
#13=(NAMED_UNIT(*)PLANE_ANGLE_UNIT()SI_UNIT($,.RADIAN.)) ;
#15=(NAMED_UNIT(*)SI_UNIT($,.STERADIAN.)SOLID_ANGLE_UNIT()) ;
#17=(GEOMETRIC_REPRESENTATION_CONTEXT(3)GLOBAL_UNCERTAINTY_ASSIGNED_CONTEXT((#16))GLOBAL_UNIT_ASSIGNED_CONTEXT((#12,#13,#15))REPRESENTATION_CONTEXT(' ',' ')) ;
ENDSEC;
END-ISO-10303-21;
