ISO-10303-21;
HEADER;
FILE_DESCRIPTION(('CATIA V5R19 STEP'),'2;1');

FILE_NAME ('D1456714_0_1816290000_1816290000.stp','2015-02-27T14:15:36+00:00',('none'),('Weidmueller'),'CATIA Version 5 Release 20 SP 5 (IN-10)','CATIA V5 STEP AP214','none');

FILE_SCHEMA(('AUTOMOTIVE_DESIGN { 1 0 10303 214 1 1 1 1 }'));

ENDSEC;
/* file written by CATIA V5R20 */
DATA;
#5=PRODUCT('MF-W 9/6 ','','MARKIERER MF-W 9/6 FUER WAGO',(#2)) ;
#2=PRODUCT_CONTEXT(' ',#1,'mechanical') ;
#1=APPLICATION_CONTEXT('automotive design') ;
#10=PRODUCT_DEFINITION('',' ',#6,#3) ;
#3=PRODUCT_DEFINITION_CONTEXT('part definition',#1,' ') ;
#11=PRODUCT_DEFINITION_SHAPE(' ',' ',#10) ;
#573=MECHANICAL_DESIGN_GEOMETRIC_PRESENTATION_REPRESENTATION(' ',(#30),#17) ;
#20=SHAPE_REPRESENTATION(' ',(#19),#17) ;
#19=AXIS2_PLACEMENT_3D(' ',#18,$,$) ;
#35=AXIS2_PLACEMENT_3D('Plane Axis2P3D',#32,#33,#34) ;
#75=AXIS2_PLACEMENT_3D('Plane Axis2P3D',#72,#73,#74) ;
#106=AXIS2_PLACEMENT_3D('Plane Axis2P3D',#103,#104,#105) ;
#137=AXIS2_PLACEMENT_3D('Plane Axis2P3D',#134,#135,#136) ;
#168=AXIS2_PLACEMENT_3D('Plane Axis2P3D',#165,#166,#167) ;
#199=AXIS2_PLACEMENT_3D('Plane Axis2P3D',#196,#197,#198) ;
#230=AXIS2_PLACEMENT_3D('Plane Axis2P3D',#227,#228,#229) ;
#261=AXIS2_PLACEMENT_3D('Plane Axis2P3D',#258,#259,#260) ;
#292=AXIS2_PLACEMENT_3D('Plane Axis2P3D',#289,#290,#291) ;
#349=AXIS2_PLACEMENT_3D('Plane Axis2P3D',#346,#347,#348) ;
#380=AXIS2_PLACEMENT_3D('Plane Axis2P3D',#377,#378,#379) ;
#411=AXIS2_PLACEMENT_3D('Plane Axis2P3D',#408,#409,#410) ;
#442=AXIS2_PLACEMENT_3D('Plane Axis2P3D',#439,#440,#441) ;
#473=AXIS2_PLACEMENT_3D('Plane Axis2P3D',#470,#471,#472) ;
#504=AXIS2_PLACEMENT_3D('Plane Axis2P3D',#501,#502,#503) ;
#526=AXIS2_PLACEMENT_3D('Plane Axis2P3D',#523,#524,#525) ;
#550=AXIS2_PLACEMENT_3D('Plane Axis2P3D',#547,#548,#549) ;
#18=CARTESIAN_POINT(' ',(0.,0.,0.)) ;
#32=CARTESIAN_POINT('Axis2P3D Location',(3.,0.7,1.4)) ;
#37=CARTESIAN_POINT('Line Origine',(5.25,0.7,1.15816825301)) ;
#41=CARTESIAN_POINT('Vertex',(5.25,0.7,0.916336506011)) ;
#43=CARTESIAN_POINT('Vertex',(5.25,0.7,1.4)) ;
#46=CARTESIAN_POINT('Line Origine',(3.,0.7,1.4)) ;
#50=CARTESIAN_POINT('Vertex',(0.75,0.7,1.4)) ;
#53=CARTESIAN_POINT('Line Origine',(0.75,0.7,1.15816825301)) ;
#57=CARTESIAN_POINT('Vertex',(0.75,0.7,0.916336506011)) ;
#60=CARTESIAN_POINT('Line Origine',(3.,0.7,0.916336506011)) ;
#72=CARTESIAN_POINT('Axis2P3D Location',(3.,0.192944763918,0.780471464984)) ;
#77=CARTESIAN_POINT('Line Origine',(5.25,0.446472381959,0.848403985497)) ;
#81=CARTESIAN_POINT('Vertex',(5.25,0.192944763918,0.780471464984)) ;
#84=CARTESIAN_POINT('Line Origine',(0.75,0.446472381959,0.848403985497)) ;
#88=CARTESIAN_POINT('Vertex',(0.75,0.192944763918,0.780471464984)) ;
#91=CARTESIAN_POINT('Line Origine',(3.,0.192944763918,0.780471464984)) ;
#103=CARTESIAN_POINT('Axis2P3D Location',(3.,1.7763568394E-015,0.587526701066)) ;
#108=CARTESIAN_POINT('Line Origine',(5.25,0.096472381959,0.683999083025)) ;
#112=CARTESIAN_POINT('Vertex',(5.25,8.881784197E-016,0.587526701066)) ;
#115=CARTESIAN_POINT('Line Origine',(0.75,0.096472381959,0.683999083025)) ;
#119=CARTESIAN_POINT('Vertex',(0.75,8.881784197E-016,0.587526701066)) ;
#122=CARTESIAN_POINT('Line Origine',(3.,1.7763568394E-015,0.587526701066)) ;
#134=CARTESIAN_POINT('Axis2P3D Location',(3.,8.881784197E-016,0.4)) ;
#139=CARTESIAN_POINT('Line Origine',(5.25,7.50405654796E-016,0.493763350533)) ;
#143=CARTESIAN_POINT('Vertex',(5.25,-3.74939945665E-033,0.4)) ;
#146=CARTESIAN_POINT('Line Origine',(0.75,1.0259511846E-015,0.493763350533)) ;
#150=CARTESIAN_POINT('Vertex',(0.75,-3.74939945665E-033,0.4)) ;
#153=CARTESIAN_POINT('Line Origine',(3.,8.881784197E-016,0.4)) ;
#165=CARTESIAN_POINT('Axis2P3D Location',(3.,0.,0.4)) ;
#170=CARTESIAN_POINT('Line Origine',(5.25,0.2,0.2)) ;
#174=CARTESIAN_POINT('Vertex',(5.25,0.4,2.22044604925E-016)) ;
#177=CARTESIAN_POINT('Line Origine',(0.75,0.2,0.2)) ;
#181=CARTESIAN_POINT('Vertex',(0.75,0.4,-2.22044604925E-016)) ;
#184=CARTESIAN_POINT('Line Origine',(3.,0.4,-2.77555756156E-016)) ;
#196=CARTESIAN_POINT('Axis2P3D Location',(3.,9.8,0.)) ;
#201=CARTESIAN_POINT('Line Origine',(5.25,0.514718692674,1.37772764904E-016)) ;
#205=CARTESIAN_POINT('Vertex',(5.25,0.629437385347,2.22044604925E-016)) ;
#208=CARTESIAN_POINT('Line Origine',(0.75,0.514718692674,-1.37772764904E-016)) ;
#212=CARTESIAN_POINT('Vertex',(0.75,0.629437385347,-2.22044604925E-016)) ;
#215=CARTESIAN_POINT('Line Origine',(3.,0.629437385347,0.)) ;
#227=CARTESIAN_POINT('Axis2P3D Location',(3.,0.629437385347,0.)) ;
#232=CARTESIAN_POINT('Line Origine',(5.25,0.860377493023,0.4)) ;
#236=CARTESIAN_POINT('Vertex',(5.25,1.0913176007,0.8)) ;
#239=CARTESIAN_POINT('Line Origine',(0.75,0.860377493023,0.4)) ;
#243=CARTESIAN_POINT('Vertex',(0.75,1.0913176007,0.8)) ;
#246=CARTESIAN_POINT('Line Origine',(3.,1.0913176007,0.8)) ;
#258=CARTESIAN_POINT('Axis2P3D Location',(3.,1.0913176007,0.8)) ;
#263=CARTESIAN_POINT('Line Origine',(5.25,5.1,0.8)) ;
#267=CARTESIAN_POINT('Vertex',(5.25,9.1086823993,0.8)) ;
#270=CARTESIAN_POINT('Line Origine',(0.75,5.1,0.8)) ;
#274=CARTESIAN_POINT('Vertex',(0.75,9.1086823993,0.8)) ;
#277=CARTESIAN_POINT('Line Origine',(3.,9.1086823993,0.8)) ;
#289=CARTESIAN_POINT('Axis2P3D Location',(3.,9.57056261465,2.22044604925E-016)) ;
#294=CARTESIAN_POINT('Line Origine',(5.25,9.33962250698,0.4)) ;
#298=CARTESIAN_POINT('Vertex',(5.25,9.57056261465,2.22044604925E-016)) ;
#301=CARTESIAN_POINT('Line Origine',(0.75,9.33962250698,0.4)) ;
#305=CARTESIAN_POINT('Vertex',(0.75,9.57056261465,-2.22044604925E-016)) ;
#308=CARTESIAN_POINT('Line Origine',(3.,9.57056261465,2.22044604925E-016)) ;
#320=CARTESIAN_POINT('Line Origine',(5.25,9.68528130733,1.37772764904E-016)) ;
#324=CARTESIAN_POINT('Vertex',(5.25,9.8,1.11022302463E-015)) ;
#327=CARTESIAN_POINT('Line Origine',(0.75,9.68528130733,-1.37772764904E-016)) ;
#331=CARTESIAN_POINT('Vertex',(0.75,9.8,6.66133814775E-016)) ;
#334=CARTESIAN_POINT('Line Origine',(3.,9.8,0.)) ;
#346=CARTESIAN_POINT('Axis2P3D Location',(3.,10.2,0.4)) ;
#351=CARTESIAN_POINT('Line Origine',(5.25,10.,0.2)) ;
#355=CARTESIAN_POINT('Vertex',(5.25,10.2,0.4)) ;
#358=CARTESIAN_POINT('Line Origine',(0.75,10.,0.2)) ;
#362=CARTESIAN_POINT('Vertex',(0.75,10.2,0.4)) ;
#365=CARTESIAN_POINT('Line Origine',(3.,10.2,0.4)) ;
#377=CARTESIAN_POINT('Axis2P3D Location',(3.,10.2,0.587526701066)) ;
#382=CARTESIAN_POINT('Line Origine',(5.25,10.2,0.493763350533)) ;
#386=CARTESIAN_POINT('Vertex',(5.25,10.2,0.587526701066)) ;
#389=CARTESIAN_POINT('Line Origine',(0.75,10.2,0.493763350533)) ;
#393=CARTESIAN_POINT('Vertex',(0.75,10.2,0.587526701066)) ;
#396=CARTESIAN_POINT('Line Origine',(3.,10.2,0.587526701066)) ;
#408=CARTESIAN_POINT('Axis2P3D Location',(3.,10.2,0.587526701066)) ;
#413=CARTESIAN_POINT('Line Origine',(5.25,10.103527618,0.683999083025)) ;
#417=CARTESIAN_POINT('Vertex',(5.25,10.0070552361,0.780471464984)) ;
#420=CARTESIAN_POINT('Line Origine',(0.75,10.103527618,0.683999083025)) ;
#424=CARTESIAN_POINT('Vertex',(0.75,10.0070552361,0.780471464984)) ;
#427=CARTESIAN_POINT('Line Origine',(3.,10.0070552361,0.780471464984)) ;
#439=CARTESIAN_POINT('Axis2P3D Location',(3.,9.5,0.916336506011)) ;
#444=CARTESIAN_POINT('Line Origine',(5.25,9.75352761804,0.848403985497)) ;
#448=CARTESIAN_POINT('Vertex',(5.25,9.5,0.916336506011)) ;
#451=CARTESIAN_POINT('Line Origine',(0.75,9.75352761804,0.848403985497)) ;
#455=CARTESIAN_POINT('Vertex',(0.75,9.5,0.916336506011)) ;
#458=CARTESIAN_POINT('Line Origine',(3.,9.5,0.916336506011)) ;
#470=CARTESIAN_POINT('Axis2P3D Location',(3.,9.5,0.916336506011)) ;
#475=CARTESIAN_POINT('Line Origine',(5.25,9.5,1.15816825301)) ;
#479=CARTESIAN_POINT('Vertex',(5.25,9.5,1.4)) ;
#482=CARTESIAN_POINT('Line Origine',(0.75,9.5,1.15816825301)) ;
#486=CARTESIAN_POINT('Vertex',(0.75,9.5,1.4)) ;
#489=CARTESIAN_POINT('Line Origine',(3.,9.5,1.4)) ;
#501=CARTESIAN_POINT('Axis2P3D Location',(3.,0.7,1.4)) ;
#506=CARTESIAN_POINT('Line Origine',(5.25,5.1,1.4)) ;
#511=CARTESIAN_POINT('Line Origine',(0.75,5.1,1.4)) ;
#523=CARTESIAN_POINT('Axis2P3D Location',(0.75,5.1,1.4)) ;
#547=CARTESIAN_POINT('Axis2P3D Location',(5.25,5.1,1.4)) ;
#33=DIRECTION('Axis2P3D Direction',(-6.12323399574E-017,-1.,0.)) ;
#34=DIRECTION('Axis2P3D XDirection',(6.12323399574E-017,-3.74939945665E-033,-1.)) ;
#38=DIRECTION('Vector Direction',(0.,0.,-1.)) ;
#47=DIRECTION('Vector Direction',(1.,-4.93432455389E-017,9.86864910778E-017)) ;
#54=DIRECTION('Vector Direction',(0.,0.,-1.)) ;
#61=DIRECTION('Vector Direction',(1.,-4.93432455389E-017,4.93432455389E-017)) ;
#73=DIRECTION('Axis2P3D Direction',(7.49939943261E-017,0.258819045103,-0.965925826289)) ;
#74=DIRECTION('Axis2P3D XDirection',(4.32978028118E-017,0.965925826289,0.258819045103)) ;
#78=DIRECTION('Vector Direction',(0.,0.965925826289,0.258819045103)) ;
#85=DIRECTION('Vector Direction',(0.,0.965925826289,0.258819045103)) ;
#92=DIRECTION('Vector Direction',(1.,-6.16790569236E-017,4.93432455389E-017)) ;
#104=DIRECTION('Axis2P3D Direction',(8.65956056235E-017,0.707106781187,-0.707106781187)) ;
#105=DIRECTION('Axis2P3D XDirection',(-9.24446373306E-032,0.707106781187,0.707106781187)) ;
#109=DIRECTION('Vector Direction',(0.,0.707106781187,0.707106781187)) ;
#116=DIRECTION('Vector Direction',(0.,0.707106781187,0.707106781187)) ;
#123=DIRECTION('Vector Direction',(1.,-6.12323399574E-017,4.93432455389E-017)) ;
#135=DIRECTION('Axis2P3D Direction',(6.12323399574E-017,1.,0.)) ;
#136=DIRECTION('Axis2P3D XDirection',(-6.12323399574E-017,3.74939945665E-033,1.)) ;
#140=DIRECTION('Vector Direction',(0.,0.,1.)) ;
#147=DIRECTION('Vector Direction',(0.,0.,1.)) ;
#154=DIRECTION('Vector Direction',(1.,-6.12323399574E-017,4.93432455389E-017)) ;
#166=DIRECTION('Axis2P3D Direction',(2.46519032882E-032,-0.707106781187,-0.707106781187)) ;
#167=DIRECTION('Axis2P3D XDirection',(8.65956056235E-017,0.707106781187,-0.707106781187)) ;
#171=DIRECTION('Vector Direction',(0.,0.707106781187,-0.707106781187)) ;
#178=DIRECTION('Vector Direction',(0.,0.707106781187,-0.707106781187)) ;
#185=DIRECTION('Vector Direction',(1.,-4.93432455389E-017,6.12323399574E-017)) ;
#197=DIRECTION('Axis2P3D Direction',(-6.12323399574E-017,3.74939945665E-033,1.)) ;
#198=DIRECTION('Axis2P3D XDirection',(-6.12323399574E-017,-1.,0.)) ;
#202=DIRECTION('Vector Direction',(0.,1.,0.)) ;
#209=DIRECTION('Vector Direction',(0.,1.,0.)) ;
#216=DIRECTION('Vector Direction',(1.,-4.93432455389E-017,6.12323399574E-017)) ;
#228=DIRECTION('Axis2P3D Direction',(8.36449319149E-017,0.866025403784,-0.5)) ;
#229=DIRECTION('Axis2P3D XDirection',(-2.24125919576E-017,0.5,0.866025403784)) ;
#233=DIRECTION('Vector Direction',(0.,0.5,0.866025403784)) ;
#240=DIRECTION('Vector Direction',(0.,0.5,0.866025403784)) ;
#247=DIRECTION('Vector Direction',(1.,-9.86864910778E-017,4.93432455389E-017)) ;
#259=DIRECTION('Axis2P3D Direction',(6.12323399574E-017,-3.74939945665E-033,-1.)) ;
#260=DIRECTION('Axis2P3D XDirection',(6.12323399574E-017,1.,0.)) ;
#264=DIRECTION('Vector Direction',(0.,1.,0.)) ;
#271=DIRECTION('Vector Direction',(5.53909197106E-017,1.,0.)) ;
#278=DIRECTION('Vector Direction',(1.,0.,4.93432455389E-017)) ;
#290=DIRECTION('Axis2P3D Direction',(2.24125919576E-017,0.866025403784,0.5)) ;
#291=DIRECTION('Axis2P3D XDirection',(-8.36449319149E-017,-0.5,0.866025403784)) ;
#295=DIRECTION('Vector Direction',(0.,-0.5,0.866025403784)) ;
#302=DIRECTION('Vector Direction',(0.,-0.5,0.866025403784)) ;
#309=DIRECTION('Vector Direction',(1.,0.,6.12323399574E-017)) ;
#321=DIRECTION('Vector Direction',(0.,-1.,0.)) ;
#328=DIRECTION('Vector Direction',(0.,-1.,0.)) ;
#335=DIRECTION('Vector Direction',(1.,0.,6.12323399574E-017)) ;
#347=DIRECTION('Axis2P3D Direction',(-8.65956056235E-017,-0.707106781187,0.707106781187)) ;
#348=DIRECTION('Axis2P3D XDirection',(-1.84889274661E-032,-0.707106781187,-0.707106781187)) ;
#352=DIRECTION('Vector Direction',(0.,-0.707106781187,-0.707106781187)) ;
#359=DIRECTION('Vector Direction',(0.,-0.707106781187,-0.707106781187)) ;
#366=DIRECTION('Vector Direction',(1.,0.,4.93432455389E-017)) ;
#378=DIRECTION('Axis2P3D Direction',(-6.12323399574E-017,-1.,0.)) ;
#379=DIRECTION('Axis2P3D XDirection',(6.12323399574E-017,-3.74939945665E-033,-1.)) ;
#383=DIRECTION('Vector Direction',(0.,0.,-1.)) ;
#390=DIRECTION('Vector Direction',(0.,0.,-1.)) ;
#397=DIRECTION('Vector Direction',(1.,0.,4.93432455389E-017)) ;
#409=DIRECTION('Axis2P3D Direction',(9.86076131526E-032,0.707106781187,0.707106781187)) ;
#410=DIRECTION('Axis2P3D XDirection',(-8.65956056235E-017,-0.707106781187,0.707106781187)) ;
#414=DIRECTION('Vector Direction',(0.,-0.707106781187,0.707106781187)) ;
#421=DIRECTION('Vector Direction',(0.,-0.707106781187,0.707106781187)) ;
#428=DIRECTION('Vector Direction',(1.,0.,4.93432455389E-017)) ;
#440=DIRECTION('Axis2P3D Direction',(4.32978028118E-017,-0.258819045103,-0.965925826289)) ;
#441=DIRECTION('Axis2P3D XDirection',(7.49939943261E-017,0.965925826289,-0.258819045103)) ;
#445=DIRECTION('Vector Direction',(0.,0.965925826289,-0.258819045103)) ;
#452=DIRECTION('Vector Direction',(0.,0.965925826289,-0.258819045103)) ;
#459=DIRECTION('Vector Direction',(1.,0.,4.93432455389E-017)) ;
#471=DIRECTION('Axis2P3D Direction',(6.12323399574E-017,1.,0.)) ;
#472=DIRECTION('Axis2P3D XDirection',(-6.12323399574E-017,3.74939945665E-033,1.)) ;
#476=DIRECTION('Vector Direction',(0.,0.,1.)) ;
#483=DIRECTION('Vector Direction',(0.,0.,1.)) ;
#490=DIRECTION('Vector Direction',(1.,0.,9.86864910778E-017)) ;
#502=DIRECTION('Axis2P3D Direction',(6.12323399574E-017,-3.74939945665E-033,-1.)) ;
#503=DIRECTION('Axis2P3D XDirection',(6.12323399574E-017,1.,0.)) ;
#507=DIRECTION('Vector Direction',(0.,1.,0.)) ;
#512=DIRECTION('Vector Direction',(5.04646829375E-017,1.,0.)) ;
#524=DIRECTION('Axis2P3D Direction',(1.,-6.12323399574E-017,6.12323399574E-017)) ;
#525=DIRECTION('Axis2P3D XDirection',(6.12323399574E-017,1.,0.)) ;
#548=DIRECTION('Axis2P3D Direction',(1.,-6.12323399574E-017,6.12323399574E-017)) ;
#549=DIRECTION('Axis2P3D XDirection',(6.12323399574E-017,1.,0.)) ;
#8=PRODUCT_RELATED_PRODUCT_CATEGORY('part',$,(#5)) ;
#7=PRODUCT_CATEGORY('part','specification') ;
#30=STYLED_ITEM(' ',(#29),#22) ;
#29=PRESENTATION_STYLE_ASSIGNMENT((#28)) ;
#28=SURFACE_STYLE_USAGE(.BOTH.,#27) ;
#27=SURFACE_SIDE_STYLE(' ',(#26)) ;
#26=SURFACE_STYLE_FILL_AREA(#25) ;
#25=FILL_AREA_STYLE(' ',(#24)) ;
#24=FILL_AREA_STYLE_COLOUR(' ',#23) ;
#39=VECTOR('Line Direction',#38,1.) ;
#48=VECTOR('Line Direction',#47,1.) ;
#55=VECTOR('Line Direction',#54,1.) ;
#62=VECTOR('Line Direction',#61,1.) ;
#79=VECTOR('Line Direction',#78,1.) ;
#86=VECTOR('Line Direction',#85,1.) ;
#93=VECTOR('Line Direction',#92,1.) ;
#110=VECTOR('Line Direction',#109,1.) ;
#117=VECTOR('Line Direction',#116,1.) ;
#124=VECTOR('Line Direction',#123,1.) ;
#141=VECTOR('Line Direction',#140,1.) ;
#148=VECTOR('Line Direction',#147,1.) ;
#155=VECTOR('Line Direction',#154,1.) ;
#172=VECTOR('Line Direction',#171,1.) ;
#179=VECTOR('Line Direction',#178,1.) ;
#186=VECTOR('Line Direction',#185,1.) ;
#203=VECTOR('Line Direction',#202,1.) ;
#210=VECTOR('Line Direction',#209,1.) ;
#217=VECTOR('Line Direction',#216,1.) ;
#234=VECTOR('Line Direction',#233,1.) ;
#241=VECTOR('Line Direction',#240,1.) ;
#248=VECTOR('Line Direction',#247,1.) ;
#265=VECTOR('Line Direction',#264,1.) ;
#272=VECTOR('Line Direction',#271,1.) ;
#279=VECTOR('Line Direction',#278,1.) ;
#296=VECTOR('Line Direction',#295,1.) ;
#303=VECTOR('Line Direction',#302,1.) ;
#310=VECTOR('Line Direction',#309,1.) ;
#322=VECTOR('Line Direction',#321,1.) ;
#329=VECTOR('Line Direction',#328,1.) ;
#336=VECTOR('Line Direction',#335,1.) ;
#353=VECTOR('Line Direction',#352,1.) ;
#360=VECTOR('Line Direction',#359,1.) ;
#367=VECTOR('Line Direction',#366,1.) ;
#384=VECTOR('Line Direction',#383,1.) ;
#391=VECTOR('Line Direction',#390,1.) ;
#398=VECTOR('Line Direction',#397,1.) ;
#415=VECTOR('Line Direction',#414,1.) ;
#422=VECTOR('Line Direction',#421,1.) ;
#429=VECTOR('Line Direction',#428,1.) ;
#446=VECTOR('Line Direction',#445,1.) ;
#453=VECTOR('Line Direction',#452,1.) ;
#460=VECTOR('Line Direction',#459,1.) ;
#477=VECTOR('Line Direction',#476,1.) ;
#484=VECTOR('Line Direction',#483,1.) ;
#491=VECTOR('Line Direction',#490,1.) ;
#508=VECTOR('Line Direction',#507,1.) ;
#513=VECTOR('Line Direction',#512,1.) ;
#16=UNCERTAINTY_MEASURE_WITH_UNIT(LENGTH_MEASURE(0.005),#12,'distance_accuracy_value','CONFUSED CURVE UNCERTAINTY') ;
#572=SHAPE_REPRESENTATION_RELATIONSHIP(' ',' ',#20,#571) ;
#66=ORIENTED_EDGE('',*,*,#45,.T.) ;
#67=ORIENTED_EDGE('',*,*,#52,.F.) ;
#68=ORIENTED_EDGE('',*,*,#59,.F.) ;
#69=ORIENTED_EDGE('',*,*,#64,.T.) ;
#97=ORIENTED_EDGE('',*,*,#83,.T.) ;
#98=ORIENTED_EDGE('',*,*,#64,.F.) ;
#99=ORIENTED_EDGE('',*,*,#90,.F.) ;
#100=ORIENTED_EDGE('',*,*,#95,.T.) ;
#128=ORIENTED_EDGE('',*,*,#114,.T.) ;
#129=ORIENTED_EDGE('',*,*,#95,.F.) ;
#130=ORIENTED_EDGE('',*,*,#121,.F.) ;
#131=ORIENTED_EDGE('',*,*,#126,.T.) ;
#159=ORIENTED_EDGE('',*,*,#145,.T.) ;
#160=ORIENTED_EDGE('',*,*,#126,.F.) ;
#161=ORIENTED_EDGE('',*,*,#152,.F.) ;
#162=ORIENTED_EDGE('',*,*,#157,.T.) ;
#190=ORIENTED_EDGE('',*,*,#176,.T.) ;
#191=ORIENTED_EDGE('',*,*,#157,.F.) ;
#192=ORIENTED_EDGE('',*,*,#183,.F.) ;
#193=ORIENTED_EDGE('',*,*,#188,.T.) ;
#221=ORIENTED_EDGE('',*,*,#207,.T.) ;
#222=ORIENTED_EDGE('',*,*,#188,.F.) ;
#223=ORIENTED_EDGE('',*,*,#214,.F.) ;
#224=ORIENTED_EDGE('',*,*,#219,.T.) ;
#252=ORIENTED_EDGE('',*,*,#238,.T.) ;
#253=ORIENTED_EDGE('',*,*,#219,.F.) ;
#254=ORIENTED_EDGE('',*,*,#245,.F.) ;
#255=ORIENTED_EDGE('',*,*,#250,.T.) ;
#283=ORIENTED_EDGE('',*,*,#269,.T.) ;
#284=ORIENTED_EDGE('',*,*,#250,.F.) ;
#285=ORIENTED_EDGE('',*,*,#276,.F.) ;
#286=ORIENTED_EDGE('',*,*,#281,.T.) ;
#314=ORIENTED_EDGE('',*,*,#300,.T.) ;
#315=ORIENTED_EDGE('',*,*,#281,.F.) ;
#316=ORIENTED_EDGE('',*,*,#307,.F.) ;
#317=ORIENTED_EDGE('',*,*,#312,.T.) ;
#340=ORIENTED_EDGE('',*,*,#326,.T.) ;
#341=ORIENTED_EDGE('',*,*,#312,.F.) ;
#342=ORIENTED_EDGE('',*,*,#333,.F.) ;
#343=ORIENTED_EDGE('',*,*,#338,.T.) ;
#371=ORIENTED_EDGE('',*,*,#357,.T.) ;
#372=ORIENTED_EDGE('',*,*,#338,.F.) ;
#373=ORIENTED_EDGE('',*,*,#364,.F.) ;
#374=ORIENTED_EDGE('',*,*,#369,.T.) ;
#402=ORIENTED_EDGE('',*,*,#388,.T.) ;
#403=ORIENTED_EDGE('',*,*,#369,.F.) ;
#404=ORIENTED_EDGE('',*,*,#395,.F.) ;
#405=ORIENTED_EDGE('',*,*,#400,.T.) ;
#433=ORIENTED_EDGE('',*,*,#419,.T.) ;
#434=ORIENTED_EDGE('',*,*,#400,.F.) ;
#435=ORIENTED_EDGE('',*,*,#426,.F.) ;
#436=ORIENTED_EDGE('',*,*,#431,.T.) ;
#464=ORIENTED_EDGE('',*,*,#450,.T.) ;
#465=ORIENTED_EDGE('',*,*,#431,.F.) ;
#466=ORIENTED_EDGE('',*,*,#457,.F.) ;
#467=ORIENTED_EDGE('',*,*,#462,.T.) ;
#495=ORIENTED_EDGE('',*,*,#481,.T.) ;
#496=ORIENTED_EDGE('',*,*,#462,.F.) ;
#497=ORIENTED_EDGE('',*,*,#488,.F.) ;
#498=ORIENTED_EDGE('',*,*,#493,.T.) ;
#517=ORIENTED_EDGE('',*,*,#510,.T.) ;
#518=ORIENTED_EDGE('',*,*,#493,.F.) ;
#519=ORIENTED_EDGE('',*,*,#515,.F.) ;
#520=ORIENTED_EDGE('',*,*,#52,.T.) ;
#529=ORIENTED_EDGE('',*,*,#515,.T.) ;
#530=ORIENTED_EDGE('',*,*,#488,.T.) ;
#531=ORIENTED_EDGE('',*,*,#457,.T.) ;
#532=ORIENTED_EDGE('',*,*,#426,.T.) ;
#533=ORIENTED_EDGE('',*,*,#395,.T.) ;
#534=ORIENTED_EDGE('',*,*,#364,.T.) ;
#535=ORIENTED_EDGE('',*,*,#333,.T.) ;
#536=ORIENTED_EDGE('',*,*,#307,.T.) ;
#537=ORIENTED_EDGE('',*,*,#276,.T.) ;
#538=ORIENTED_EDGE('',*,*,#245,.T.) ;
#539=ORIENTED_EDGE('',*,*,#214,.T.) ;
#540=ORIENTED_EDGE('',*,*,#183,.T.) ;
#541=ORIENTED_EDGE('',*,*,#152,.T.) ;
#542=ORIENTED_EDGE('',*,*,#121,.T.) ;
#543=ORIENTED_EDGE('',*,*,#90,.T.) ;
#544=ORIENTED_EDGE('',*,*,#59,.T.) ;
#553=ORIENTED_EDGE('',*,*,#45,.F.) ;
#554=ORIENTED_EDGE('',*,*,#83,.F.) ;
#555=ORIENTED_EDGE('',*,*,#114,.F.) ;
#556=ORIENTED_EDGE('',*,*,#145,.F.) ;
#557=ORIENTED_EDGE('',*,*,#176,.F.) ;
#558=ORIENTED_EDGE('',*,*,#207,.F.) ;
#559=ORIENTED_EDGE('',*,*,#238,.F.) ;
#560=ORIENTED_EDGE('',*,*,#269,.F.) ;
#561=ORIENTED_EDGE('',*,*,#300,.F.) ;
#562=ORIENTED_EDGE('',*,*,#326,.F.) ;
#563=ORIENTED_EDGE('',*,*,#357,.F.) ;
#564=ORIENTED_EDGE('',*,*,#388,.F.) ;
#565=ORIENTED_EDGE('',*,*,#419,.F.) ;
#566=ORIENTED_EDGE('',*,*,#450,.F.) ;
#567=ORIENTED_EDGE('',*,*,#481,.F.) ;
#568=ORIENTED_EDGE('',*,*,#510,.F.) ;
#31=CLOSED_SHELL('Closed Shell',(#71,#102,#133,#164,#195,#226,#257,#288,#319,#345,#376,#407,#438,#469,#500,#522,#546,#570)) ;
#571=ADVANCED_BREP_SHAPE_REPRESENTATION('NONE',(#22),#17) ;
#71=ADVANCED_FACE('S3D gedreht',(#70),#36,.T.) ;
#102=ADVANCED_FACE('S3D gedreht',(#101),#76,.F.) ;
#133=ADVANCED_FACE('S3D gedreht',(#132),#107,.F.) ;
#164=ADVANCED_FACE('S3D gedreht',(#163),#138,.F.) ;
#195=ADVANCED_FACE('S3D gedreht',(#194),#169,.T.) ;
#226=ADVANCED_FACE('S3D gedreht',(#225),#200,.F.) ;
#257=ADVANCED_FACE('S3D gedreht',(#256),#231,.T.) ;
#288=ADVANCED_FACE('S3D gedreht',(#287),#262,.T.) ;
#319=ADVANCED_FACE('S3D gedreht',(#318),#293,.F.) ;
#345=ADVANCED_FACE('S3D gedreht',(#344),#200,.F.) ;
#376=ADVANCED_FACE('S3D gedreht',(#375),#350,.F.) ;
#407=ADVANCED_FACE('S3D gedreht',(#406),#381,.F.) ;
#438=ADVANCED_FACE('S3D gedreht',(#437),#412,.T.) ;
#469=ADVANCED_FACE('S3D gedreht',(#468),#443,.F.) ;
#500=ADVANCED_FACE('S3D gedreht',(#499),#474,.T.) ;
#522=ADVANCED_FACE('S3D gedreht',(#521),#505,.F.) ;
#546=ADVANCED_FACE('S3D gedreht',(#545),#527,.F.) ;
#570=ADVANCED_FACE('S3D gedreht',(#569),#551,.T.) ;
#4=APPLICATION_PROTOCOL_DEFINITION('international standard','automotive_design',2001,#1) ;
#22=MANIFOLD_SOLID_BREP('S3D gedreht',#31) ;
#23=DRAUGHTING_PRE_DEFINED_COLOUR('white') ;
#45=EDGE_CURVE('',#42,#44,#40,.F.) ;
#52=EDGE_CURVE('',#51,#44,#49,.T.) ;
#59=EDGE_CURVE('',#58,#51,#56,.F.) ;
#64=EDGE_CURVE('',#58,#42,#63,.T.) ;
#83=EDGE_CURVE('',#82,#42,#80,.T.) ;
#90=EDGE_CURVE('',#89,#58,#87,.T.) ;
#95=EDGE_CURVE('',#89,#82,#94,.T.) ;
#114=EDGE_CURVE('',#113,#82,#111,.T.) ;
#121=EDGE_CURVE('',#120,#89,#118,.T.) ;
#126=EDGE_CURVE('',#120,#113,#125,.T.) ;
#145=EDGE_CURVE('',#144,#113,#142,.T.) ;
#152=EDGE_CURVE('',#151,#120,#149,.T.) ;
#157=EDGE_CURVE('',#151,#144,#156,.T.) ;
#176=EDGE_CURVE('',#175,#144,#173,.F.) ;
#183=EDGE_CURVE('',#182,#151,#180,.F.) ;
#188=EDGE_CURVE('',#182,#175,#187,.T.) ;
#207=EDGE_CURVE('',#206,#175,#204,.F.) ;
#214=EDGE_CURVE('',#213,#182,#211,.F.) ;
#219=EDGE_CURVE('',#213,#206,#218,.T.) ;
#238=EDGE_CURVE('',#237,#206,#235,.F.) ;
#245=EDGE_CURVE('',#244,#213,#242,.F.) ;
#250=EDGE_CURVE('',#244,#237,#249,.T.) ;
#269=EDGE_CURVE('',#268,#237,#266,.F.) ;
#276=EDGE_CURVE('',#275,#244,#273,.F.) ;
#281=EDGE_CURVE('',#275,#268,#280,.T.) ;
#300=EDGE_CURVE('',#299,#268,#297,.T.) ;
#307=EDGE_CURVE('',#306,#275,#304,.T.) ;
#312=EDGE_CURVE('',#306,#299,#311,.T.) ;
#326=EDGE_CURVE('',#325,#299,#323,.T.) ;
#333=EDGE_CURVE('',#332,#306,#330,.T.) ;
#338=EDGE_CURVE('',#332,#325,#337,.T.) ;
#357=EDGE_CURVE('',#356,#325,#354,.T.) ;
#364=EDGE_CURVE('',#363,#332,#361,.T.) ;
#369=EDGE_CURVE('',#363,#356,#368,.T.) ;
#388=EDGE_CURVE('',#387,#356,#385,.T.) ;
#395=EDGE_CURVE('',#394,#363,#392,.T.) ;
#400=EDGE_CURVE('',#394,#387,#399,.T.) ;
#419=EDGE_CURVE('',#418,#387,#416,.F.) ;
#426=EDGE_CURVE('',#425,#394,#423,.F.) ;
#431=EDGE_CURVE('',#425,#418,#430,.T.) ;
#450=EDGE_CURVE('',#449,#418,#447,.T.) ;
#457=EDGE_CURVE('',#456,#425,#454,.T.) ;
#462=EDGE_CURVE('',#456,#449,#461,.T.) ;
#481=EDGE_CURVE('',#480,#449,#478,.F.) ;
#488=EDGE_CURVE('',#487,#456,#485,.F.) ;
#493=EDGE_CURVE('',#487,#480,#492,.T.) ;
#510=EDGE_CURVE('',#44,#480,#509,.T.) ;
#515=EDGE_CURVE('',#51,#487,#514,.T.) ;
#65=EDGE_LOOP('',(#66,#67,#68,#69)) ;
#96=EDGE_LOOP('',(#97,#98,#99,#100)) ;
#127=EDGE_LOOP('',(#128,#129,#130,#131)) ;
#158=EDGE_LOOP('',(#159,#160,#161,#162)) ;
#189=EDGE_LOOP('',(#190,#191,#192,#193)) ;
#220=EDGE_LOOP('',(#221,#222,#223,#224)) ;
#251=EDGE_LOOP('',(#252,#253,#254,#255)) ;
#282=EDGE_LOOP('',(#283,#284,#285,#286)) ;
#313=EDGE_LOOP('',(#314,#315,#316,#317)) ;
#339=EDGE_LOOP('',(#340,#341,#342,#343)) ;
#370=EDGE_LOOP('',(#371,#372,#373,#374)) ;
#401=EDGE_LOOP('',(#402,#403,#404,#405)) ;
#432=EDGE_LOOP('',(#433,#434,#435,#436)) ;
#463=EDGE_LOOP('',(#464,#465,#466,#467)) ;
#494=EDGE_LOOP('',(#495,#496,#497,#498)) ;
#516=EDGE_LOOP('',(#517,#518,#519,#520)) ;
#528=EDGE_LOOP('',(#529,#530,#531,#532,#533,#534,#535,#536,#537,#538,#539,#540,#541,#542,#543,#544)) ;
#552=EDGE_LOOP('',(#553,#554,#555,#556,#557,#558,#559,#560,#561,#562,#563,#564,#565,#566,#567,#568)) ;
#70=FACE_OUTER_BOUND('',#65,.T.) ;
#101=FACE_OUTER_BOUND('',#96,.T.) ;
#132=FACE_OUTER_BOUND('',#127,.T.) ;
#163=FACE_OUTER_BOUND('',#158,.T.) ;
#194=FACE_OUTER_BOUND('',#189,.T.) ;
#225=FACE_OUTER_BOUND('',#220,.T.) ;
#256=FACE_OUTER_BOUND('',#251,.T.) ;
#287=FACE_OUTER_BOUND('',#282,.T.) ;
#318=FACE_OUTER_BOUND('',#313,.T.) ;
#344=FACE_OUTER_BOUND('',#339,.T.) ;
#375=FACE_OUTER_BOUND('',#370,.T.) ;
#406=FACE_OUTER_BOUND('',#401,.T.) ;
#437=FACE_OUTER_BOUND('',#432,.T.) ;
#468=FACE_OUTER_BOUND('',#463,.T.) ;
#499=FACE_OUTER_BOUND('',#494,.T.) ;
#521=FACE_OUTER_BOUND('',#516,.T.) ;
#545=FACE_OUTER_BOUND('',#528,.T.) ;
#569=FACE_OUTER_BOUND('',#552,.T.) ;
#40=LINE('Line',#37,#39) ;
#49=LINE('Line',#46,#48) ;
#56=LINE('Line',#53,#55) ;
#63=LINE('Line',#60,#62) ;
#80=LINE('Line',#77,#79) ;
#87=LINE('Line',#84,#86) ;
#94=LINE('Line',#91,#93) ;
#111=LINE('Line',#108,#110) ;
#118=LINE('Line',#115,#117) ;
#125=LINE('Line',#122,#124) ;
#142=LINE('Line',#139,#141) ;
#149=LINE('Line',#146,#148) ;
#156=LINE('Line',#153,#155) ;
#173=LINE('Line',#170,#172) ;
#180=LINE('Line',#177,#179) ;
#187=LINE('Line',#184,#186) ;
#204=LINE('Line',#201,#203) ;
#211=LINE('Line',#208,#210) ;
#218=LINE('Line',#215,#217) ;
#235=LINE('Line',#232,#234) ;
#242=LINE('Line',#239,#241) ;
#249=LINE('Line',#246,#248) ;
#266=LINE('Line',#263,#265) ;
#273=LINE('Line',#270,#272) ;
#280=LINE('Line',#277,#279) ;
#297=LINE('Line',#294,#296) ;
#304=LINE('Line',#301,#303) ;
#311=LINE('Line',#308,#310) ;
#323=LINE('Line',#320,#322) ;
#330=LINE('Line',#327,#329) ;
#337=LINE('Line',#334,#336) ;
#354=LINE('Line',#351,#353) ;
#361=LINE('Line',#358,#360) ;
#368=LINE('Line',#365,#367) ;
#385=LINE('Line',#382,#384) ;
#392=LINE('Line',#389,#391) ;
#399=LINE('Line',#396,#398) ;
#416=LINE('Line',#413,#415) ;
#423=LINE('Line',#420,#422) ;
#430=LINE('Line',#427,#429) ;
#447=LINE('Line',#444,#446) ;
#454=LINE('Line',#451,#453) ;
#461=LINE('Line',#458,#460) ;
#478=LINE('Line',#475,#477) ;
#485=LINE('Line',#482,#484) ;
#492=LINE('Line',#489,#491) ;
#509=LINE('Line',#506,#508) ;
#514=LINE('Line',#511,#513) ;
#36=PLANE('',#35) ;
#76=PLANE('',#75) ;
#107=PLANE('',#106) ;
#138=PLANE('',#137) ;
#169=PLANE('',#168) ;
#200=PLANE('',#199) ;
#231=PLANE('',#230) ;
#262=PLANE('',#261) ;
#293=PLANE('',#292) ;
#350=PLANE('',#349) ;
#381=PLANE('',#380) ;
#412=PLANE('',#411) ;
#443=PLANE('',#442) ;
#474=PLANE('',#473) ;
#505=PLANE('',#504) ;
#527=PLANE('',#526) ;
#551=PLANE('',#550) ;
#14=PLANE_ANGLE_MEASURE_WITH_UNIT(PLANE_ANGLE_MEASURE(0.0174532925199),#13) ;
#9=PRODUCT_CATEGORY_RELATIONSHIP(' ',' ',#7,#8) ;
#6=PRODUCT_DEFINITION_FORMATION_WITH_SPECIFIED_SOURCE('',' ',#5,.NOT_KNOWN.) ;
#21=SHAPE_DEFINITION_REPRESENTATION(#11,#20) ;
#42=VERTEX_POINT('',#41) ;
#44=VERTEX_POINT('',#43) ;
#51=VERTEX_POINT('',#50) ;
#58=VERTEX_POINT('',#57) ;
#82=VERTEX_POINT('',#81) ;
#89=VERTEX_POINT('',#88) ;
#113=VERTEX_POINT('',#112) ;
#120=VERTEX_POINT('',#119) ;
#144=VERTEX_POINT('',#143) ;
#151=VERTEX_POINT('',#150) ;
#175=VERTEX_POINT('',#174) ;
#182=VERTEX_POINT('',#181) ;
#206=VERTEX_POINT('',#205) ;
#213=VERTEX_POINT('',#212) ;
#237=VERTEX_POINT('',#236) ;
#244=VERTEX_POINT('',#243) ;
#268=VERTEX_POINT('',#267) ;
#275=VERTEX_POINT('',#274) ;
#299=VERTEX_POINT('',#298) ;
#306=VERTEX_POINT('',#305) ;
#325=VERTEX_POINT('',#324) ;
#332=VERTEX_POINT('',#331) ;
#356=VERTEX_POINT('',#355) ;
#363=VERTEX_POINT('',#362) ;
#387=VERTEX_POINT('',#386) ;
#394=VERTEX_POINT('',#393) ;
#418=VERTEX_POINT('',#417) ;
#425=VERTEX_POINT('',#424) ;
#449=VERTEX_POINT('',#448) ;
#456=VERTEX_POINT('',#455) ;
#480=VERTEX_POINT('',#479) ;
#487=VERTEX_POINT('',#486) ;
#12=(LENGTH_UNIT()NAMED_UNIT(*)SI_UNIT(.MILLI.,.METRE.)) ;
#13=(NAMED_UNIT(*)PLANE_ANGLE_UNIT()SI_UNIT($,.RADIAN.)) ;
#15=(NAMED_UNIT(*)SI_UNIT($,.STERADIAN.)SOLID_ANGLE_UNIT()) ;
#17=(GEOMETRIC_REPRESENTATION_CONTEXT(3)GLOBAL_UNCERTAINTY_ASSIGNED_CONTEXT((#16))GLOBAL_UNIT_ASSIGNED_CONTEXT((#12,#13,#15))REPRESENTATION_CONTEXT(' ',' ')) ;
ENDSEC;
END-ISO-10303-21;
