ISO-10303-21;
HEADER;
FILE_DESCRIPTION(('CATIA V5 STEP Exchange','CAx-IF Rec.Pracs.--- Model Styling and Organization---1.5--- 2016-08-15','CAx-IF Rec.Pracs.---Supplemental Geometry---1.0---2011-11-01','CAx-IF Rec.Pracs.--- Composite Materials ---1.1---2010-07-15'),'2;1');

FILE_NAME ('D1458290_0', '2025-09-22T05:25:41+00:00', ('none'), ('Weidmueller'), 'CATIA Version 5-6 Release 2024 SP4', 'CATIA V5 STEP AP214 v3', 'none');

FILE_SCHEMA(('AUTOMOTIVE_DESIGN { 1 0 10303 214 1 1 1 1 }'));

ENDSEC;
DATA;
#5=PRODUCT('MF 5/7.5','','<Q-CHECKER_SEAL> Q-Checker Version 2.14.8  \X2\000A\X0\CATIA-Version         : Catia V5 R20 SP5 Build Date 01-14-2011.22.00\X2\000A\X0\Model size (in KByte) : 0\X2\000A\X0\Checking date         : 2012-09-04 10:07:55\X2\000A\X0\Checking profile      : ADMIN / Release_2D-3D [CATPart]\X2\000A\X0\Model assessment      : In Ordnung (IO)\X2\000A\X0\Total weight sum      : 0\X2\000A\X0\<CROSS_CHECK_SUM>\X2\000A\X0\  <CHKSUM_DATE> -460399765 </CHKSUM_DATE>\X2\000A\X0\  <CHKSUM_ENTITIES> 1556060646 </CHKSUM_ENTITIES>\X2\000A\X0\  <CHKSUM_PROFILE> 1594213346 </CHKSUM_PROFILE>\X2\000A\X0\  <CHKSUM_DIMENSION> -186917087 </CHKSUM_DIMENSION>\X2\000A\X0\  <CHKSUM_PROJINTERSEC> -896974048 </CHKSUM_PROJINTERSEC>\X2\000A\X0\  <CHKSUM_IDENTCRV> -896974048 </CHKSUM_IDENTCRV>\X2\000A\X0\  <CHKSUM_INFINITY> 138018827 </CHKSUM_INFINITY>\X2\000A\X0\</CROSS_CHECK_SUM>\X2\000A\X0\</Q-CHECKER_SEAL> \X2\000A\X0\ \X2\000A\X0\ \X2\000A\X0\',(#2)) ;
#2=PRODUCT_CONTEXT(' ',#1,'mechanical') ;
#1=APPLICATION_CONTEXT('automotive design') ;
#10=PRODUCT_DEFINITION('',' ',#6,#3) ;
#3=PRODUCT_DEFINITION_CONTEXT('part definition',#1,' ') ;
#11=PRODUCT_DEFINITION_SHAPE(' ',' ',#10) ;
#573=MECHANICAL_DESIGN_GEOMETRIC_PRESENTATION_REPRESENTATION(' ',(#29),#16) ;
#19=SHAPE_REPRESENTATION(' ',(#18),#16) ;
#18=AXIS2_PLACEMENT_3D(' ',#17,$,$) ;
#35=AXIS2_PLACEMENT_3D('Plane Axis2P3D',#32,#33,#34) ;
#75=AXIS2_PLACEMENT_3D('Plane Axis2P3D',#72,#73,#74) ;
#138=AXIS2_PLACEMENT_3D('Plane Axis2P3D',#135,#136,#137) ;
#251=AXIS2_PLACEMENT_3D('Plane Axis2P3D',#248,#249,#250) ;
#275=AXIS2_PLACEMENT_3D('Plane Axis2P3D',#272,#273,#274) ;
#292=AXIS2_PLACEMENT_3D('Plane Axis2P3D',#289,#290,#291) ;
#304=AXIS2_PLACEMENT_3D('Plane Axis2P3D',#301,#302,#303) ;
#328=AXIS2_PLACEMENT_3D('Plane Axis2P3D',#325,#326,#327) ;
#352=AXIS2_PLACEMENT_3D('Plane Axis2P3D',#349,#350,#351) ;
#395=AXIS2_PLACEMENT_3D('Plane Axis2P3D',#392,#393,#394) ;
#438=AXIS2_PLACEMENT_3D('Plane Axis2P3D',#435,#436,#437) ;
#459=AXIS2_PLACEMENT_3D('Plane Axis2P3D',#456,#457,#458) ;
#490=AXIS2_PLACEMENT_3D('Plane Axis2P3D',#487,#488,#489) ;
#514=AXIS2_PLACEMENT_3D('Plane Axis2P3D',#511,#512,#513) ;
#538=AXIS2_PLACEMENT_3D('Plane Axis2P3D',#535,#536,#537) ;
#562=AXIS2_PLACEMENT_3D('Plane Axis2P3D',#559,#560,#561) ;
#17=CARTESIAN_POINT(' ',(0.,0.,0.)) ;
#32=CARTESIAN_POINT('Axis2P3D Location',(0.65,4.4408920985E-16,2.4)) ;
#37=CARTESIAN_POINT('Line Origine',(0.65,4.37965975877E-16,2.30000000037)) ;
#41=CARTESIAN_POINT('Vertex',(0.65,4.4408920985E-16,2.4)) ;
#43=CARTESIAN_POINT('Vertex',(0.65,4.31842741904E-16,2.20000000075)) ;
#46=CARTESIAN_POINT('Line Origine',(0.65,0.349999999627,2.4)) ;
#50=CARTESIAN_POINT('Vertex',(0.65,0.699999999255,2.4)) ;
#53=CARTESIAN_POINT('Line Origine',(0.65,0.699999999255,2.30000000037)) ;
#57=CARTESIAN_POINT('Vertex',(0.65,0.699999999255,2.20000000075)) ;
#60=CARTESIAN_POINT('Line Origine',(0.65,0.349999999627,2.20000000075)) ;
#72=CARTESIAN_POINT('Axis2P3D Location',(7.3,-1.7763568394E-15,2.4)) ;
#77=CARTESIAN_POINT('Line Origine',(6.64999999963,-1.78248007337E-15,2.30000000037)) ;
#81=CARTESIAN_POINT('Vertex',(6.65,7.45058015283E-10,2.4)) ;
#83=CARTESIAN_POINT('Vertex',(6.65,3.72529118664E-10,2.2)) ;
#86=CARTESIAN_POINT('Line Origine',(6.97499999981,-1.7763568394E-15,2.4)) ;
#90=CARTESIAN_POINT('Vertex',(7.30000000037,3.72529118664E-10,2.4)) ;
#93=CARTESIAN_POINT('Line Origine',(7.3,-1.75186390339E-15,2.80000000037)) ;
#97=CARTESIAN_POINT('Vertex',(7.3,-8.38870911514E-15,3.20000000075)) ;
#100=CARTESIAN_POINT('Line Origine',(3.64999999963,-1.72737096739E-15,3.20000000075)) ;
#104=CARTESIAN_POINT('Vertex',(0.,7.45058286314E-10,3.20000000075)) ;
#107=CARTESIAN_POINT('Line Origine',(-7.4505734915E-10,-1.75186390339E-15,2.80000000037)) ;
#111=CARTESIAN_POINT('Vertex',(-3.72529118664E-10,3.72529118664E-10,2.4)) ;
#114=CARTESIAN_POINT('Line Origine',(0.324999999441,-1.7763568394E-15,2.4)) ;
#119=CARTESIAN_POINT('Line Origine',(3.64999999963,-1.78860330735E-15,2.20000000075)) ;
#135=CARTESIAN_POINT('Axis2P3D Location',(3.65,2.6,2.4)) ;
#140=CARTESIAN_POINT('Line Origine',(0.65,4.85,2.4)) ;
#144=CARTESIAN_POINT('Vertex',(0.65,4.5,2.4)) ;
#146=CARTESIAN_POINT('Vertex',(0.65,5.19999999925,2.4)) ;
#149=CARTESIAN_POINT('Line Origine',(3.65,4.50000000037,2.4)) ;
#153=CARTESIAN_POINT('Vertex',(6.65,4.5,2.4)) ;
#156=CARTESIAN_POINT('Line Origine',(6.65,4.85,2.4)) ;
#160=CARTESIAN_POINT('Vertex',(6.65,5.2,2.4)) ;
#163=CARTESIAN_POINT('Line Origine',(6.97500000019,5.19999999963,2.4)) ;
#167=CARTESIAN_POINT('Vertex',(7.30000000037,5.19999999963,2.4)) ;
#170=CARTESIAN_POINT('Line Origine',(7.30000000037,2.6,2.4)) ;
#175=CARTESIAN_POINT('Line Origine',(6.65,0.35,2.4)) ;
#179=CARTESIAN_POINT('Vertex',(6.65,0.7,2.4)) ;
#182=CARTESIAN_POINT('Line Origine',(3.65,0.699999999627,2.4)) ;
#187=CARTESIAN_POINT('Line Origine',(-3.72529118664E-10,2.6,2.4)) ;
#191=CARTESIAN_POINT('Vertex',(-3.72529118664E-10,5.19999999963,2.4)) ;
#194=CARTESIAN_POINT('Line Origine',(0.324999999814,5.19999999963,2.4)) ;
#213=CARTESIAN_POINT('Line Origine',(4.15,2.6,2.4)) ;
#217=CARTESIAN_POINT('Vertex',(4.15,3.1,2.4)) ;
#219=CARTESIAN_POINT('Vertex',(4.15,2.1,2.4)) ;
#222=CARTESIAN_POINT('Line Origine',(3.65,3.1,2.4)) ;
#226=CARTESIAN_POINT('Vertex',(3.15,3.1,2.4)) ;
#229=CARTESIAN_POINT('Line Origine',(3.15,2.6,2.4)) ;
#233=CARTESIAN_POINT('Vertex',(3.15,2.1,2.4)) ;
#236=CARTESIAN_POINT('Line Origine',(3.65,2.1,2.4)) ;
#248=CARTESIAN_POINT('Axis2P3D Location',(6.65,0.7,2.4)) ;
#253=CARTESIAN_POINT('Line Origine',(6.65,0.7,2.30000000037)) ;
#257=CARTESIAN_POINT('Vertex',(6.65,0.7,2.20000000075)) ;
#260=CARTESIAN_POINT('Line Origine',(3.65,0.7,2.20000000075)) ;
#272=CARTESIAN_POINT('Axis2P3D Location',(3.65,2.6,2.2)) ;
#277=CARTESIAN_POINT('Line Origine',(6.65,0.35,2.2)) ;
#289=CARTESIAN_POINT('Axis2P3D Location',(6.65,0.7,2.4)) ;
#301=CARTESIAN_POINT('Axis2P3D Location',(7.3,-8.43769498715E-15,2.4)) ;
#306=CARTESIAN_POINT('Line Origine',(7.3,5.19999999925,2.80000000037)) ;
#310=CARTESIAN_POINT('Vertex',(7.3,5.19999999925,3.20000000075)) ;
#313=CARTESIAN_POINT('Line Origine',(7.3,2.59999999963,3.20000000075)) ;
#325=CARTESIAN_POINT('Axis2P3D Location',(3.65,2.6,3.2)) ;
#330=CARTESIAN_POINT('Line Origine',(3.65,5.19999999963,3.2)) ;
#334=CARTESIAN_POINT('Vertex',(0.,5.2,3.20000000075)) ;
#337=CARTESIAN_POINT('Line Origine',(-3.72529118664E-10,2.6,3.2)) ;
#349=CARTESIAN_POINT('Axis2P3D Location',(0.,5.2,2.4)) ;
#354=CARTESIAN_POINT('Line Origine',(0.,5.2,2.80000000037)) ;
#366=CARTESIAN_POINT('Line Origine',(0.65,4.5,2.30000000037)) ;
#370=CARTESIAN_POINT('Vertex',(0.65,4.5,2.20000000075)) ;
#373=CARTESIAN_POINT('Line Origine',(0.65,5.19999999925,2.30000000037)) ;
#377=CARTESIAN_POINT('Vertex',(0.65,5.19999999925,2.20000000075)) ;
#380=CARTESIAN_POINT('Line Origine',(0.65,4.84999999963,2.20000000075)) ;
#392=CARTESIAN_POINT('Axis2P3D Location',(6.65,4.5,2.4)) ;
#397=CARTESIAN_POINT('Line Origine',(6.65,4.5,2.30000000037)) ;
#401=CARTESIAN_POINT('Vertex',(6.65,4.50000000037,2.2)) ;
#404=CARTESIAN_POINT('Line Origine',(3.65,4.5,2.20000000075)) ;
#416=CARTESIAN_POINT('Line Origine',(6.65,5.2,2.30000000037)) ;
#420=CARTESIAN_POINT('Vertex',(6.65,5.19999999963,2.2)) ;
#423=CARTESIAN_POINT('Line Origine',(6.65,4.85000000037,2.20000000075)) ;
#435=CARTESIAN_POINT('Axis2P3D Location',(0.,5.2,2.4)) ;
#440=CARTESIAN_POINT('Line Origine',(3.65000000037,5.2,2.20000000075)) ;
#456=CARTESIAN_POINT('Axis2P3D Location',(4.15,3.1,2.4)) ;
#461=CARTESIAN_POINT('Line Origine',(4.15,3.1,1.19999999981)) ;
#465=CARTESIAN_POINT('Vertex',(4.15,3.1,-3.72529118664E-10)) ;
#468=CARTESIAN_POINT('Line Origine',(4.15,2.1,1.19999999981)) ;
#472=CARTESIAN_POINT('Vertex',(4.15,2.1,-3.72529118664E-10)) ;
#475=CARTESIAN_POINT('Line Origine',(4.15,2.6,-3.72529118664E-10)) ;
#487=CARTESIAN_POINT('Axis2P3D Location',(4.15,3.1,2.4)) ;
#492=CARTESIAN_POINT('Line Origine',(3.15,3.1,1.19999999981)) ;
#496=CARTESIAN_POINT('Vertex',(3.15,3.1,-3.72529118664E-10)) ;
#499=CARTESIAN_POINT('Line Origine',(3.65,3.1,-3.72529118664E-10)) ;
#511=CARTESIAN_POINT('Axis2P3D Location',(3.15,2.1,2.4)) ;
#516=CARTESIAN_POINT('Line Origine',(3.15,2.1,1.19999999981)) ;
#520=CARTESIAN_POINT('Vertex',(3.15,2.1,-3.72529118664E-10)) ;
#523=CARTESIAN_POINT('Line Origine',(3.15,2.6,-3.72529118664E-10)) ;
#535=CARTESIAN_POINT('Axis2P3D Location',(3.15,2.1,2.4)) ;
#540=CARTESIAN_POINT('Line Origine',(3.65,2.1,-3.72529118664E-10)) ;
#559=CARTESIAN_POINT('Axis2P3D Location',(3.65,2.6,0.)) ;
#33=DIRECTION('Axis2P3D Direction',(-1.,0.,-0.)) ;
#34=DIRECTION('Axis2P3D XDirection',(0.,1.,-6.12323399574E-17)) ;
#38=DIRECTION('Vector Direction',(0.,-6.12323399574E-17,-1.)) ;
#47=DIRECTION('Vector Direction',(0.,1.,0.)) ;
#54=DIRECTION('Vector Direction',(0.,0.,-1.)) ;
#61=DIRECTION('Vector Direction',(0.,1.,0.)) ;
#73=DIRECTION('Axis2P3D Direction',(0.,1.,-6.12323399574E-17)) ;
#74=DIRECTION('Axis2P3D XDirection',(-1.,0.,0.)) ;
#78=DIRECTION('Vector Direction',(0.,-6.12323399574E-17,-1.)) ;
#87=DIRECTION('Vector Direction',(-1.,0.,0.)) ;
#94=DIRECTION('Vector Direction',(0.,6.12323399574E-17,1.)) ;
#101=DIRECTION('Vector Direction',(-1.,0.,0.)) ;
#108=DIRECTION('Vector Direction',(0.,6.12323399574E-17,1.)) ;
#115=DIRECTION('Vector Direction',(-1.,0.,0.)) ;
#120=DIRECTION('Vector Direction',(1.,0.,0.)) ;
#136=DIRECTION('Axis2P3D Direction',(0.,6.12323399574E-17,1.)) ;
#137=DIRECTION('Axis2P3D XDirection',(-1.,0.,0.)) ;
#141=DIRECTION('Vector Direction',(0.,-1.,0.)) ;
#150=DIRECTION('Vector Direction',(-1.,0.,0.)) ;
#157=DIRECTION('Vector Direction',(0.,1.,0.)) ;
#164=DIRECTION('Vector Direction',(1.,0.,0.)) ;
#171=DIRECTION('Vector Direction',(0.,1.,0.)) ;
#176=DIRECTION('Vector Direction',(0.,-1.,0.)) ;
#183=DIRECTION('Vector Direction',(-1.,0.,0.)) ;
#188=DIRECTION('Vector Direction',(0.,-1.,0.)) ;
#195=DIRECTION('Vector Direction',(1.,0.,0.)) ;
#214=DIRECTION('Vector Direction',(0.,-1.,0.)) ;
#223=DIRECTION('Vector Direction',(-1.,0.,0.)) ;
#230=DIRECTION('Vector Direction',(0.,1.,0.)) ;
#237=DIRECTION('Vector Direction',(1.,0.,0.)) ;
#249=DIRECTION('Axis2P3D Direction',(0.,-1.,6.12323399574E-17)) ;
#250=DIRECTION('Axis2P3D XDirection',(-1.,0.,0.)) ;
#254=DIRECTION('Vector Direction',(0.,0.,-1.)) ;
#261=DIRECTION('Vector Direction',(-1.,0.,0.)) ;
#273=DIRECTION('Axis2P3D Direction',(0.,-6.12323399574E-17,-1.)) ;
#274=DIRECTION('Axis2P3D XDirection',(1.,0.,0.)) ;
#278=DIRECTION('Vector Direction',(0.,-1.,0.)) ;
#290=DIRECTION('Axis2P3D Direction',(1.,0.,0.)) ;
#291=DIRECTION('Axis2P3D XDirection',(0.,-1.,6.12323399574E-17)) ;
#302=DIRECTION('Axis2P3D Direction',(1.,-0.,0.)) ;
#303=DIRECTION('Axis2P3D XDirection',(0.,1.,-6.12323399574E-17)) ;
#307=DIRECTION('Vector Direction',(0.,0.,1.)) ;
#314=DIRECTION('Vector Direction',(0.,1.,-8.54017711372E-17)) ;
#326=DIRECTION('Axis2P3D Direction',(0.,6.12323399574E-17,1.)) ;
#327=DIRECTION('Axis2P3D XDirection',(-1.,0.,0.)) ;
#331=DIRECTION('Vector Direction',(1.,0.,0.)) ;
#338=DIRECTION('Vector Direction',(0.,-1.,0.)) ;
#350=DIRECTION('Axis2P3D Direction',(-1.,0.,0.)) ;
#351=DIRECTION('Axis2P3D XDirection',(0.,-1.,6.12323399574E-17)) ;
#355=DIRECTION('Vector Direction',(0.,0.,1.)) ;
#367=DIRECTION('Vector Direction',(0.,0.,-1.)) ;
#374=DIRECTION('Vector Direction',(0.,0.,-1.)) ;
#381=DIRECTION('Vector Direction',(0.,-1.,0.)) ;
#393=DIRECTION('Axis2P3D Direction',(0.,-1.,6.12323399574E-17)) ;
#394=DIRECTION('Axis2P3D XDirection',(-1.,0.,0.)) ;
#398=DIRECTION('Vector Direction',(0.,0.,-1.)) ;
#405=DIRECTION('Vector Direction',(-1.,0.,0.)) ;
#417=DIRECTION('Vector Direction',(0.,0.,-1.)) ;
#424=DIRECTION('Vector Direction',(0.,1.,0.)) ;
#436=DIRECTION('Axis2P3D Direction',(0.,-1.,6.12323399574E-17)) ;
#437=DIRECTION('Axis2P3D XDirection',(1.,0.,0.)) ;
#441=DIRECTION('Vector Direction',(1.,0.,0.)) ;
#457=DIRECTION('Axis2P3D Direction',(1.,0.,0.)) ;
#458=DIRECTION('Axis2P3D XDirection',(0.,-1.,6.12323399574E-17)) ;
#462=DIRECTION('Vector Direction',(0.,0.,-1.)) ;
#469=DIRECTION('Vector Direction',(0.,0.,-1.)) ;
#476=DIRECTION('Vector Direction',(0.,-1.,0.)) ;
#488=DIRECTION('Axis2P3D Direction',(0.,-1.,6.12323399574E-17)) ;
#489=DIRECTION('Axis2P3D XDirection',(-1.,0.,0.)) ;
#493=DIRECTION('Vector Direction',(0.,0.,-1.)) ;
#500=DIRECTION('Vector Direction',(-1.,0.,0.)) ;
#512=DIRECTION('Axis2P3D Direction',(-1.,0.,-0.)) ;
#513=DIRECTION('Axis2P3D XDirection',(0.,1.,-6.12323399574E-17)) ;
#517=DIRECTION('Vector Direction',(0.,0.,-1.)) ;
#524=DIRECTION('Vector Direction',(0.,1.,0.)) ;
#536=DIRECTION('Axis2P3D Direction',(0.,1.,-6.12323399574E-17)) ;
#537=DIRECTION('Axis2P3D XDirection',(1.,0.,0.)) ;
#541=DIRECTION('Vector Direction',(1.,0.,0.)) ;
#560=DIRECTION('Axis2P3D Direction',(0.,-6.12323399574E-17,-1.)) ;
#561=DIRECTION('Axis2P3D XDirection',(1.,0.,0.)) ;
#30=PRESENTATION_LAYER_ASSIGNMENT('1',' ',(#21)) ;
#8=PRODUCT_RELATED_PRODUCT_CATEGORY('part',$,(#5)) ;
#7=PRODUCT_CATEGORY('part','specification') ;
#29=STYLED_ITEM(' ',(#28),#21) ;
#28=PRESENTATION_STYLE_ASSIGNMENT((#27)) ;
#27=SURFACE_STYLE_USAGE(.BOTH.,#26) ;
#26=SURFACE_SIDE_STYLE(' ',(#25)) ;
#25=SURFACE_STYLE_FILL_AREA(#24) ;
#24=FILL_AREA_STYLE(' ',(#23)) ;
#23=FILL_AREA_STYLE_COLOUR(' ',#22) ;
#39=VECTOR('Line Direction',#38,1.) ;
#48=VECTOR('Line Direction',#47,1.) ;
#55=VECTOR('Line Direction',#54,1.) ;
#62=VECTOR('Line Direction',#61,1.) ;
#79=VECTOR('Line Direction',#78,1.) ;
#88=VECTOR('Line Direction',#87,1.) ;
#95=VECTOR('Line Direction',#94,1.) ;
#102=VECTOR('Line Direction',#101,1.) ;
#109=VECTOR('Line Direction',#108,1.) ;
#116=VECTOR('Line Direction',#115,1.) ;
#121=VECTOR('Line Direction',#120,1.) ;
#142=VECTOR('Line Direction',#141,1.) ;
#151=VECTOR('Line Direction',#150,1.) ;
#158=VECTOR('Line Direction',#157,1.) ;
#165=VECTOR('Line Direction',#164,1.) ;
#172=VECTOR('Line Direction',#171,1.) ;
#177=VECTOR('Line Direction',#176,1.) ;
#184=VECTOR('Line Direction',#183,1.) ;
#189=VECTOR('Line Direction',#188,1.) ;
#196=VECTOR('Line Direction',#195,1.) ;
#215=VECTOR('Line Direction',#214,1.) ;
#224=VECTOR('Line Direction',#223,1.) ;
#231=VECTOR('Line Direction',#230,1.) ;
#238=VECTOR('Line Direction',#237,1.) ;
#255=VECTOR('Line Direction',#254,1.) ;
#262=VECTOR('Line Direction',#261,1.) ;
#279=VECTOR('Line Direction',#278,1.) ;
#308=VECTOR('Line Direction',#307,1.) ;
#315=VECTOR('Line Direction',#314,1.) ;
#332=VECTOR('Line Direction',#331,1.) ;
#339=VECTOR('Line Direction',#338,1.) ;
#356=VECTOR('Line Direction',#355,1.) ;
#368=VECTOR('Line Direction',#367,1.) ;
#375=VECTOR('Line Direction',#374,1.) ;
#382=VECTOR('Line Direction',#381,1.) ;
#399=VECTOR('Line Direction',#398,1.) ;
#406=VECTOR('Line Direction',#405,1.) ;
#418=VECTOR('Line Direction',#417,1.) ;
#425=VECTOR('Line Direction',#424,1.) ;
#442=VECTOR('Line Direction',#441,1.) ;
#463=VECTOR('Line Direction',#462,1.) ;
#470=VECTOR('Line Direction',#469,1.) ;
#477=VECTOR('Line Direction',#476,1.) ;
#494=VECTOR('Line Direction',#493,1.) ;
#501=VECTOR('Line Direction',#500,1.) ;
#518=VECTOR('Line Direction',#517,1.) ;
#525=VECTOR('Line Direction',#524,1.) ;
#542=VECTOR('Line Direction',#541,1.) ;
#15=UNCERTAINTY_MEASURE_WITH_UNIT(LENGTH_MEASURE(0.005),#12,'distance_accuracy_value','CONFUSED CURVE UNCERTAINTY') ;
#572=SHAPE_REPRESENTATION_RELATIONSHIP(' ',' ',#19,#571) ;
#66=ORIENTED_EDGE('',*,*,#45,.F.) ;
#67=ORIENTED_EDGE('',*,*,#52,.T.) ;
#68=ORIENTED_EDGE('',*,*,#59,.T.) ;
#69=ORIENTED_EDGE('',*,*,#64,.F.) ;
#125=ORIENTED_EDGE('',*,*,#85,.F.) ;
#126=ORIENTED_EDGE('',*,*,#92,.T.) ;
#127=ORIENTED_EDGE('',*,*,#99,.T.) ;
#128=ORIENTED_EDGE('',*,*,#106,.F.) ;
#129=ORIENTED_EDGE('',*,*,#113,.F.) ;
#130=ORIENTED_EDGE('',*,*,#118,.T.) ;
#131=ORIENTED_EDGE('',*,*,#45,.T.) ;
#132=ORIENTED_EDGE('',*,*,#123,.F.) ;
#200=ORIENTED_EDGE('',*,*,#148,.F.) ;
#201=ORIENTED_EDGE('',*,*,#155,.F.) ;
#202=ORIENTED_EDGE('',*,*,#162,.F.) ;
#203=ORIENTED_EDGE('',*,*,#169,.F.) ;
#204=ORIENTED_EDGE('',*,*,#174,.F.) ;
#205=ORIENTED_EDGE('',*,*,#92,.F.) ;
#206=ORIENTED_EDGE('',*,*,#181,.F.) ;
#207=ORIENTED_EDGE('',*,*,#186,.F.) ;
#208=ORIENTED_EDGE('',*,*,#52,.F.) ;
#209=ORIENTED_EDGE('',*,*,#118,.F.) ;
#210=ORIENTED_EDGE('',*,*,#193,.F.) ;
#211=ORIENTED_EDGE('',*,*,#198,.F.) ;
#242=ORIENTED_EDGE('',*,*,#221,.F.) ;
#243=ORIENTED_EDGE('',*,*,#228,.F.) ;
#244=ORIENTED_EDGE('',*,*,#235,.F.) ;
#245=ORIENTED_EDGE('',*,*,#240,.F.) ;
#266=ORIENTED_EDGE('',*,*,#59,.F.) ;
#267=ORIENTED_EDGE('',*,*,#186,.T.) ;
#268=ORIENTED_EDGE('',*,*,#259,.T.) ;
#269=ORIENTED_EDGE('',*,*,#264,.F.) ;
#283=ORIENTED_EDGE('',*,*,#64,.T.) ;
#284=ORIENTED_EDGE('',*,*,#264,.T.) ;
#285=ORIENTED_EDGE('',*,*,#281,.T.) ;
#286=ORIENTED_EDGE('',*,*,#123,.T.) ;
#295=ORIENTED_EDGE('',*,*,#259,.F.) ;
#296=ORIENTED_EDGE('',*,*,#181,.T.) ;
#297=ORIENTED_EDGE('',*,*,#85,.T.) ;
#298=ORIENTED_EDGE('',*,*,#281,.F.) ;
#319=ORIENTED_EDGE('',*,*,#99,.F.) ;
#320=ORIENTED_EDGE('',*,*,#174,.T.) ;
#321=ORIENTED_EDGE('',*,*,#312,.T.) ;
#322=ORIENTED_EDGE('',*,*,#317,.F.) ;
#343=ORIENTED_EDGE('',*,*,#317,.T.) ;
#344=ORIENTED_EDGE('',*,*,#336,.T.) ;
#345=ORIENTED_EDGE('',*,*,#341,.T.) ;
#346=ORIENTED_EDGE('',*,*,#106,.T.) ;
#360=ORIENTED_EDGE('',*,*,#358,.F.) ;
#361=ORIENTED_EDGE('',*,*,#193,.T.) ;
#362=ORIENTED_EDGE('',*,*,#113,.T.) ;
#363=ORIENTED_EDGE('',*,*,#341,.F.) ;
#386=ORIENTED_EDGE('',*,*,#372,.F.) ;
#387=ORIENTED_EDGE('',*,*,#148,.T.) ;
#388=ORIENTED_EDGE('',*,*,#379,.T.) ;
#389=ORIENTED_EDGE('',*,*,#384,.F.) ;
#410=ORIENTED_EDGE('',*,*,#403,.F.) ;
#411=ORIENTED_EDGE('',*,*,#155,.T.) ;
#412=ORIENTED_EDGE('',*,*,#372,.T.) ;
#413=ORIENTED_EDGE('',*,*,#408,.F.) ;
#429=ORIENTED_EDGE('',*,*,#422,.F.) ;
#430=ORIENTED_EDGE('',*,*,#162,.T.) ;
#431=ORIENTED_EDGE('',*,*,#403,.T.) ;
#432=ORIENTED_EDGE('',*,*,#427,.F.) ;
#446=ORIENTED_EDGE('',*,*,#379,.F.) ;
#447=ORIENTED_EDGE('',*,*,#198,.T.) ;
#448=ORIENTED_EDGE('',*,*,#358,.T.) ;
#449=ORIENTED_EDGE('',*,*,#336,.F.) ;
#450=ORIENTED_EDGE('',*,*,#312,.F.) ;
#451=ORIENTED_EDGE('',*,*,#169,.T.) ;
#452=ORIENTED_EDGE('',*,*,#422,.T.) ;
#453=ORIENTED_EDGE('',*,*,#444,.F.) ;
#481=ORIENTED_EDGE('',*,*,#467,.F.) ;
#482=ORIENTED_EDGE('',*,*,#221,.T.) ;
#483=ORIENTED_EDGE('',*,*,#474,.T.) ;
#484=ORIENTED_EDGE('',*,*,#479,.F.) ;
#505=ORIENTED_EDGE('',*,*,#498,.F.) ;
#506=ORIENTED_EDGE('',*,*,#228,.T.) ;
#507=ORIENTED_EDGE('',*,*,#467,.T.) ;
#508=ORIENTED_EDGE('',*,*,#503,.F.) ;
#529=ORIENTED_EDGE('',*,*,#522,.F.) ;
#530=ORIENTED_EDGE('',*,*,#235,.T.) ;
#531=ORIENTED_EDGE('',*,*,#498,.T.) ;
#532=ORIENTED_EDGE('',*,*,#527,.F.) ;
#546=ORIENTED_EDGE('',*,*,#474,.F.) ;
#547=ORIENTED_EDGE('',*,*,#240,.T.) ;
#548=ORIENTED_EDGE('',*,*,#522,.T.) ;
#549=ORIENTED_EDGE('',*,*,#544,.F.) ;
#553=ORIENTED_EDGE('',*,*,#384,.T.) ;
#554=ORIENTED_EDGE('',*,*,#444,.T.) ;
#555=ORIENTED_EDGE('',*,*,#427,.T.) ;
#556=ORIENTED_EDGE('',*,*,#408,.T.) ;
#565=ORIENTED_EDGE('',*,*,#527,.T.) ;
#566=ORIENTED_EDGE('',*,*,#503,.T.) ;
#567=ORIENTED_EDGE('',*,*,#479,.T.) ;
#568=ORIENTED_EDGE('',*,*,#544,.T.) ;
#246=FACE_BOUND('',#241,.T.) ;
#31=CLOSED_SHELL('Closed Shell',(#71,#134,#247,#271,#288,#300,#324,#348,#365,#391,#415,#434,#455,#486,#510,#534,#551,#558,#570)) ;
#571=ADVANCED_BREP_SHAPE_REPRESENTATION('NONE',(#21),#16) ;
#71=ADVANCED_FACE('S3D gedreht',(#70),#36,.T.) ;
#134=ADVANCED_FACE('S3D gedreht',(#133),#76,.F.) ;
#247=ADVANCED_FACE('S3D gedreht',(#212,#246),#139,.F.) ;
#271=ADVANCED_FACE('S3D gedreht',(#270),#252,.F.) ;
#288=ADVANCED_FACE('S3D gedreht',(#287),#276,.T.) ;
#300=ADVANCED_FACE('S3D gedreht',(#299),#293,.T.) ;
#324=ADVANCED_FACE('S3D gedreht',(#323),#305,.T.) ;
#348=ADVANCED_FACE('S3D gedreht',(#347),#329,.T.) ;
#365=ADVANCED_FACE('S3D gedreht',(#364),#353,.T.) ;
#391=ADVANCED_FACE('S3D gedreht',(#390),#36,.T.) ;
#415=ADVANCED_FACE('S3D gedreht',(#414),#396,.T.) ;
#434=ADVANCED_FACE('S3D gedreht',(#433),#293,.T.) ;
#455=ADVANCED_FACE('S3D gedreht',(#454),#439,.F.) ;
#486=ADVANCED_FACE('S3D gedreht',(#485),#460,.T.) ;
#510=ADVANCED_FACE('S3D gedreht',(#509),#491,.F.) ;
#534=ADVANCED_FACE('S3D gedreht',(#533),#515,.T.) ;
#551=ADVANCED_FACE('S3D gedreht',(#550),#539,.F.) ;
#558=ADVANCED_FACE('S3D gedreht',(#557),#276,.T.) ;
#570=ADVANCED_FACE('S3D gedreht',(#569),#563,.T.) ;
#4=APPLICATION_PROTOCOL_DEFINITION('international standard','automotive_design',2001,#1) ;
#21=MANIFOLD_SOLID_BREP('S3D gedreht',#31) ;
#22=DRAUGHTING_PRE_DEFINED_COLOUR('white') ;
#45=EDGE_CURVE('',#42,#44,#40,.T.) ;
#52=EDGE_CURVE('',#42,#51,#49,.T.) ;
#59=EDGE_CURVE('',#51,#58,#56,.T.) ;
#64=EDGE_CURVE('',#44,#58,#63,.T.) ;
#85=EDGE_CURVE('',#82,#84,#80,.T.) ;
#92=EDGE_CURVE('',#82,#91,#89,.F.) ;
#99=EDGE_CURVE('',#91,#98,#96,.T.) ;
#106=EDGE_CURVE('',#105,#98,#103,.F.) ;
#113=EDGE_CURVE('',#112,#105,#110,.T.) ;
#118=EDGE_CURVE('',#112,#42,#117,.F.) ;
#123=EDGE_CURVE('',#84,#44,#122,.F.) ;
#148=EDGE_CURVE('',#145,#147,#143,.F.) ;
#155=EDGE_CURVE('',#154,#145,#152,.T.) ;
#162=EDGE_CURVE('',#161,#154,#159,.F.) ;
#169=EDGE_CURVE('',#168,#161,#166,.F.) ;
#174=EDGE_CURVE('',#91,#168,#173,.T.) ;
#181=EDGE_CURVE('',#180,#82,#178,.T.) ;
#186=EDGE_CURVE('',#51,#180,#185,.F.) ;
#193=EDGE_CURVE('',#192,#112,#190,.T.) ;
#198=EDGE_CURVE('',#147,#192,#197,.F.) ;
#221=EDGE_CURVE('',#218,#220,#216,.T.) ;
#228=EDGE_CURVE('',#227,#218,#225,.F.) ;
#235=EDGE_CURVE('',#234,#227,#232,.T.) ;
#240=EDGE_CURVE('',#220,#234,#239,.F.) ;
#259=EDGE_CURVE('',#180,#258,#256,.T.) ;
#264=EDGE_CURVE('',#58,#258,#263,.F.) ;
#281=EDGE_CURVE('',#258,#84,#280,.T.) ;
#312=EDGE_CURVE('',#168,#311,#309,.T.) ;
#317=EDGE_CURVE('',#98,#311,#316,.T.) ;
#336=EDGE_CURVE('',#311,#335,#333,.F.) ;
#341=EDGE_CURVE('',#335,#105,#340,.T.) ;
#358=EDGE_CURVE('',#192,#335,#357,.T.) ;
#372=EDGE_CURVE('',#145,#371,#369,.T.) ;
#379=EDGE_CURVE('',#147,#378,#376,.T.) ;
#384=EDGE_CURVE('',#371,#378,#383,.F.) ;
#403=EDGE_CURVE('',#154,#402,#400,.T.) ;
#408=EDGE_CURVE('',#402,#371,#407,.T.) ;
#422=EDGE_CURVE('',#161,#421,#419,.T.) ;
#427=EDGE_CURVE('',#421,#402,#426,.F.) ;
#444=EDGE_CURVE('',#378,#421,#443,.T.) ;
#467=EDGE_CURVE('',#218,#466,#464,.T.) ;
#474=EDGE_CURVE('',#220,#473,#471,.T.) ;
#479=EDGE_CURVE('',#466,#473,#478,.T.) ;
#498=EDGE_CURVE('',#227,#497,#495,.T.) ;
#503=EDGE_CURVE('',#497,#466,#502,.F.) ;
#522=EDGE_CURVE('',#234,#521,#519,.T.) ;
#527=EDGE_CURVE('',#521,#497,#526,.T.) ;
#544=EDGE_CURVE('',#473,#521,#543,.F.) ;
#65=EDGE_LOOP('',(#66,#67,#68,#69)) ;
#124=EDGE_LOOP('',(#125,#126,#127,#128,#129,#130,#131,#132)) ;
#199=EDGE_LOOP('',(#200,#201,#202,#203,#204,#205,#206,#207,#208,#209,#210,#211)) ;
#241=EDGE_LOOP('',(#242,#243,#244,#245)) ;
#265=EDGE_LOOP('',(#266,#267,#268,#269)) ;
#282=EDGE_LOOP('',(#283,#284,#285,#286)) ;
#294=EDGE_LOOP('',(#295,#296,#297,#298)) ;
#318=EDGE_LOOP('',(#319,#320,#321,#322)) ;
#342=EDGE_LOOP('',(#343,#344,#345,#346)) ;
#359=EDGE_LOOP('',(#360,#361,#362,#363)) ;
#385=EDGE_LOOP('',(#386,#387,#388,#389)) ;
#409=EDGE_LOOP('',(#410,#411,#412,#413)) ;
#428=EDGE_LOOP('',(#429,#430,#431,#432)) ;
#445=EDGE_LOOP('',(#446,#447,#448,#449,#450,#451,#452,#453)) ;
#480=EDGE_LOOP('',(#481,#482,#483,#484)) ;
#504=EDGE_LOOP('',(#505,#506,#507,#508)) ;
#528=EDGE_LOOP('',(#529,#530,#531,#532)) ;
#545=EDGE_LOOP('',(#546,#547,#548,#549)) ;
#552=EDGE_LOOP('',(#553,#554,#555,#556)) ;
#564=EDGE_LOOP('',(#565,#566,#567,#568)) ;
#70=FACE_OUTER_BOUND('',#65,.T.) ;
#133=FACE_OUTER_BOUND('',#124,.T.) ;
#212=FACE_OUTER_BOUND('',#199,.T.) ;
#270=FACE_OUTER_BOUND('',#265,.T.) ;
#287=FACE_OUTER_BOUND('',#282,.T.) ;
#299=FACE_OUTER_BOUND('',#294,.T.) ;
#323=FACE_OUTER_BOUND('',#318,.T.) ;
#347=FACE_OUTER_BOUND('',#342,.T.) ;
#364=FACE_OUTER_BOUND('',#359,.T.) ;
#390=FACE_OUTER_BOUND('',#385,.T.) ;
#414=FACE_OUTER_BOUND('',#409,.T.) ;
#433=FACE_OUTER_BOUND('',#428,.T.) ;
#454=FACE_OUTER_BOUND('',#445,.T.) ;
#485=FACE_OUTER_BOUND('',#480,.T.) ;
#509=FACE_OUTER_BOUND('',#504,.T.) ;
#533=FACE_OUTER_BOUND('',#528,.T.) ;
#550=FACE_OUTER_BOUND('',#545,.T.) ;
#557=FACE_OUTER_BOUND('',#552,.T.) ;
#569=FACE_OUTER_BOUND('',#564,.T.) ;
#40=LINE('Line',#37,#39) ;
#49=LINE('Line',#46,#48) ;
#56=LINE('Line',#53,#55) ;
#63=LINE('Line',#60,#62) ;
#80=LINE('Line',#77,#79) ;
#89=LINE('Line',#86,#88) ;
#96=LINE('Line',#93,#95) ;
#103=LINE('Line',#100,#102) ;
#110=LINE('Line',#107,#109) ;
#117=LINE('Line',#114,#116) ;
#122=LINE('Line',#119,#121) ;
#143=LINE('Line',#140,#142) ;
#152=LINE('Line',#149,#151) ;
#159=LINE('Line',#156,#158) ;
#166=LINE('Line',#163,#165) ;
#173=LINE('Line',#170,#172) ;
#178=LINE('Line',#175,#177) ;
#185=LINE('Line',#182,#184) ;
#190=LINE('Line',#187,#189) ;
#197=LINE('Line',#194,#196) ;
#216=LINE('Line',#213,#215) ;
#225=LINE('Line',#222,#224) ;
#232=LINE('Line',#229,#231) ;
#239=LINE('Line',#236,#238) ;
#256=LINE('Line',#253,#255) ;
#263=LINE('Line',#260,#262) ;
#280=LINE('Line',#277,#279) ;
#309=LINE('Line',#306,#308) ;
#316=LINE('Line',#313,#315) ;
#333=LINE('Line',#330,#332) ;
#340=LINE('Line',#337,#339) ;
#357=LINE('Line',#354,#356) ;
#369=LINE('Line',#366,#368) ;
#376=LINE('Line',#373,#375) ;
#383=LINE('Line',#380,#382) ;
#400=LINE('Line',#397,#399) ;
#407=LINE('Line',#404,#406) ;
#419=LINE('Line',#416,#418) ;
#426=LINE('Line',#423,#425) ;
#443=LINE('Line',#440,#442) ;
#464=LINE('Line',#461,#463) ;
#471=LINE('Line',#468,#470) ;
#478=LINE('Line',#475,#477) ;
#495=LINE('Line',#492,#494) ;
#502=LINE('Line',#499,#501) ;
#519=LINE('Line',#516,#518) ;
#526=LINE('Line',#523,#525) ;
#543=LINE('Line',#540,#542) ;
#36=PLANE('',#35) ;
#76=PLANE('',#75) ;
#139=PLANE('',#138) ;
#252=PLANE('',#251) ;
#276=PLANE('',#275) ;
#293=PLANE('',#292) ;
#305=PLANE('',#304) ;
#329=PLANE('',#328) ;
#353=PLANE('',#352) ;
#396=PLANE('',#395) ;
#439=PLANE('',#438) ;
#460=PLANE('',#459) ;
#491=PLANE('',#490) ;
#515=PLANE('',#514) ;
#539=PLANE('',#538) ;
#563=PLANE('',#562) ;
#9=PRODUCT_CATEGORY_RELATIONSHIP(' ',' ',#7,#8) ;
#6=PRODUCT_DEFINITION_FORMATION_WITH_SPECIFIED_SOURCE('',' ',#5,.NOT_KNOWN.) ;
#20=SHAPE_DEFINITION_REPRESENTATION(#11,#19) ;
#42=VERTEX_POINT('',#41) ;
#44=VERTEX_POINT('',#43) ;
#51=VERTEX_POINT('',#50) ;
#58=VERTEX_POINT('',#57) ;
#82=VERTEX_POINT('',#81) ;
#84=VERTEX_POINT('',#83) ;
#91=VERTEX_POINT('',#90) ;
#98=VERTEX_POINT('',#97) ;
#105=VERTEX_POINT('',#104) ;
#112=VERTEX_POINT('',#111) ;
#145=VERTEX_POINT('',#144) ;
#147=VERTEX_POINT('',#146) ;
#154=VERTEX_POINT('',#153) ;
#161=VERTEX_POINT('',#160) ;
#168=VERTEX_POINT('',#167) ;
#180=VERTEX_POINT('',#179) ;
#192=VERTEX_POINT('',#191) ;
#218=VERTEX_POINT('',#217) ;
#220=VERTEX_POINT('',#219) ;
#227=VERTEX_POINT('',#226) ;
#234=VERTEX_POINT('',#233) ;
#258=VERTEX_POINT('',#257) ;
#311=VERTEX_POINT('',#310) ;
#335=VERTEX_POINT('',#334) ;
#371=VERTEX_POINT('',#370) ;
#378=VERTEX_POINT('',#377) ;
#402=VERTEX_POINT('',#401) ;
#421=VERTEX_POINT('',#420) ;
#466=VERTEX_POINT('',#465) ;
#473=VERTEX_POINT('',#472) ;
#497=VERTEX_POINT('',#496) ;
#521=VERTEX_POINT('',#520) ;
#12=(LENGTH_UNIT()NAMED_UNIT(*)SI_UNIT(.MILLI.,.METRE.)) ;
#13=(NAMED_UNIT(*)PLANE_ANGLE_UNIT()SI_UNIT($,.RADIAN.)) ;
#14=(NAMED_UNIT(*)SI_UNIT($,.STERADIAN.)SOLID_ANGLE_UNIT()) ;
#16=(GEOMETRIC_REPRESENTATION_CONTEXT(3)GLOBAL_UNCERTAINTY_ASSIGNED_CONTEXT((#15))GLOBAL_UNIT_ASSIGNED_CONTEXT((#12,#13,#14))REPRESENTATION_CONTEXT(' ',' ')) ;
ENDSEC;
END-ISO-10303-21;
