ISO-10303-21;
HEADER;
FILE_DESCRIPTION(('CATIA V5 STEP Exchange','CAx-IF Rec.Pracs.--- Model Styling and Organization---1.4--- 2014-01-23'),'2;1');

FILE_NAME ('040698-2_0', '2021-09-08T05:54:29+00:00', ('none'), ('Weidmueller'), 'CATIA Version 5-6 Release 2016 SP3 HF44', 'CATIA V5 STEP AP214', 'none');

FILE_SCHEMA(('AUTOMOTIVE_DESIGN { 1 0 10303 214 1 1 1 1 }'));

ENDSEC;
DATA;
#5=PRODUCT('1964820000','','',(#2)) ;
#2=PRODUCT_CONTEXT(' ',#1,'mechanical') ;
#1=APPLICATION_CONTEXT('automotive design') ;
#10=PRODUCT_DEFINITION('',' ',#6,#3) ;
#3=PRODUCT_DEFINITION_CONTEXT('part definition',#1,' ') ;
#11=PRODUCT_DEFINITION_SHAPE(' ',' ',#10) ;
#557=MECHANICAL_DESIGN_GEOMETRIC_PRESENTATION_REPRESENTATION(' ',(#29),#16) ;
#558=MECHANICAL_DESIGN_GEOMETRIC_PRESENTATION_REPRESENTATION(' ',(#554),#16) ;
#19=SHAPE_REPRESENTATION(' ',(#18),#16) ;
#18=AXIS2_PLACEMENT_3D(' ',#17,$,$) ;
#34=AXIS2_PLACEMENT_3D('Cylinder Axis2P3D',#31,#32,#33) ;
#38=AXIS2_PLACEMENT_3D('Circle Axis2P3D',#36,#37,$) ;
#54=AXIS2_PLACEMENT_3D('Circle Axis2P3D',#52,#53,$) ;
#73=AXIS2_PLACEMENT_3D('Circle Axis2P3D',#71,#72,$) ;
#78=AXIS2_PLACEMENT_3D('Circle Axis2P3D',#76,#77,$) ;
#91=AXIS2_PLACEMENT_3D('Cylinder Axis2P3D',#88,#89,#90) ;
#95=AXIS2_PLACEMENT_3D('Circle Axis2P3D',#93,#94,$) ;
#111=AXIS2_PLACEMENT_3D('Circle Axis2P3D',#109,#110,$) ;
#130=AXIS2_PLACEMENT_3D('Circle Axis2P3D',#128,#129,$) ;
#135=AXIS2_PLACEMENT_3D('Circle Axis2P3D',#133,#134,$) ;
#148=AXIS2_PLACEMENT_3D('Plane Axis2P3D',#145,#146,#147) ;
#152=AXIS2_PLACEMENT_3D('Circle Axis2P3D',#150,#151,$) ;
#161=AXIS2_PLACEMENT_3D('Circle Axis2P3D',#159,#160,$) ;
#176=AXIS2_PLACEMENT_3D('Plane Axis2P3D',#173,#174,#175) ;
#190=AXIS2_PLACEMENT_3D('Plane Axis2P3D',#187,#188,#189) ;
#198=AXIS2_PLACEMENT_3D('Circle Axis2P3D',#196,#197,$) ;
#207=AXIS2_PLACEMENT_3D('Circle Axis2P3D',#205,#206,$) ;
#218=AXIS2_PLACEMENT_3D('Cylinder Axis2P3D',#215,#216,#217) ;
#231=AXIS2_PLACEMENT_3D('Circle Axis2P3D',#229,#230,$) ;
#245=AXIS2_PLACEMENT_3D('Circle Axis2P3D',#243,#244,$) ;
#264=AXIS2_PLACEMENT_3D('Circle Axis2P3D',#262,#263,$) ;
#289=AXIS2_PLACEMENT_3D('Circle Axis2P3D',#287,#288,$) ;
#303=AXIS2_PLACEMENT_3D('Circle Axis2P3D',#301,#302,$) ;
#308=AXIS2_PLACEMENT_3D('Circle Axis2P3D',#306,#307,$) ;
#325=AXIS2_PLACEMENT_3D('Plane Axis2P3D',#322,#323,#324) ;
#336=AXIS2_PLACEMENT_3D('Circle Axis2P3D',#334,#335,$) ;
#343=AXIS2_PLACEMENT_3D('Circle Axis2P3D',#341,#342,$) ;
#364=AXIS2_PLACEMENT_3D('Circle Axis2P3D',#362,#363,$) ;
#373=AXIS2_PLACEMENT_3D('Circle Axis2P3D',#371,#372,$) ;
#416=AXIS2_PLACEMENT_3D('Circle Axis2P3D',#414,#415,$) ;
#446=AXIS2_PLACEMENT_3D('Circle Axis2P3D',#444,#445,$) ;
#470=AXIS2_PLACEMENT_3D('Plane Axis2P3D',#467,#468,#469) ;
#487=AXIS2_PLACEMENT_3D('Plane Axis2P3D',#484,#485,#486) ;
#504=AXIS2_PLACEMENT_3D('Plane Axis2P3D',#501,#502,#503) ;
#549=AXIS2_PLACEMENT_3D('Achsensystem.1',#546,#547,#548) ;
#17=CARTESIAN_POINT(' ',(0.,0.,0.)) ;
#31=CARTESIAN_POINT('Axis2P3D Location',(7.25,7.25,5.45)) ;
#36=CARTESIAN_POINT('Axis2P3D Location',(7.25,7.25,2.9)) ;
#40=CARTESIAN_POINT('Vertex',(2.51105416579,4.66110209154,2.9)) ;
#42=CARTESIAN_POINT('Vertex',(11.9889458342,9.83889790846,2.9)) ;
#45=CARTESIAN_POINT('Line Origine',(2.51105416579,4.66110209154,1.8)) ;
#49=CARTESIAN_POINT('Vertex',(2.51105416579,4.66110209154,0.7)) ;
#52=CARTESIAN_POINT('Axis2P3D Location',(7.25,7.25,0.7)) ;
#56=CARTESIAN_POINT('Vertex',(11.9889458342,9.83889790846,0.7)) ;
#59=CARTESIAN_POINT('Line Origine',(11.9889458342,9.83889790846,1.8)) ;
#71=CARTESIAN_POINT('Axis2P3D Location',(7.25,7.25,2.9)) ;
#76=CARTESIAN_POINT('Axis2P3D Location',(7.25,7.25,0.7)) ;
#88=CARTESIAN_POINT('Axis2P3D Location',(7.25,7.25,5.45)) ;
#93=CARTESIAN_POINT('Axis2P3D Location',(7.25,7.25,0.7)) ;
#97=CARTESIAN_POINT('Vertex',(0.887526426295,3.77416484512,0.7)) ;
#99=CARTESIAN_POINT('Vertex',(13.6124735737,10.7258351549,0.7)) ;
#102=CARTESIAN_POINT('Line Origine',(0.887526426295,3.77416484512,5.45)) ;
#106=CARTESIAN_POINT('Vertex',(0.887526426295,3.77416484512,2.49677860182E-016)) ;
#109=CARTESIAN_POINT('Axis2P3D Location',(7.25,7.25,8.881784197E-016)) ;
#113=CARTESIAN_POINT('Vertex',(13.6124735737,10.7258351549,1.52667897922E-015)) ;
#116=CARTESIAN_POINT('Line Origine',(13.6124735737,10.7258351549,5.45)) ;
#128=CARTESIAN_POINT('Axis2P3D Location',(7.25,7.25,0.7)) ;
#133=CARTESIAN_POINT('Axis2P3D Location',(7.25,7.25,8.881784197E-016)) ;
#145=CARTESIAN_POINT('Axis2P3D Location',(1.85,7.25,2.9)) ;
#150=CARTESIAN_POINT('Axis2P3D Location',(7.25,7.25,2.9)) ;
#154=CARTESIAN_POINT('Vertex',(0.887526426295,3.77416484512,2.9)) ;
#156=CARTESIAN_POINT('Vertex',(13.6124735737,10.7258351549,2.9)) ;
#159=CARTESIAN_POINT('Axis2P3D Location',(7.25,7.25,2.9)) ;
#173=CARTESIAN_POINT('Axis2P3D Location',(0.,7.25,0.7)) ;
#187=CARTESIAN_POINT('Axis2P3D Location',(7.25,7.25,0.)) ;
#196=CARTESIAN_POINT('Axis2P3D Location',(7.25,7.25,0.)) ;
#200=CARTESIAN_POINT('Vertex',(10.35,7.25,-6.97388298938E-032)) ;
#202=CARTESIAN_POINT('Vertex',(4.15,7.25,0.)) ;
#205=CARTESIAN_POINT('Axis2P3D Location',(7.25,7.25,0.)) ;
#215=CARTESIAN_POINT('Axis2P3D Location',(7.25,7.25,0.9)) ;
#220=CARTESIAN_POINT('Line Origine',(6.05,4.39167881441,0.9)) ;
#224=CARTESIAN_POINT('Vertex',(6.05,4.39167881441,10.9)) ;
#226=CARTESIAN_POINT('Vertex',(6.05,4.39167881441,6.65)) ;
#229=CARTESIAN_POINT('Axis2P3D Location',(7.25,7.25,6.65)) ;
#233=CARTESIAN_POINT('Vertex',(8.45,4.39167881441,6.65)) ;
#236=CARTESIAN_POINT('Line Origine',(8.45,4.39167881441,0.9)) ;
#240=CARTESIAN_POINT('Vertex',(8.45,4.39167881441,10.9)) ;
#243=CARTESIAN_POINT('Axis2P3D Location',(7.25,7.25,10.9)) ;
#247=CARTESIAN_POINT('Vertex',(10.35,7.25,10.9)) ;
#250=CARTESIAN_POINT('Line Origine',(10.35,7.25,0.9)) ;
#255=CARTESIAN_POINT('Line Origine',(4.15,7.25,0.9)) ;
#259=CARTESIAN_POINT('Vertex',(4.15,7.25,10.9)) ;
#262=CARTESIAN_POINT('Axis2P3D Location',(7.25,7.25,10.9)) ;
#278=CARTESIAN_POINT('Line Origine',(8.45,10.1083211856,0.9)) ;
#282=CARTESIAN_POINT('Vertex',(8.45,10.1083211856,10.9)) ;
#284=CARTESIAN_POINT('Vertex',(8.45,10.1083211856,6.65)) ;
#287=CARTESIAN_POINT('Axis2P3D Location',(7.25,7.25,6.65)) ;
#291=CARTESIAN_POINT('Vertex',(6.05,10.1083211856,6.65)) ;
#294=CARTESIAN_POINT('Line Origine',(6.05,10.1083211856,0.9)) ;
#298=CARTESIAN_POINT('Vertex',(6.05,10.1083211856,10.9)) ;
#301=CARTESIAN_POINT('Axis2P3D Location',(7.25,7.25,10.9)) ;
#306=CARTESIAN_POINT('Axis2P3D Location',(7.25,7.25,10.9)) ;
#322=CARTESIAN_POINT('Axis2P3D Location',(0.,7.25,10.9)) ;
#327=CARTESIAN_POINT('Line Origine',(6.05,12.2541605928,10.9)) ;
#331=CARTESIAN_POINT('Vertex',(6.05,14.4,10.9)) ;
#334=CARTESIAN_POINT('Axis2P3D Location',(7.25,7.25,10.9)) ;
#338=CARTESIAN_POINT('Vertex',(0.887526426295,3.77416484512,10.9)) ;
#341=CARTESIAN_POINT('Axis2P3D Location',(7.25,7.25,10.9)) ;
#345=CARTESIAN_POINT('Vertex',(6.05,0.1,10.9)) ;
#348=CARTESIAN_POINT('Line Origine',(6.05,2.2458394072,10.9)) ;
#362=CARTESIAN_POINT('Axis2P3D Location',(7.25,7.25,10.9)) ;
#366=CARTESIAN_POINT('Vertex',(8.45,0.1,10.9)) ;
#368=CARTESIAN_POINT('Vertex',(13.6124735737,10.7258351549,10.9)) ;
#371=CARTESIAN_POINT('Axis2P3D Location',(7.25,7.25,10.9)) ;
#375=CARTESIAN_POINT('Vertex',(8.45,14.4,10.9)) ;
#378=CARTESIAN_POINT('Line Origine',(8.45,12.2541605928,10.9)) ;
#383=CARTESIAN_POINT('Line Origine',(8.45,2.2458394072,10.9)) ;
#397=CARTESIAN_POINT('Line Origine',(13.6124735737,10.7258351549,5.45)) ;
#402=CARTESIAN_POINT('Line Origine',(0.887526426295,3.77416484512,5.45)) ;
#407=CARTESIAN_POINT('Line Origine',(6.05,14.4,5.45)) ;
#411=CARTESIAN_POINT('Vertex',(6.05,14.4,6.65)) ;
#414=CARTESIAN_POINT('Axis2P3D Location',(7.25,7.25,6.65)) ;
#418=CARTESIAN_POINT('Vertex',(8.45,14.4,6.65)) ;
#421=CARTESIAN_POINT('Line Origine',(8.45,14.4,5.45)) ;
#437=CARTESIAN_POINT('Line Origine',(8.45,0.1,5.45)) ;
#441=CARTESIAN_POINT('Vertex',(8.45,0.1,6.65)) ;
#444=CARTESIAN_POINT('Axis2P3D Location',(7.25,7.25,6.65)) ;
#448=CARTESIAN_POINT('Vertex',(6.05,0.1,6.65)) ;
#451=CARTESIAN_POINT('Line Origine',(6.05,0.1,5.45)) ;
#467=CARTESIAN_POINT('Axis2P3D Location',(8.45,7.25,6.65)) ;
#472=CARTESIAN_POINT('Line Origine',(8.45,2.2458394072,6.65)) ;
#484=CARTESIAN_POINT('Axis2P3D Location',(8.45,7.25,6.65)) ;
#489=CARTESIAN_POINT('Line Origine',(6.05,2.2458394072,6.65)) ;
#501=CARTESIAN_POINT('Axis2P3D Location',(6.05,7.25,13.0460108757)) ;
#513=CARTESIAN_POINT('Line Origine',(8.45,12.2541605928,6.65)) ;
#525=CARTESIAN_POINT('Line Origine',(6.05,12.2541605928,6.65)) ;
#546=CARTESIAN_POINT('Axis2P3D Location',(0.,0.,0.)) ;
#32=DIRECTION('Axis2P3D Direction',(0.,-1.83697019872E-016,1.)) ;
#33=DIRECTION('Axis2P3D XDirection',(-0.87758256189,-0.479425538604,-8.80690426922E-017)) ;
#37=DIRECTION('Axis2P3D Direction',(0.,-1.83697019872E-016,1.)) ;
#46=DIRECTION('Vector Direction',(0.,0.,1.)) ;
#53=DIRECTION('Axis2P3D Direction',(0.,-1.83697019872E-016,1.)) ;
#60=DIRECTION('Vector Direction',(0.,0.,1.)) ;
#72=DIRECTION('Axis2P3D Direction',(0.,-1.83697019872E-016,1.)) ;
#77=DIRECTION('Axis2P3D Direction',(0.,-1.83697019872E-016,1.)) ;
#89=DIRECTION('Axis2P3D Direction',(0.,-1.83697019872E-016,1.)) ;
#90=DIRECTION('Axis2P3D XDirection',(-0.87758256189,-0.479425538604,-8.80690426922E-017)) ;
#94=DIRECTION('Axis2P3D Direction',(0.,-1.83697019872E-016,1.)) ;
#103=DIRECTION('Vector Direction',(0.,-1.62968517376E-016,1.)) ;
#110=DIRECTION('Axis2P3D Direction',(0.,-1.83697019872E-016,1.)) ;
#117=DIRECTION('Vector Direction',(0.,0.,1.)) ;
#129=DIRECTION('Axis2P3D Direction',(0.,-1.83697019872E-016,1.)) ;
#134=DIRECTION('Axis2P3D Direction',(0.,-1.83697019872E-016,1.)) ;
#146=DIRECTION('Axis2P3D Direction',(0.,-1.83697019872E-016,1.)) ;
#147=DIRECTION('Axis2P3D XDirection',(1.,0.,0.)) ;
#151=DIRECTION('Axis2P3D Direction',(0.,-1.83697019872E-016,1.)) ;
#160=DIRECTION('Axis2P3D Direction',(0.,-1.83697019872E-016,1.)) ;
#174=DIRECTION('Axis2P3D Direction',(0.,-1.83697019872E-016,1.)) ;
#175=DIRECTION('Axis2P3D XDirection',(1.,0.,0.)) ;
#188=DIRECTION('Axis2P3D Direction',(0.,-1.83697019872E-016,1.)) ;
#189=DIRECTION('Axis2P3D XDirection',(1.,0.,0.)) ;
#197=DIRECTION('Axis2P3D Direction',(0.,-1.83697019872E-016,1.)) ;
#206=DIRECTION('Axis2P3D Direction',(0.,-1.83697019872E-016,1.)) ;
#216=DIRECTION('Axis2P3D Direction',(0.,-1.83697019872E-016,1.)) ;
#217=DIRECTION('Axis2P3D XDirection',(-1.,0.,0.)) ;
#221=DIRECTION('Vector Direction',(0.,-1.7763568394E-016,1.)) ;
#230=DIRECTION('Axis2P3D Direction',(0.,-1.83697019872E-016,1.)) ;
#237=DIRECTION('Vector Direction',(0.,-1.7763568394E-016,1.)) ;
#244=DIRECTION('Axis2P3D Direction',(0.,-1.83697019872E-016,1.)) ;
#251=DIRECTION('Vector Direction',(0.,-1.7763568394E-016,1.)) ;
#256=DIRECTION('Vector Direction',(0.,-1.7763568394E-016,1.)) ;
#263=DIRECTION('Axis2P3D Direction',(0.,-1.83697019872E-016,1.)) ;
#279=DIRECTION('Vector Direction',(0.,-1.7763568394E-016,1.)) ;
#288=DIRECTION('Axis2P3D Direction',(0.,-1.83697019872E-016,1.)) ;
#295=DIRECTION('Vector Direction',(0.,-1.7763568394E-016,1.)) ;
#302=DIRECTION('Axis2P3D Direction',(0.,-1.83697019872E-016,1.)) ;
#307=DIRECTION('Axis2P3D Direction',(0.,-1.83697019872E-016,1.)) ;
#323=DIRECTION('Axis2P3D Direction',(0.,-1.83697019872E-016,1.)) ;
#324=DIRECTION('Axis2P3D XDirection',(1.,0.,0.)) ;
#328=DIRECTION('Vector Direction',(0.,-1.,-4.13907218181E-016)) ;
#335=DIRECTION('Axis2P3D Direction',(0.,-1.83697019872E-016,1.)) ;
#342=DIRECTION('Axis2P3D Direction',(0.,-1.83697019872E-016,1.)) ;
#349=DIRECTION('Vector Direction',(0.,-1.,-4.13907218181E-016)) ;
#363=DIRECTION('Axis2P3D Direction',(0.,-1.83697019872E-016,1.)) ;
#372=DIRECTION('Axis2P3D Direction',(0.,-1.83697019872E-016,1.)) ;
#379=DIRECTION('Vector Direction',(0.,-1.,-4.13907218181E-016)) ;
#384=DIRECTION('Vector Direction',(0.,-1.,-4.13907218181E-016)) ;
#398=DIRECTION('Vector Direction',(0.,0.,1.)) ;
#403=DIRECTION('Vector Direction',(0.,-1.62968517376E-016,1.)) ;
#408=DIRECTION('Vector Direction',(0.,0.,1.)) ;
#415=DIRECTION('Axis2P3D Direction',(0.,-1.83697019872E-016,1.)) ;
#422=DIRECTION('Vector Direction',(0.,-3.25937034752E-016,1.)) ;
#438=DIRECTION('Vector Direction',(0.,-1.62968517376E-016,1.)) ;
#445=DIRECTION('Axis2P3D Direction',(0.,-1.83697019872E-016,1.)) ;
#452=DIRECTION('Vector Direction',(0.,-1.62968517376E-016,1.)) ;
#468=DIRECTION('Axis2P3D Direction',(-1.,0.,0.)) ;
#469=DIRECTION('Axis2P3D XDirection',(0.,-1.83697019872E-016,1.)) ;
#473=DIRECTION('Vector Direction',(0.,1.,0.)) ;
#485=DIRECTION('Axis2P3D Direction',(0.,1.83697019872E-016,-1.)) ;
#486=DIRECTION('Axis2P3D XDirection',(-1.,0.,0.)) ;
#490=DIRECTION('Vector Direction',(0.,1.,0.)) ;
#502=DIRECTION('Axis2P3D Direction',(1.,-0.,0.)) ;
#503=DIRECTION('Axis2P3D XDirection',(0.,1.83697019872E-016,-1.)) ;
#514=DIRECTION('Vector Direction',(0.,1.,0.)) ;
#526=DIRECTION('Vector Direction',(0.,1.,0.)) ;
#547=DIRECTION('Axis2P3D Direction',(0.,0.,1.)) ;
#548=DIRECTION('Axis2P3D XDirection',(1.,0.,0.)) ;
#8=PRODUCT_RELATED_PRODUCT_CATEGORY('part',$,(#5)) ;
#7=PRODUCT_CATEGORY('part','specification') ;
#29=STYLED_ITEM(' ',(#28),#21) ;
#554=STYLED_ITEM(' ',(#553),#549) ;
#28=PRESENTATION_STYLE_ASSIGNMENT((#27)) ;
#553=PRESENTATION_STYLE_ASSIGNMENT((#552)) ;
#552=CURVE_STYLE(' ',#550,POSITIVE_LENGTH_MEASURE(0.129999995232),#551) ;
#27=SURFACE_STYLE_USAGE(.BOTH.,#26) ;
#26=SURFACE_SIDE_STYLE(' ',(#25)) ;
#25=SURFACE_STYLE_FILL_AREA(#24) ;
#24=FILL_AREA_STYLE(' ',(#23)) ;
#23=FILL_AREA_STYLE_COLOUR(' ',#22) ;
#47=VECTOR('Line Direction',#46,1.) ;
#61=VECTOR('Line Direction',#60,1.) ;
#104=VECTOR('Line Direction',#103,1.) ;
#118=VECTOR('Line Direction',#117,1.) ;
#222=VECTOR('Line Direction',#221,1.) ;
#238=VECTOR('Line Direction',#237,1.) ;
#252=VECTOR('Line Direction',#251,1.) ;
#257=VECTOR('Line Direction',#256,1.) ;
#280=VECTOR('Line Direction',#279,1.) ;
#296=VECTOR('Line Direction',#295,1.) ;
#329=VECTOR('Line Direction',#328,1.) ;
#350=VECTOR('Line Direction',#349,1.) ;
#380=VECTOR('Line Direction',#379,1.) ;
#385=VECTOR('Line Direction',#384,1.) ;
#399=VECTOR('Line Direction',#398,1.) ;
#404=VECTOR('Line Direction',#403,1.) ;
#409=VECTOR('Line Direction',#408,1.) ;
#423=VECTOR('Line Direction',#422,1.) ;
#439=VECTOR('Line Direction',#438,1.) ;
#453=VECTOR('Line Direction',#452,1.) ;
#474=VECTOR('Line Direction',#473,1.) ;
#491=VECTOR('Line Direction',#490,1.) ;
#515=VECTOR('Line Direction',#514,1.) ;
#527=VECTOR('Line Direction',#526,1.) ;
#15=UNCERTAINTY_MEASURE_WITH_UNIT(LENGTH_MEASURE(0.005),#12,'distance_accuracy_value','CONFUSED CURVE UNCERTAINTY') ;
#545=SHAPE_REPRESENTATION_RELATIONSHIP(' ',' ',#19,#544) ;
#65=ORIENTED_EDGE('',*,*,#44,.F.) ;
#66=ORIENTED_EDGE('',*,*,#51,.T.) ;
#67=ORIENTED_EDGE('',*,*,#58,.T.) ;
#68=ORIENTED_EDGE('',*,*,#63,.F.) ;
#82=ORIENTED_EDGE('',*,*,#75,.F.) ;
#83=ORIENTED_EDGE('',*,*,#63,.T.) ;
#84=ORIENTED_EDGE('',*,*,#80,.T.) ;
#85=ORIENTED_EDGE('',*,*,#51,.F.) ;
#122=ORIENTED_EDGE('',*,*,#101,.F.) ;
#123=ORIENTED_EDGE('',*,*,#108,.T.) ;
#124=ORIENTED_EDGE('',*,*,#115,.T.) ;
#125=ORIENTED_EDGE('',*,*,#120,.F.) ;
#139=ORIENTED_EDGE('',*,*,#132,.F.) ;
#140=ORIENTED_EDGE('',*,*,#120,.T.) ;
#141=ORIENTED_EDGE('',*,*,#137,.T.) ;
#142=ORIENTED_EDGE('',*,*,#108,.F.) ;
#165=ORIENTED_EDGE('',*,*,#158,.F.) ;
#166=ORIENTED_EDGE('',*,*,#163,.F.) ;
#169=ORIENTED_EDGE('',*,*,#75,.T.) ;
#170=ORIENTED_EDGE('',*,*,#44,.T.) ;
#179=ORIENTED_EDGE('',*,*,#132,.T.) ;
#180=ORIENTED_EDGE('',*,*,#101,.T.) ;
#183=ORIENTED_EDGE('',*,*,#58,.F.) ;
#184=ORIENTED_EDGE('',*,*,#80,.F.) ;
#193=ORIENTED_EDGE('',*,*,#115,.F.) ;
#194=ORIENTED_EDGE('',*,*,#137,.F.) ;
#211=ORIENTED_EDGE('',*,*,#204,.T.) ;
#212=ORIENTED_EDGE('',*,*,#209,.T.) ;
#268=ORIENTED_EDGE('',*,*,#228,.T.) ;
#269=ORIENTED_EDGE('',*,*,#235,.F.) ;
#270=ORIENTED_EDGE('',*,*,#242,.F.) ;
#271=ORIENTED_EDGE('',*,*,#249,.T.) ;
#272=ORIENTED_EDGE('',*,*,#254,.T.) ;
#273=ORIENTED_EDGE('',*,*,#209,.F.) ;
#274=ORIENTED_EDGE('',*,*,#261,.F.) ;
#275=ORIENTED_EDGE('',*,*,#266,.T.) ;
#312=ORIENTED_EDGE('',*,*,#286,.T.) ;
#313=ORIENTED_EDGE('',*,*,#293,.F.) ;
#314=ORIENTED_EDGE('',*,*,#300,.F.) ;
#315=ORIENTED_EDGE('',*,*,#305,.T.) ;
#316=ORIENTED_EDGE('',*,*,#261,.T.) ;
#317=ORIENTED_EDGE('',*,*,#204,.F.) ;
#318=ORIENTED_EDGE('',*,*,#254,.F.) ;
#319=ORIENTED_EDGE('',*,*,#310,.T.) ;
#354=ORIENTED_EDGE('',*,*,#333,.F.) ;
#355=ORIENTED_EDGE('',*,*,#340,.T.) ;
#356=ORIENTED_EDGE('',*,*,#347,.T.) ;
#357=ORIENTED_EDGE('',*,*,#352,.F.) ;
#358=ORIENTED_EDGE('',*,*,#266,.F.) ;
#359=ORIENTED_EDGE('',*,*,#305,.F.) ;
#389=ORIENTED_EDGE('',*,*,#370,.T.) ;
#390=ORIENTED_EDGE('',*,*,#377,.T.) ;
#391=ORIENTED_EDGE('',*,*,#382,.T.) ;
#392=ORIENTED_EDGE('',*,*,#310,.F.) ;
#393=ORIENTED_EDGE('',*,*,#249,.F.) ;
#394=ORIENTED_EDGE('',*,*,#387,.T.) ;
#427=ORIENTED_EDGE('',*,*,#377,.F.) ;
#428=ORIENTED_EDGE('',*,*,#401,.T.) ;
#429=ORIENTED_EDGE('',*,*,#163,.T.) ;
#430=ORIENTED_EDGE('',*,*,#406,.F.) ;
#431=ORIENTED_EDGE('',*,*,#340,.F.) ;
#432=ORIENTED_EDGE('',*,*,#413,.T.) ;
#433=ORIENTED_EDGE('',*,*,#420,.T.) ;
#434=ORIENTED_EDGE('',*,*,#425,.F.) ;
#457=ORIENTED_EDGE('',*,*,#347,.F.) ;
#458=ORIENTED_EDGE('',*,*,#406,.T.) ;
#459=ORIENTED_EDGE('',*,*,#158,.T.) ;
#460=ORIENTED_EDGE('',*,*,#401,.F.) ;
#461=ORIENTED_EDGE('',*,*,#370,.F.) ;
#462=ORIENTED_EDGE('',*,*,#443,.T.) ;
#463=ORIENTED_EDGE('',*,*,#450,.T.) ;
#464=ORIENTED_EDGE('',*,*,#455,.F.) ;
#478=ORIENTED_EDGE('',*,*,#476,.F.) ;
#479=ORIENTED_EDGE('',*,*,#443,.F.) ;
#480=ORIENTED_EDGE('',*,*,#387,.F.) ;
#481=ORIENTED_EDGE('',*,*,#242,.T.) ;
#495=ORIENTED_EDGE('',*,*,#493,.F.) ;
#496=ORIENTED_EDGE('',*,*,#450,.F.) ;
#497=ORIENTED_EDGE('',*,*,#476,.T.) ;
#498=ORIENTED_EDGE('',*,*,#235,.T.) ;
#507=ORIENTED_EDGE('',*,*,#493,.T.) ;
#508=ORIENTED_EDGE('',*,*,#228,.F.) ;
#509=ORIENTED_EDGE('',*,*,#352,.T.) ;
#510=ORIENTED_EDGE('',*,*,#455,.T.) ;
#519=ORIENTED_EDGE('',*,*,#517,.F.) ;
#520=ORIENTED_EDGE('',*,*,#286,.F.) ;
#521=ORIENTED_EDGE('',*,*,#382,.F.) ;
#522=ORIENTED_EDGE('',*,*,#425,.T.) ;
#531=ORIENTED_EDGE('',*,*,#517,.T.) ;
#532=ORIENTED_EDGE('',*,*,#420,.F.) ;
#533=ORIENTED_EDGE('',*,*,#529,.F.) ;
#534=ORIENTED_EDGE('',*,*,#293,.T.) ;
#538=ORIENTED_EDGE('',*,*,#529,.T.) ;
#539=ORIENTED_EDGE('',*,*,#413,.F.) ;
#540=ORIENTED_EDGE('',*,*,#333,.T.) ;
#541=ORIENTED_EDGE('',*,*,#300,.T.) ;
#171=FACE_BOUND('',#168,.T.) ;
#185=FACE_BOUND('',#182,.T.) ;
#213=FACE_BOUND('',#210,.T.) ;
#30=CLOSED_SHELL('Closed Shell',(#70,#87,#127,#144,#172,#186,#214,#277,#321,#361,#396,#436,#466,#483,#500,#512,#524,#536,#543)) ;
#544=ADVANCED_BREP_SHAPE_REPRESENTATION('NONE',(#21),#16) ;
#70=ADVANCED_FACE('Hauptk\X2\00F6\X0\rper',(#69),#35,.T.) ;
#87=ADVANCED_FACE('Hauptk\X2\00F6\X0\rper',(#86),#35,.T.) ;
#127=ADVANCED_FACE('Hauptk\X2\00F6\X0\rper',(#126),#92,.T.) ;
#144=ADVANCED_FACE('Hauptk\X2\00F6\X0\rper',(#143),#92,.T.) ;
#172=ADVANCED_FACE('Hauptk\X2\00F6\X0\rper',(#167,#171),#149,.F.) ;
#186=ADVANCED_FACE('Hauptk\X2\00F6\X0\rper',(#181,#185),#177,.T.) ;
#214=ADVANCED_FACE('Hauptk\X2\00F6\X0\rper',(#195,#213),#191,.F.) ;
#277=ADVANCED_FACE('Hauptk\X2\00F6\X0\rper',(#276),#219,.F.) ;
#321=ADVANCED_FACE('Hauptk\X2\00F6\X0\rper',(#320),#219,.F.) ;
#361=ADVANCED_FACE('Hauptk\X2\00F6\X0\rper',(#360),#326,.T.) ;
#396=ADVANCED_FACE('Hauptk\X2\00F6\X0\rper',(#395),#326,.T.) ;
#436=ADVANCED_FACE('Hauptk\X2\00F6\X0\rper',(#435),#92,.T.) ;
#466=ADVANCED_FACE('Hauptk\X2\00F6\X0\rper',(#465),#92,.T.) ;
#483=ADVANCED_FACE('Hauptk\X2\00F6\X0\rper',(#482),#471,.T.) ;
#500=ADVANCED_FACE('Hauptk\X2\00F6\X0\rper',(#499),#488,.F.) ;
#512=ADVANCED_FACE('Hauptk\X2\00F6\X0\rper',(#511),#505,.T.) ;
#524=ADVANCED_FACE('Hauptk\X2\00F6\X0\rper',(#523),#471,.T.) ;
#536=ADVANCED_FACE('Hauptk\X2\00F6\X0\rper',(#535),#488,.F.) ;
#543=ADVANCED_FACE('Hauptk\X2\00F6\X0\rper',(#542),#505,.T.) ;
#4=APPLICATION_PROTOCOL_DEFINITION('international standard','automotive_design',2001,#1) ;
#21=MANIFOLD_SOLID_BREP('Hauptk\X2\00F6\X0\rper',#30) ;
#39=CIRCLE('generated circle',#38,5.4) ;
#55=CIRCLE('generated circle',#54,5.4) ;
#74=CIRCLE('generated circle',#73,5.4) ;
#79=CIRCLE('generated circle',#78,5.4) ;
#96=CIRCLE('generated circle',#95,7.25) ;
#112=CIRCLE('generated circle',#111,7.25) ;
#131=CIRCLE('generated circle',#130,7.25) ;
#136=CIRCLE('generated circle',#135,7.25) ;
#153=CIRCLE('generated circle',#152,7.25) ;
#162=CIRCLE('generated circle',#161,7.25) ;
#199=CIRCLE('generated circle',#198,3.1) ;
#208=CIRCLE('generated circle',#207,3.1) ;
#232=CIRCLE('generated circle',#231,3.1) ;
#246=CIRCLE('generated circle',#245,3.1) ;
#265=CIRCLE('generated circle',#264,3.1) ;
#290=CIRCLE('generated circle',#289,3.1) ;
#304=CIRCLE('generated circle',#303,3.1) ;
#309=CIRCLE('generated circle',#308,3.1) ;
#337=CIRCLE('generated circle',#336,7.25) ;
#344=CIRCLE('generated circle',#343,7.25) ;
#365=CIRCLE('generated circle',#364,7.25) ;
#374=CIRCLE('generated circle',#373,7.25) ;
#417=CIRCLE('generated circle',#416,7.25) ;
#447=CIRCLE('generated circle',#446,7.25) ;
#22=COLOUR_RGB('Colour',0.686274509804,0.549019607843,0.533333333333) ;
#555=CONSTRUCTIVE_GEOMETRY_REPRESENTATION('supplemental geometry',(#549),#16) ;
#556=CONSTRUCTIVE_GEOMETRY_REPRESENTATION_RELATIONSHIP('supplemental geometry','',#19,#555) ;
#35=CYLINDRICAL_SURFACE('generated cylinder',#34,5.4) ;
#92=CYLINDRICAL_SURFACE('generated cylinder',#91,7.25) ;
#219=CYLINDRICAL_SURFACE('generated cylinder',#218,3.1) ;
#551=DRAUGHTING_PRE_DEFINED_COLOUR('white') ;
#550=DRAUGHTING_PRE_DEFINED_CURVE_FONT('continuous') ;
#44=EDGE_CURVE('',#41,#43,#39,.T.) ;
#51=EDGE_CURVE('',#41,#50,#48,.F.) ;
#58=EDGE_CURVE('',#50,#57,#55,.T.) ;
#63=EDGE_CURVE('',#43,#57,#62,.F.) ;
#75=EDGE_CURVE('',#43,#41,#74,.T.) ;
#80=EDGE_CURVE('',#57,#50,#79,.T.) ;
#101=EDGE_CURVE('',#98,#100,#96,.T.) ;
#108=EDGE_CURVE('',#98,#107,#105,.F.) ;
#115=EDGE_CURVE('',#107,#114,#112,.T.) ;
#120=EDGE_CURVE('',#100,#114,#119,.F.) ;
#132=EDGE_CURVE('',#100,#98,#131,.T.) ;
#137=EDGE_CURVE('',#114,#107,#136,.T.) ;
#158=EDGE_CURVE('',#155,#157,#153,.T.) ;
#163=EDGE_CURVE('',#157,#155,#162,.T.) ;
#204=EDGE_CURVE('',#201,#203,#199,.T.) ;
#209=EDGE_CURVE('',#203,#201,#208,.T.) ;
#228=EDGE_CURVE('',#225,#227,#223,.F.) ;
#235=EDGE_CURVE('',#234,#227,#232,.F.) ;
#242=EDGE_CURVE('',#241,#234,#239,.F.) ;
#249=EDGE_CURVE('',#241,#248,#246,.T.) ;
#254=EDGE_CURVE('',#248,#201,#253,.F.) ;
#261=EDGE_CURVE('',#260,#203,#258,.F.) ;
#266=EDGE_CURVE('',#260,#225,#265,.T.) ;
#286=EDGE_CURVE('',#283,#285,#281,.F.) ;
#293=EDGE_CURVE('',#292,#285,#290,.F.) ;
#300=EDGE_CURVE('',#299,#292,#297,.F.) ;
#305=EDGE_CURVE('',#299,#260,#304,.T.) ;
#310=EDGE_CURVE('',#248,#283,#309,.T.) ;
#333=EDGE_CURVE('',#332,#299,#330,.T.) ;
#340=EDGE_CURVE('',#332,#339,#337,.T.) ;
#347=EDGE_CURVE('',#339,#346,#344,.T.) ;
#352=EDGE_CURVE('',#225,#346,#351,.T.) ;
#370=EDGE_CURVE('',#367,#369,#365,.T.) ;
#377=EDGE_CURVE('',#369,#376,#374,.T.) ;
#382=EDGE_CURVE('',#376,#283,#381,.T.) ;
#387=EDGE_CURVE('',#241,#367,#386,.T.) ;
#401=EDGE_CURVE('',#369,#157,#400,.F.) ;
#406=EDGE_CURVE('',#339,#155,#405,.F.) ;
#413=EDGE_CURVE('',#332,#412,#410,.F.) ;
#420=EDGE_CURVE('',#412,#419,#417,.F.) ;
#425=EDGE_CURVE('',#376,#419,#424,.F.) ;
#443=EDGE_CURVE('',#367,#442,#440,.F.) ;
#450=EDGE_CURVE('',#442,#449,#447,.F.) ;
#455=EDGE_CURVE('',#346,#449,#454,.F.) ;
#476=EDGE_CURVE('',#442,#234,#475,.T.) ;
#493=EDGE_CURVE('',#449,#227,#492,.T.) ;
#517=EDGE_CURVE('',#285,#419,#516,.T.) ;
#529=EDGE_CURVE('',#292,#412,#528,.T.) ;
#64=EDGE_LOOP('',(#65,#66,#67,#68)) ;
#81=EDGE_LOOP('',(#82,#83,#84,#85)) ;
#121=EDGE_LOOP('',(#122,#123,#124,#125)) ;
#138=EDGE_LOOP('',(#139,#140,#141,#142)) ;
#164=EDGE_LOOP('',(#165,#166)) ;
#168=EDGE_LOOP('',(#169,#170)) ;
#178=EDGE_LOOP('',(#179,#180)) ;
#182=EDGE_LOOP('',(#183,#184)) ;
#192=EDGE_LOOP('',(#193,#194)) ;
#210=EDGE_LOOP('',(#211,#212)) ;
#267=EDGE_LOOP('',(#268,#269,#270,#271,#272,#273,#274,#275)) ;
#311=EDGE_LOOP('',(#312,#313,#314,#315,#316,#317,#318,#319)) ;
#353=EDGE_LOOP('',(#354,#355,#356,#357,#358,#359)) ;
#388=EDGE_LOOP('',(#389,#390,#391,#392,#393,#394)) ;
#426=EDGE_LOOP('',(#427,#428,#429,#430,#431,#432,#433,#434)) ;
#456=EDGE_LOOP('',(#457,#458,#459,#460,#461,#462,#463,#464)) ;
#477=EDGE_LOOP('',(#478,#479,#480,#481)) ;
#494=EDGE_LOOP('',(#495,#496,#497,#498)) ;
#506=EDGE_LOOP('',(#507,#508,#509,#510)) ;
#518=EDGE_LOOP('',(#519,#520,#521,#522)) ;
#530=EDGE_LOOP('',(#531,#532,#533,#534)) ;
#537=EDGE_LOOP('',(#538,#539,#540,#541)) ;
#69=FACE_OUTER_BOUND('',#64,.T.) ;
#86=FACE_OUTER_BOUND('',#81,.T.) ;
#126=FACE_OUTER_BOUND('',#121,.T.) ;
#143=FACE_OUTER_BOUND('',#138,.T.) ;
#167=FACE_OUTER_BOUND('',#164,.T.) ;
#181=FACE_OUTER_BOUND('',#178,.T.) ;
#195=FACE_OUTER_BOUND('',#192,.T.) ;
#276=FACE_OUTER_BOUND('',#267,.T.) ;
#320=FACE_OUTER_BOUND('',#311,.T.) ;
#360=FACE_OUTER_BOUND('',#353,.T.) ;
#395=FACE_OUTER_BOUND('',#388,.T.) ;
#435=FACE_OUTER_BOUND('',#426,.T.) ;
#465=FACE_OUTER_BOUND('',#456,.T.) ;
#482=FACE_OUTER_BOUND('',#477,.T.) ;
#499=FACE_OUTER_BOUND('',#494,.T.) ;
#511=FACE_OUTER_BOUND('',#506,.T.) ;
#523=FACE_OUTER_BOUND('',#518,.T.) ;
#535=FACE_OUTER_BOUND('',#530,.T.) ;
#542=FACE_OUTER_BOUND('',#537,.T.) ;
#48=LINE('Line',#45,#47) ;
#62=LINE('Line',#59,#61) ;
#105=LINE('Line',#102,#104) ;
#119=LINE('Line',#116,#118) ;
#223=LINE('Line',#220,#222) ;
#239=LINE('Line',#236,#238) ;
#253=LINE('Line',#250,#252) ;
#258=LINE('Line',#255,#257) ;
#281=LINE('Line',#278,#280) ;
#297=LINE('Line',#294,#296) ;
#330=LINE('Line',#327,#329) ;
#351=LINE('Line',#348,#350) ;
#381=LINE('Line',#378,#380) ;
#386=LINE('Line',#383,#385) ;
#400=LINE('Line',#397,#399) ;
#405=LINE('Line',#402,#404) ;
#410=LINE('Line',#407,#409) ;
#424=LINE('Line',#421,#423) ;
#440=LINE('Line',#437,#439) ;
#454=LINE('Line',#451,#453) ;
#475=LINE('Line',#472,#474) ;
#492=LINE('Line',#489,#491) ;
#516=LINE('Line',#513,#515) ;
#528=LINE('Line',#525,#527) ;
#149=PLANE('',#148) ;
#177=PLANE('',#176) ;
#191=PLANE('',#190) ;
#326=PLANE('',#325) ;
#471=PLANE('',#470) ;
#488=PLANE('',#487) ;
#505=PLANE('',#504) ;
#9=PRODUCT_CATEGORY_RELATIONSHIP(' ',' ',#7,#8) ;
#6=PRODUCT_DEFINITION_FORMATION_WITH_SPECIFIED_SOURCE('',' ',#5,.NOT_KNOWN.) ;
#20=SHAPE_DEFINITION_REPRESENTATION(#11,#19) ;
#41=VERTEX_POINT('',#40) ;
#43=VERTEX_POINT('',#42) ;
#50=VERTEX_POINT('',#49) ;
#57=VERTEX_POINT('',#56) ;
#98=VERTEX_POINT('',#97) ;
#100=VERTEX_POINT('',#99) ;
#107=VERTEX_POINT('',#106) ;
#114=VERTEX_POINT('',#113) ;
#155=VERTEX_POINT('',#154) ;
#157=VERTEX_POINT('',#156) ;
#201=VERTEX_POINT('',#200) ;
#203=VERTEX_POINT('',#202) ;
#225=VERTEX_POINT('',#224) ;
#227=VERTEX_POINT('',#226) ;
#234=VERTEX_POINT('',#233) ;
#241=VERTEX_POINT('',#240) ;
#248=VERTEX_POINT('',#247) ;
#260=VERTEX_POINT('',#259) ;
#283=VERTEX_POINT('',#282) ;
#285=VERTEX_POINT('',#284) ;
#292=VERTEX_POINT('',#291) ;
#299=VERTEX_POINT('',#298) ;
#332=VERTEX_POINT('',#331) ;
#339=VERTEX_POINT('',#338) ;
#346=VERTEX_POINT('',#345) ;
#367=VERTEX_POINT('',#366) ;
#369=VERTEX_POINT('',#368) ;
#376=VERTEX_POINT('',#375) ;
#412=VERTEX_POINT('',#411) ;
#419=VERTEX_POINT('',#418) ;
#442=VERTEX_POINT('',#441) ;
#449=VERTEX_POINT('',#448) ;
#12=(LENGTH_UNIT()NAMED_UNIT(*)SI_UNIT(.MILLI.,.METRE.)) ;
#13=(NAMED_UNIT(*)PLANE_ANGLE_UNIT()SI_UNIT($,.RADIAN.)) ;
#14=(NAMED_UNIT(*)SI_UNIT($,.STERADIAN.)SOLID_ANGLE_UNIT()) ;
#16=(GEOMETRIC_REPRESENTATION_CONTEXT(3)GLOBAL_UNCERTAINTY_ASSIGNED_CONTEXT((#15))GLOBAL_UNIT_ASSIGNED_CONTEXT((#12,#13,#14))REPRESENTATION_CONTEXT(' ',' ')) ;
ENDSEC;
END-ISO-10303-21;
